999
DXF file: C:\Users\sesa63760\Dev\_Creo\CAD\MCADID0000844_3D-CAD\drw0001_5.dxf
999
Pro/ENGINEER 2019471 by Parametric Technology Corporation
  0
SECTION
  2
HEADER
  9
$ACADVER
  1
AC1024
  9
$DWGCODEPAGE
  3
ANSI_1252
  9
$EXTMAX
 10
390.0952690201
 20
551.7061661856
 30
0.0
  9
$EXTMIN
 10
0.0
 20
0.0
 30
0.0
  9
$LIMMIN
 10
0.0
 20
0.0
  9
$LIMMAX
 10
390.0952690201
 20
551.7061661856
  9
$VIEWCTR
 10
195.0476345101
 20
275.8530830928
  9
$VIEWSIZE
 40
551.7061661856
  9
$CLAYER
  8
0
  9
$LTSCALE
 40
35.9630686106
  9
$CELTYPE
  6
BYLAYER
  9
$DIMSCALE
 40
1.0
  9
$DIMASZ
 40
4.6439912979
  9
$DIMEXO
 40
1.0
  9
$DIMDLI
 40
24.8472110401
  9
$DIMEXE
 40
1.0
  9
$DIMCEN
 40
5.8848657726
  9
$DIMLFAC
 40
1.0
  9
$DIMBLK
  1
_FILLED
  9
$DIMALT
 70
0
  9
$DIMALTF
 40
0.0393700787
  9
$DIMTXT
 40
6.501587817
  9
$DIMTOL
 70
1
  9
$DIMLIM
 70
0
  9
$DIMTFAC
 40
1.0
  9
$DIMTP
 40
0.01
  9
$DIMTM
 40
0.01
  9
$DIMGAP
 40
0.625
  9
$DIMDSEP
 70
46
  9
$AUNITS
 70
0
  9
$PDMODE
 70
3
  9
$PDSIZE
 40
0.3125
  9
$HANDSEED
  5
307
  9
$TILEMODE
 70
1
  9
$MEASUREMENT
 70
1
  9
$INSUNITS
 70
4
  0
ENDSEC
  0
SECTION
  2
CLASSES
  0
CLASS
  1
ACDBDICTIONARYWDFLT
  2
AcDbDictionaryWithDefault
  3
AutoCAD 2000
 90
0
 91
1
280
0
281
0
  0
CLASS
  1
ACDBPLACEHOLDER
  2
AcDbPlaceHolder
  3
AutoCAD 2000
 90
0
 91
1
280
0
281
0
  0
CLASS
  1
LAYOUT
  2
AcDbLayout
  3
AutoCAD 2000
 90
0
 91
0
280
0
281
0
  0
ENDSEC
  0
SECTION
  2
TABLES
  0
TABLE
  2
VPORT
  5
8
100
AcDbSymbolTable
 70
2
  0
VPORT
  5
1F4
100
AcDbSymbolTableRecord
100
AcDbViewportTableRecord
  2
*ACTIVE
 70
0
 10
0.0
 20
0.0
 11
1.0
 21
1.0
 12
195.0476345101
 22
275.8530830928
 13
0.0
 23
0.0
 14
1.0
 24
1.0
 15
0.0
 25
0.0
 16
0.0
 26
0.0
 36
1.0
 17
0.0
 27
0.0
 37
0.0
 40
551.7061661856
 41
0.7070707071
 42
50.0
 43
0.0
 44
0.0
 50
0.0
 51
0.0
 71
0
 72
100
 73
1
 74
1
 75
0
 76
0
 77
0
 78
0
  0
ENDTAB
  0
TABLE
  2
LTYPE
  5
5
100
AcDbSymbolTable
 70
6
  0
LTYPE
  5
14
100
AcDbSymbolTableRecord
100
AcDbLinetypeTableRecord
  2
BYBLOCK
 70
0
  3

 72
65
 73
0
 40
0.0
  0
LTYPE
  5
15
100
AcDbSymbolTableRecord
100
AcDbLinetypeTableRecord
  2
BYLAYER
 70
0
  3

 72
65
 73
0
 40
0.0
  0
LTYPE
  5
16
100
AcDbSymbolTableRecord
100
AcDbLinetypeTableRecord
  2
CONTINUOUS
 70
64
  3
Solid line
 72
65
 73
0
 40
0.0
  0
LTYPE
  5
1F5
100
AcDbSymbolTableRecord
100
AcDbLinetypeTableRecord
  2
CENTER
 70
64
  3
____ _ ____ _ ____ _ ____ _ ____ _ ____ _ ____
 72
65
 73
4
 40
0.6
 49
0.375
 74
0
 49
-0.075
 74
0
 49
0.075
 74
0
 49
-0.075
 74
0
  0
LTYPE
  5
1F6
100
AcDbSymbolTableRecord
100
AcDbLinetypeTableRecord
  2
HIDDEN
 70
64
  3
- - - - - - - - - - - - - - - - - - - -
 72
65
 73
2
 40
0.2
 49
0.1
 74
0
 49
-0.1
 74
0
  0
LTYPE
  5
1F7
100
AcDbSymbolTableRecord
100
AcDbLinetypeTableRecord
  2
PHANTOM
 70
64
  3
_____ _ _ _____ _ _ _____ _ _ _____
 72
65
 73
6
 40
0.8
 49
0.45
 74
0
 49
-0.05
 74
0
 49
0.1
 74
0
 49
-0.05
 74
0
 49
0.1
 74
0
 49
-0.05
 74
0
  0
LTYPE
  5
1F8
100
AcDbSymbolTableRecord
100
AcDbLinetypeTableRecord
  2
DOT
 70
64
  3
. . . . . . . . . . . . . . . . . . . .
 72
65
 73
2
 40
0.2
 49
0.1
 74
0
 49
-0.1
 74
0
  0
LTYPE
  5
1F9
100
AcDbSymbolTableRecord
100
AcDbLinetypeTableRecord
  2
DASHED
 70
64
  3
- - - - - - - - - - - - - - - - - - - -
 72
65
 73
2
 40
0.2
 49
0.1
 74
0
 49
-0.1
 74
0
  0
ENDTAB
  0
TABLE
  2
LAYER
  5
2
100
AcDbSymbolTable
 70
36
  0
LAYER
  5
10
100
AcDbSymbolTableRecord
100
AcDbLayerTableRecord
  2
0
 70
0
 62
7
  6
CONTINUOUS
370
-3
390
F
  0
LAYER
  5
1FA
100
AcDbSymbolTableRecord
100
AcDbLayerTableRecord
  2
DEFAULT_1
 70
0
 62
7
  6
CENTER
370
-3
390
F
  0
LAYER
  5
1FB
100
AcDbSymbolTableRecord
100
AcDbLayerTableRecord
  2
DEFAULT_2
 70
0
 62
8
  6
HIDDEN
370
-3
390
F
  0
LAYER
  5
1FC
100
AcDbSymbolTableRecord
100
AcDbLayerTableRecord
  2
DEFAULT_3
 70
0
 62
7
  6
PHANTOM
370
-3
390
F
  0
LAYER
  5
1FD
100
AcDbSymbolTableRecord
100
AcDbLayerTableRecord
  2
00_COMPONENTS
 70
0
 62
7
  6
CONTINUOUS
370
-3
390
F
  0
LAYER
  5
1FE
100
AcDbSymbolTableRecord
100
AcDbLayerTableRecord
  2
01_1_DEFAULT_DATUMS
 70
0
 62
7
  6
CONTINUOUS
370
-3
390
F
  0
LAYER
  5
1FF
100
AcDbSymbolTableRecord
100
AcDbLayerTableRecord
  2
01_PLANES
 70
0
 62
7
  6
CONTINUOUS
370
-3
390
F
  0
LAYER
  5
200
100
AcDbSymbolTableRecord
100
AcDbLayerTableRecord
  2
02_COORD_SYS
 70
0
 62
7
  6
CONTINUOUS
370
-3
390
F
  0
LAYER
  5
201
100
AcDbSymbolTableRecord
100
AcDbLayerTableRecord
  2
03_AXES
 70
0
 62
7
  6
CONTINUOUS
370
-3
390
F
  0
LAYER
  5
202
100
AcDbSymbolTableRecord
100
AcDbLayerTableRecord
  2
04_POINTS
 70
0
 62
7
  6
CONTINUOUS
370
-3
390
F
  0
LAYER
  5
203
100
AcDbSymbolTableRecord
100
AcDbLayerTableRecord
  2
05_CURVES
 70
0
 62
7
  6
CONTINUOUS
370
-3
390
F
  0
LAYER
  5
204
100
AcDbSymbolTableRecord
100
AcDbLayerTableRecord
  2
06_SURFS
 70
0
 62
7
  6
CONTINUOUS
370
-3
390
F
  0
LAYER
  5
205
100
AcDbSymbolTableRecord
100
AcDbLayerTableRecord
  2
07_COSMETICS
 70
0
 62
7
  6
CONTINUOUS
370
-3
390
F
  0
LAYER
  5
206
100
AcDbSymbolTableRecord
100
AcDbLayerTableRecord
  2
10_NOTES
 70
0
 62
7
  6
CONTINUOUS
370
-3
390
F
  0
LAYER
  5
207
100
AcDbSymbolTableRecord
100
AcDbLayerTableRecord
  2
11_NOTES_PUB
 70
0
 62
7
  6
CONTINUOUS
370
-3
390
F
  0
LAYER
  5
208
100
AcDbSymbolTableRecord
100
AcDbLayerTableRecord
  2
13_REF_GTOL
 70
0
 62
7
  6
CONTINUOUS
370
-3
390
F
  0
LAYER
  5
209
100
AcDbSymbolTableRecord
100
AcDbLayerTableRecord
  2
16_MISC
 70
0
 62
7
  6
CONTINUOUS
370
-3
390
F
  0
LAYER
  5
20A
100
AcDbSymbolTableRecord
100
AcDbLayerTableRecord
  2
17_NO_PRINT
 70
0
 62
7
  6
CONTINUOUS
370
-3
390
F
  0
LAYER
  5
20B
100
AcDbSymbolTableRecord
100
AcDbLayerTableRecord
  2
18_DATUM_CAMS_JOINTS
 70
0
 62
7
  6
CONTINUOUS
370
-3
390
F
  0
LAYER
  5
20C
100
AcDbSymbolTableRecord
100
AcDbLayerTableRecord
  2
19_DATUM_FUNCTIONAL
 70
0
 62
7
  6
CONTINUOUS
370
-3
390
F
  0
LAYER
  5
20D
100
AcDbSymbolTableRecord
100
AcDbLayerTableRecord
  2
20_DATUM_KINEMATIC_SCHEME
 70
0
 62
7
  6
CONTINUOUS
370
-3
390
F
  0
ENDTAB
  0
TABLE
  2
STYLE
  5
3
100
AcDbSymbolTable
 70
1
  0
STYLE
  5
11
100
AcDbSymbolTableRecord
100
AcDbTextStyleTableRecord
  2
STANDARD
 70
0
 40
0.0
 41
0.8
 50
0.0
 71
0
 42
0.2
  3
txt
  4

  0
STYLE
  5
20E
100
AcDbSymbolTableRecord
100
AcDbTextStyleTableRecord
  2
TEXTSTYLE_1
 70
0
 40
0.0
 41
0.8
 50
0.0
 71
0
 42
0.2
  3
gdt
  4

  0
ENDTAB
  0
TABLE
  2
VIEW
  5
6
100
AcDbSymbolTable
 70
0
  0
ENDTAB
  0
TABLE
  2
UCS
  5
7
100
AcDbSymbolTable
 70
0
  0
ENDTAB
  0
TABLE
  2
APPID
  5
9
100
AcDbSymbolTable
 70
1
  0
APPID
  5
20F
100
AcDbSymbolTableRecord
100
AcDbRegAppTableRecord
  2
ACAD
 70
0
  0
ENDTAB
  0
TABLE
  2
BLOCK_RECORD
  5
1
100
AcDbSymbolTable
 70
0
  0
BLOCK_RECORD
  5
210
100
AcDbSymbolTableRecord
100
AcDbBlockTableRecord
  2
*Model_Space
  0
BLOCK_RECORD
  5
211
100
AcDbSymbolTableRecord
100
AcDbBlockTableRecord
  2
*Paper_Space
  0
BLOCK_RECORD
  5
212
100
AcDbSymbolTableRecord
100
AcDbBlockTableRecord
  2
_FILLED
  0
ENDTAB
  0
TABLE
  2
DIMSTYLE
  5
A
100
AcDbSymbolTable
 70
1
100
AcDbDimStyleTable
 71
0
  0
DIMSTYLE
105
213
100
AcDbSymbolTableRecord
100
AcDbDimStyleTableRecord
  2
STANDARD
 70
0
  3

  4

 40
1.0
 41
4.6439912979
 42
1.0
 43
0.38
 44
1.0
 45
0.0
 46
0.0
 47
0.01
 48
0.01
140
6.501587817
141
0.09
142
0.0
143
25.4
144
1.0
145
0.0
146
1.0
147
0.625
 71
1
 72
0
 73
0
 74
0
 75
0
 76
0
 77
1
 78
8
 79
2
170
0
171
1
172
0
173
0
174
0
175
0
176
0
177
0
178
0
270
2
179
2
271
2
272
2
273
2
274
2
275
0
280
0
281
0
282
0
283
1
284
8
285
0
286
0
287
3
288
0
340
11
278
46
341
212
342
212
343
212
344
212
  0
ENDTAB
  0
ENDSEC
  0
SECTION
  2
BLOCKS
  0
BLOCK
  5
20
100
AcDbEntity
  8
0
100
AcDbBlockBegin
  2
*Model_Space
 70
0
 10
0.0
 20
0.0
 30
0.0
  3
*Model_Space
  1

  0
ENDBLK
  5
21
100
AcDbEntity
  8
0
100
AcDbBlockEnd
  0
BLOCK
  5
1C
100
AcDbEntity
  8
0
100
AcDbBlockBegin
  2
*Paper_Space
 70
0
 10
0.0
 20
0.0
 30
0.0
  3
*Paper_Space
  1

  0
ENDBLK
  5
1D
100
AcDbEntity
  8
0
100
AcDbBlockEnd
  0
BLOCK
  5
214
100
AcDbEntity
  8
0
100
AcDbBlockBegin
  2
_FILLED
 70
64
 10
0.0
 20
0.0
  3
_FILLED
  1

  0
SOLID
  5
215
100
AcDbEntity
  8
0
  6
BYBLOCK
 62
0
100
AcDbTrace
 10
0.0
 20
0.0
 11
-1.0
 21
0.25
 12
-1.0
 22
-0.25
 13
-1.0
 23
-0.25
  0
ENDBLK
  5
216
100
AcDbEntity
  8
0
  6
BYBLOCK
 62
0
100
AcDbBlockEnd
  0
ENDSEC
  0
SECTION
  2
ENTITIES
  0
LINE
  5
217
100
AcDbEntity
  8
0
100
AcDbLine
 62
7
  6
CONTINUOUS
 10
235.3774635617
 20
98.5283734159
 11
240.3774625187
 21
98.5283734159
  0
LINE
  5
218
100
AcDbEntity
  8
0
100
AcDbLine
 62
7
  6
CONTINUOUS
 10
235.3774635617
 20
100.5283476667
 11
240.3774625187
 21
100.5283476667
  0
LINE
  5
219
100
AcDbEntity
  8
0
100
AcDbLine
 62
7
  6
CONTINUOUS
 10
138.1954132144
 20
101.5283645944
 11
125.4724605803
 21
101.5283645944
  0
LINE
  5
21A
100
AcDbEntity
  8
0
100
AcDbLine
 62
7
  6
CONTINUOUS
 10
85.4724559609
 20
101.5283645944
 11
45.4724621599
 21
101.5283645944
  0
LINE
  5
21B
100
AcDbEntity
  8
0
100
AcDbLine
 62
7
  6
CONTINUOUS
 10
86.4724590008
 20
117.0257808154
 11
87.4724535768
 21
117.0283616887
  0
LINE
  5
21C
100
AcDbEntity
  8
0
100
AcDbLine
 62
7
  6
CONTINUOUS
 10
85.4724545777
 20
106.0283654736
 11
86.4724590008
 21
106.0283654736
  0
LINE
  5
21D
100
AcDbEntity
  8
0
100
AcDbLine
 62
7
  6
CONTINUOUS
 10
90.9724563782
 20
107.1283659098
 11
87.4724535768
 21
107.1281996229
  0
LINE
  5
21E
100
AcDbEntity
  8
0
100
AcDbLine
 62
7
  6
CONTINUOUS
 10
85.4724545777
 20
118.0283637152
 11
86.4724590008
 21
118.0283637152
  0
LINE
  5
21F
100
AcDbEntity
  8
0
100
AcDbLine
 62
7
  6
CONTINUOUS
 10
233.8699615125
 20
120.5283583955
 11
242.0357722793
 21
120.5283583955
  0
LINE
  5
220
100
AcDbEntity
  8
0
100
AcDbLine
 62
7
  6
CONTINUOUS
 10
90.9724563782
 20
116.928363279
 11
87.4724535768
 21
116.9285295659
  0
LINE
  5
221
100
AcDbEntity
  8
0
100
AcDbLine
 62
7
  6
CONTINUOUS
 10
86.4724590008
 20
107.0309483734
 11
87.4724535768
 21
107.0283675001
  0
LINE
  5
222
100
AcDbEntity
  8
0
100
AcDbLine
 62
7
  6
CONTINUOUS
 10
45.4724621599
 20
451.5283645944
 11
45.4724621599
 21
101.5283645944
  0
LINE
  5
223
100
AcDbEntity
  8
0
100
AcDbLine
 62
7
  6
CONTINUOUS
 10
47.7724559609
 20
101.5283645944
 11
47.7724559609
 21
451.5283645944
  0
LINE
  5
224
100
AcDbEntity
  8
0
100
AcDbLine
 62
7
  6
CONTINUOUS
 10
303.5723553153
 20
128.9283645944
 11
299.5725077982
 21
128.9283645944
  0
LINE
  5
225
100
AcDbEntity
  8
0
100
AcDbLine
 62
7
  6
CONTINUOUS
 10
222.0723553153
 20
128.9283645944
 11
218.0725077982
 21
128.9283645944
  0
LINE
  5
226
100
AcDbEntity
  8
0
100
AcDbLine
 62
7
  6
CONTINUOUS
 10
162.0673553153
 20
128.9283645944
 11
158.0675077982
 21
128.9283645944
  0
LINE
  5
227
100
AcDbEntity
  8
0
100
AcDbLine
 62
7
  6
CONTINUOUS
 10
313.6724634592
 20
130.0290705518
 11
307.9724638288
 21
130.0290705518
  0
LINE
  5
228
100
AcDbEntity
  8
0
100
AcDbLine
 62
7
  6
CONTINUOUS
 10
305.5723614861
 20
130.9289441533
 11
297.5725566347
 21
130.9289441533
  0
LINE
  5
229
100
AcDbEntity
  8
0
100
AcDbLine
 62
7
  6
CONTINUOUS
 10
224.0723614861
 20
130.9289441533
 11
216.0725566347
 21
130.9289441533
  0
LINE
  5
22A
100
AcDbEntity
  8
0
100
AcDbLine
 62
7
  6
CONTINUOUS
 10
164.0673614861
 20
130.9289441533
 11
156.0675566347
 21
130.9289441533
  0
LINE
  5
22B
100
AcDbEntity
  8
0
100
AcDbLine
 62
7
  6
CONTINUOUS
 10
307.9724638288
 20
131.5290810422
 11
313.6724634592
 21
131.5290810422
  0
LINE
  5
22C
100
AcDbEntity
  8
0
100
AcDbLine
 62
7
  6
CONTINUOUS
 10
154.1524632399
 20
132.0283593492
 11
313.6649607246
 21
132.0283593492
  0
LINE
  5
22D
100
AcDbEntity
  8
0
100
AcDbLine
 62
7
  6
CONTINUOUS
 10
153.8424632077
 20
133.5283698396
 11
154.1524632399
 21
133.5283698396
  0
LINE
  5
22E
100
AcDbEntity
  8
0
100
AcDbLine
 62
7
  6
CONTINUOUS
 10
151.577970994
 20
135.0283505277
 11
156.1524729218
 21
135.0283505277
  0
LINE
  5
22F
100
AcDbEntity
  8
0
100
AcDbLine
 62
7
  6
CONTINUOUS
 10
173.5489247861
 20
141.5283562497
 11
137.395999444
 21
141.5283562497
  0
LINE
  5
230
100
AcDbEntity
  8
0
100
AcDbLine
 62
7
  6
CONTINUOUS
 10
83.1724595849
 20
451.5283645944
 11
83.1724595849
 21
101.5283645944
  0
LINE
  5
231
100
AcDbEntity
  8
0
100
AcDbLine
 62
7
  6
CONTINUOUS
 10
85.4724559609
 20
101.5283645944
 11
85.4724559609
 21
451.5283645944
  0
LINE
  5
232
100
AcDbEntity
  8
0
100
AcDbLine
 62
7
  6
CONTINUOUS
 10
86.4724590008
 20
449.0375619569
 11
86.4724590008
 21
437.0391672319
  0
LINE
  5
233
100
AcDbEntity
  8
0
100
AcDbLine
 62
7
  6
CONTINUOUS
 10
86.4724590008
 20
118.0275619569
 11
86.4724590008
 21
106.0291672319
  0
LINE
  5
234
100
AcDbEntity
  8
0
100
AcDbLine
 62
7
  6
CONTINUOUS
 10
87.4724535768
 20
448.0383019337
 11
87.4724535768
 21
438.0384272551
  0
LINE
  5
235
100
AcDbEntity
  8
0
100
AcDbLine
 62
7
  6
CONTINUOUS
 10
87.4724535768
 20
117.0283019337
 11
87.4724535768
 21
107.0284272551
  0
LINE
  5
236
100
AcDbEntity
  8
0
100
AcDbLine
 62
7
  6
CONTINUOUS
 10
90.9724563782
 20
447.938363279
 11
90.9724563782
 21
438.1383659098
  0
LINE
  5
237
100
AcDbEntity
  8
0
100
AcDbLine
 62
7
  6
CONTINUOUS
 10
90.9724563782
 20
116.928363279
 11
90.9724563782
 21
107.1283659098
  0
LINE
  5
238
100
AcDbEntity
  8
0
100
AcDbLine
 62
7
  6
CONTINUOUS
 10
91.4724563782
 20
447.438363279
 11
91.4724563782
 21
438.6383659098
  0
LINE
  5
239
100
AcDbEntity
  8
0
100
AcDbLine
 62
7
  6
CONTINUOUS
 10
91.4724563782
 20
116.428363279
 11
91.4724563782
 21
107.6283659098
  0
LINE
  5
23A
100
AcDbEntity
  8
0
100
AcDbLine
 62
7
  6
CONTINUOUS
 10
245.7051827137
 20
424.3864243732
 11
245.8408801381
 21
424.4503503547
  0
LINE
  5
23B
100
AcDbEntity
  8
0
100
AcDbLine
 62
7
  6
CONTINUOUS
 10
245.5439297979
 20
421.9375377403
 11
246.6199612741
 21
422.4444156395
  0
LINE
  5
23C
100
AcDbEntity
  8
0
100
AcDbLine
 62
7
  6
CONTINUOUS
 10
339.6124610727
 20
184.8283535699
 11
344.2658627455
 21
185.6488711099
  0
LINE
  5
23D
100
AcDbEntity
  8
0
100
AcDbLine
 62
7
  6
CONTINUOUS
 10
245.8408801381
 20
128.6063672857
 11
245.7051827137
 21
128.6702932672
  0
LINE
  5
23E
100
AcDbEntity
  8
0
100
AcDbLine
 62
7
  6
CONTINUOUS
 10
246.6199612741
 20
130.6123020009
 11
245.5439297979
 21
131.1191799001
  0
LINE
  5
23F
100
AcDbEntity
  8
0
100
AcDbLine
 62
7
  6
CONTINUOUS
 10
315.9724576895
 20
182.0609090373
 11
334.8559035533
 21
183.0190183968
  0
LINE
  5
240
100
AcDbEntity
  8
0
100
AcDbLine
 62
7
  6
CONTINUOUS
 10
345.0211832359
 20
185.3327447006
 11
344.4624612157
 21
185.3083497743
  0
LINE
  5
241
100
AcDbEntity
  8
0
100
AcDbLine
 62
7
  6
CONTINUOUS
 10
317.0718795015
 20
172.5284621687
 11
315.9724576895
 21
172.5284621687
  0
LINE
  5
242
100
AcDbEntity
  8
0
100
AcDbLine
 62
7
  6
CONTINUOUS
 10
317.0718795015
 20
180.5282670201
 11
315.9724576895
 21
180.5282670201
  0
LINE
  5
243
100
AcDbEntity
  8
0
100
AcDbLine
 62
7
  6
CONTINUOUS
 10
353.9730665594
 20
198.535176866
 11
340.8002773388
 21
198.2283645944
  0
LINE
  5
244
100
AcDbEntity
  8
0
100
AcDbLine
 62
7
  6
CONTINUOUS
 10
334.8559035533
 20
184.5283484916
 11
339.4124576871
 21
184.5283484916
  0
LINE
  5
245
100
AcDbEntity
  8
0
100
AcDbLine
 62
7
  6
CONTINUOUS
 10
347.2224590604
 20
187.5783645944
 11
345.2124593584
 21
187.5783645944
  0
LINE
  5
246
100
AcDbEntity
  8
0
100
AcDbLine
 62
7
  6
CONTINUOUS
 10
347.2224590604
 20
192.3383645944
 11
345.2124593584
 21
192.3383645944
  0
LINE
  5
247
100
AcDbEntity
  8
0
100
AcDbLine
 62
7
  6
CONTINUOUS
 10
342.312462074
 20
193.558347867
 11
344.6124593584
 21
193.5583502893
  0
LINE
  5
248
100
AcDbEntity
  8
0
100
AcDbLine
 62
7
  6
CONTINUOUS
 10
340.4457546596
 20
195.5283645944
 11
343.1724590604
 21
195.5283645944
  0
LINE
  5
249
100
AcDbEntity
  8
0
100
AcDbLine
 62
7
  6
CONTINUOUS
 10
340.8002773388
 20
198.2283645944
 11
332.9135835877
 21
198.2283645944
  0
LINE
  5
24A
100
AcDbEntity
  8
0
100
AcDbLine
 62
7
  6
CONTINUOUS
 10
125.4724605803
 20
451.5283586339
 11
125.4724605803
 21
101.5283645944
  0
LINE
  5
24B
100
AcDbEntity
  8
0
100
AcDbLine
 62
7
  6
CONTINUOUS
 10
127.7724605803
 20
101.5283645944
 11
127.7724605803
 21
451.5283586339
  0
LINE
  5
24C
100
AcDbEntity
  8
0
100
AcDbLine
 62
7
  6
CONTINUOUS
 10
135.4724621002
 20
410.5283586339
 11
135.4724606995
 21
378.5283597068
  0
LINE
  5
24D
100
AcDbEntity
  8
0
100
AcDbLine
 62
7
  6
CONTINUOUS
 10
135.4724606995
 20
211.6048197712
 11
135.4724606995
 21
143.4518991824
  0
LINE
  5
24E
100
AcDbEntity
  8
0
100
AcDbLine
 62
7
  6
CONTINUOUS
 10
173.5489256287
 20
213.5283586339
 11
137.3959995622
 21
213.5283586339
  0
LINE
  5
24F
100
AcDbEntity
  8
0
100
AcDbLine
 62
7
  6
CONTINUOUS
 10
150.4724621002
 20
410.5283586339
 11
150.4724612956
 21
378.5283597068
  0
LINE
  5
250
100
AcDbEntity
  8
0
100
AcDbLine
 62
7
  6
CONTINUOUS
 10
153.8424632077
 20
135.0283645944
 11
153.8424632077
 21
133.5283698396
  0
LINE
  5
251
100
AcDbEntity
  8
0
100
AcDbLine
 62
7
  6
CONTINUOUS
 10
154.1524632399
 20
421.0283582912
 11
154.1524632399
 21
419.5283645944
  0
LINE
  5
252
100
AcDbEntity
  8
0
100
AcDbLine
 62
7
  6
CONTINUOUS
 10
154.1524632399
 20
135.0283645944
 11
154.1524632399
 21
132.0283593492
  0
LINE
  5
253
100
AcDbEntity
  8
0
100
AcDbLine
 62
7
  6
CONTINUOUS
 10
340.933815385
 20
193.9602776288
 11
341.0750994508
 21
193.9283436994
  0
LINE
  5
254
100
AcDbEntity
  8
0
100
AcDbLine
 62
7
  6
CONTINUOUS
 10
156.0675566347
 20
132.0283593492
 11
156.0675566347
 21
130.9289441533
  0
LINE
  5
255
100
AcDbEntity
  8
0
100
AcDbLine
 62
7
  6
CONTINUOUS
 10
156.0675566347
 20
421.0283582912
 11
156.0675566347
 21
422.1277850355
  0
LINE
  5
256
100
AcDbEntity
  8
0
100
AcDbLine
 62
7
  6
CONTINUOUS
 10
156.1524635677
 20
135.0283645944
 11
156.1524635677
 21
132.0283593492
  0
LINE
  5
257
100
AcDbEntity
  8
0
100
AcDbLine
 62
7
  6
CONTINUOUS
 10
156.1524682448
 20
419.5283645944
 11
156.1524682448
 21
421.0283582912
  0
LINE
  5
258
100
AcDbEntity
  8
0
100
AcDbLine
 62
7
  6
CONTINUOUS
 10
164.0673614861
 20
422.1277850355
 11
164.0673614861
 21
421.0283582912
  0
LINE
  5
259
100
AcDbEntity
  8
0
100
AcDbLine
 62
7
  6
CONTINUOUS
 10
164.0673614861
 20
130.9289441533
 11
164.0673614861
 21
132.0283593492
  0
LINE
  5
25A
100
AcDbEntity
  8
0
100
AcDbLine
 62
7
  6
CONTINUOUS
 10
233.8699615125
 20
432.5283592449
 11
229.1199630623
 21
422.4444156395
  0
LINE
  5
25B
100
AcDbEntity
  8
0
100
AcDbLine
 62
7
  6
CONTINUOUS
 10
230.1959945385
 20
421.9375377403
 11
233.2985653107
 21
428.5241192089
  0
LINE
  5
25C
100
AcDbEntity
  8
0
100
AcDbLine
 62
7
  6
CONTINUOUS
 10
354.9526249173
 20
231.6409511233
 11
353.9723799355
 21
231.6409511233
  0
LINE
  5
25D
100
AcDbEntity
  8
0
100
AcDbLine
 62
7
  6
CONTINUOUS
 10
353.8335784
 20
237.6042092893
 11
354.8182218451
 21
237.6042092893
  0
LINE
  5
25E
100
AcDbEntity
  8
0
100
AcDbLine
 62
7
  6
CONTINUOUS
 10
342.312462074
 20
193.558347867
 11
341.0750994508
 21
193.9283436994
  0
LINE
  5
25F
100
AcDbEntity
  8
0
100
AcDbLine
 62
7
  6
CONTINUOUS
 10
229.1199630623
 20
130.6123020009
 11
233.8699615125
 21
120.5283583955
  0
LINE
  5
260
100
AcDbEntity
  8
0
100
AcDbLine
 62
7
  6
CONTINUOUS
 10
233.2985653107
 20
124.5325984315
 11
230.1959945385
 21
131.1191799001
  0
LINE
  5
261
100
AcDbEntity
  8
0
100
AcDbLine
 62
7
  6
CONTINUOUS
 10
175.4724621002
 20
211.6048221624
 11
175.4724616681
 21
143.4518875436
  0
LINE
  5
262
100
AcDbEntity
  8
0
100
AcDbLine
 62
7
  6
CONTINUOUS
 10
150.8164024477
 20
130.709278758
 11
151.577970994
 21
135.0283505277
  0
LINE
  5
263
100
AcDbEntity
  8
0
100
AcDbLine
 62
7
  6
CONTINUOUS
 10
151.3134828334
 20
419.528357114
 11
150.8164024477
 21
422.3474370198
  0
LINE
  5
264
100
AcDbEntity
  8
0
100
AcDbLine
 62
7
  6
CONTINUOUS
 10
353.2556944519
 20
266.0698825744
 11
354.2503954897
 21
266.0698825744
  0
LINE
  5
265
100
AcDbEntity
  8
0
100
AcDbLine
 62
7
  6
CONTINUOUS
 10
216.0725566347
 20
132.0283593492
 11
216.0725566347
 21
130.9289441533
  0
LINE
  5
266
100
AcDbEntity
  8
0
100
AcDbLine
 62
7
  6
CONTINUOUS
 10
216.0725566347
 20
421.0283582912
 11
216.0725566347
 21
422.1277850355
  0
LINE
  5
267
100
AcDbEntity
  8
0
100
AcDbLine
 62
7
  6
CONTINUOUS
 10
140.8794550721
 20
103.4077586488
 11
150.8164024477
 21
130.709278758
  0
LINE
  5
268
100
AcDbEntity
  8
0
100
AcDbLine
 62
7
  6
CONTINUOUS
 10
150.8164024477
 20
422.3474370198
 11
140.8794550721
 21
449.6489734271
  0
LINE
  5
269
100
AcDbEntity
  8
0
100
AcDbLine
 62
7
  6
CONTINUOUS
 10
224.0723614861
 20
422.1277850355
 11
224.0723614861
 21
421.0283582912
  0
LINE
  5
26A
100
AcDbEntity
  8
0
100
AcDbLine
 62
7
  6
CONTINUOUS
 10
224.0723614861
 20
130.9289441533
 11
224.0723614861
 21
132.0283593492
  0
LINE
  5
26B
100
AcDbEntity
  8
0
100
AcDbLine
 62
7
  6
CONTINUOUS
 10
233.8699621002
 20
124.6604505866
 11
233.8699615125
 21
132.0283593492
  0
LINE
  5
26C
100
AcDbEntity
  8
0
100
AcDbLine
 62
7
  6
CONTINUOUS
 10
233.8699615125
 20
421.0283582912
 11
233.8699621002
 21
428.3962670538
  0
LINE
  5
26D
100
AcDbEntity
  8
0
100
AcDbLine
 62
7
  6
CONTINUOUS
 10
235.3774635617
 20
98.5283734159
 11
235.3774635617
 21
120.5283583955
  0
LINE
  5
26E
100
AcDbEntity
  8
0
100
AcDbLine
 62
7
  6
CONTINUOUS
 10
235.3774635617
 20
432.5283592449
 11
235.3774635617
 21
454.52835866
  0
LINE
  5
26F
100
AcDbEntity
  8
0
100
AcDbLine
 62
7
  6
CONTINUOUS
 10
240.3774625187
 20
98.5283734159
 11
240.3774625187
 21
120.5283583955
  0
LINE
  5
270
100
AcDbEntity
  8
0
100
AcDbLine
 62
7
  6
CONTINUOUS
 10
240.3774625187
 20
432.5283592449
 11
240.3774625187
 21
454.52835866
  0
LINE
  5
271
100
AcDbEntity
  8
0
100
AcDbLine
 62
7
  6
CONTINUOUS
 10
241.8699621002
 20
428.3962670538
 11
241.8699628238
 21
421.0283582912
  0
LINE
  5
272
100
AcDbEntity
  8
0
100
AcDbLine
 62
7
  6
CONTINUOUS
 10
241.8699628238
 20
132.0283593492
 11
241.8699621002
 21
124.6604505866
  0
LINE
  5
273
100
AcDbEntity
  8
0
100
AcDbLine
 62
7
  6
CONTINUOUS
 10
344.2658627455
 20
185.6488711099
 11
344.4624612157
 21
185.3083497743
  0
LINE
  5
274
100
AcDbEntity
  8
0
100
AcDbLine
 62
7
  6
CONTINUOUS
 10
342.3944662568
 20
369.9515175185
 11
354.9525712673
 21
369.9515175185
  0
LINE
  5
275
100
AcDbEntity
  8
0
100
AcDbLine
 62
7
  6
CONTINUOUS
 10
313.6724634592
 20
131.5290810422
 11
313.6649607246
 21
132.0283593492
  0
LINE
  5
276
100
AcDbEntity
  8
0
100
AcDbLine
 62
7
  6
CONTINUOUS
 10
297.5725566347
 20
132.0283593492
 11
297.5725566347
 21
130.9289441533
  0
LINE
  5
277
100
AcDbEntity
  8
0
100
AcDbLine
 62
7
  6
CONTINUOUS
 10
297.5725566347
 20
421.0283582912
 11
297.5725566347
 21
422.1277850355
  0
LINE
  5
278
100
AcDbEntity
  8
0
100
AcDbLine
 62
7
  6
CONTINUOUS
 10
305.5723614861
 20
422.1277850355
 11
305.5723614861
 21
421.0283582912
  0
LINE
  5
279
100
AcDbEntity
  8
0
100
AcDbLine
 62
7
  6
CONTINUOUS
 10
305.5723614861
 20
130.9289441533
 11
305.5723614861
 21
132.0283593492
  0
LINE
  5
27A
100
AcDbEntity
  8
0
100
AcDbLine
 62
7
  6
CONTINUOUS
 10
307.9724638288
 20
130.0290705518
 11
307.9724638288
 21
131.5290810422
  0
LINE
  5
27B
100
AcDbEntity
  8
0
100
AcDbLine
 62
7
  6
CONTINUOUS
 10
307.9724638288
 20
421.5276403235
 11
307.9724638288
 21
423.027639638
  0
LINE
  5
27C
100
AcDbEntity
  8
0
100
AcDbLine
 62
7
  6
CONTINUOUS
 10
313.6649607246
 20
421.0283582912
 11
313.6724634592
 21
421.5276403235
  0
LINE
  5
27D
100
AcDbEntity
  8
0
100
AcDbLine
 62
7
  6
CONTINUOUS
 10
245.5439297979
 20
131.1191799001
 11
242.4413599018
 21
124.5326099307
  0
LINE
  5
27E
100
AcDbEntity
  8
0
100
AcDbLine
 62
7
  6
CONTINUOUS
 10
245.7051827137
 20
128.6702932672
 11
246.6199612741
 21
130.6123020009
  0
LINE
  5
27F
100
AcDbEntity
  8
0
100
AcDbLine
 62
7
  6
CONTINUOUS
 10
242.0357722793
 20
120.5283583955
 11
245.8408801381
 21
128.6063672857
  0
LINE
  5
280
100
AcDbEntity
  8
0
100
AcDbLine
 62
7
  6
CONTINUOUS
 10
138.1954132144
 20
101.5283645944
 11
140.8794550721
 21
103.4077586488
  0
LINE
  5
281
100
AcDbEntity
  8
0
100
AcDbLine
 62
7
  6
CONTINUOUS
 10
136.4724621002
 20
377.5283586339
 11
149.4724626692
 21
377.5283586339
  0
LINE
  5
282
100
AcDbEntity
  8
0
100
AcDbLine
 62
7
  6
CONTINUOUS
 10
317.0718795015
 20
377.5284621687
 11
315.9724576895
 21
377.5284621687
  0
LINE
  5
283
100
AcDbEntity
  8
0
100
AcDbLine
 62
7
  6
CONTINUOUS
 10
317.0718795015
 20
385.5282670201
 11
315.9724576895
 21
385.5282670201
  0
LINE
  5
284
100
AcDbEntity
  8
0
100
AcDbLine
 62
7
  6
CONTINUOUS
 10
315.9724576895
 20
371.0283594088
 11
352.3891275866
 21
369.5441802046
  0
LINE
  5
285
100
AcDbEntity
  8
0
100
AcDbLine
 62
7
  6
CONTINUOUS
 10
140.8794550721
 20
449.6489734271
 11
138.1954132144
 21
451.5283586339
  0
LINE
  5
286
100
AcDbEntity
  8
0
100
AcDbLine
 62
7
  6
CONTINUOUS
 10
242.4413599018
 20
428.5241077097
 11
245.5439297979
 21
421.9375377403
  0
LINE
  5
287
100
AcDbEntity
  8
0
100
AcDbLine
 62
7
  6
CONTINUOUS
 10
246.6199612741
 20
422.4444156395
 11
245.7051827137
 21
424.3864243732
  0
LINE
  5
288
100
AcDbEntity
  8
0
100
AcDbLine
 62
7
  6
CONTINUOUS
 10
245.8408801381
 20
424.4503503547
 11
242.0357722793
 21
432.5283592449
  0
LINE
  5
289
100
AcDbEntity
  8
0
100
AcDbLine
 62
7
  6
CONTINUOUS
 10
315.9724576895
 20
420.7276398198
 11
315.9724576895
 21
371.0283594088
  0
LINE
  5
28A
100
AcDbEntity
  8
0
100
AcDbLine
 62
7
  6
CONTINUOUS
 10
315.9724576895
 20
182.0609090373
 11
315.9724576895
 21
132.3290647821
  0
LINE
  5
28B
100
AcDbEntity
  8
0
100
AcDbLine
 62
7
  6
CONTINUOUS
 10
315.9824561696
 20
371.0283594088
 11
315.9824561696
 21
182.0609090373
  0
LINE
  5
28C
100
AcDbEntity
  8
0
100
AcDbLine
 62
7
  6
CONTINUOUS
 10
317.0718795015
 20
385.5282670201
 11
317.0718795015
 21
377.5284621687
  0
LINE
  5
28D
100
AcDbEntity
  8
0
100
AcDbLine
 62
7
  6
CONTINUOUS
 10
317.0718795015
 20
180.5282670201
 11
317.0718795015
 21
172.5284621687
  0
LINE
  5
28E
100
AcDbEntity
  8
0
100
AcDbLine
 62
7
  6
CONTINUOUS
 10
319.0724590604
 20
383.5283158566
 11
319.0724590604
 21
379.5284133322
  0
LINE
  5
28F
100
AcDbEntity
  8
0
100
AcDbLine
 62
7
  6
CONTINUOUS
 10
319.0724590604
 20
178.5283158566
 11
319.0724590604
 21
174.5284133322
  0
LINE
  5
290
100
AcDbEntity
  8
0
100
AcDbLine
 62
7
  6
CONTINUOUS
 10
340.7075697605
 20
194.1856718521
 11
339.919274736
 21
198.2283645944
  0
LINE
  5
291
100
AcDbEntity
  8
0
100
AcDbLine
 62
7
  6
CONTINUOUS
 10
332.9135835877
 20
198.2283645944
 11
332.9135835877
 21
182.920468855
  0
LINE
  5
292
100
AcDbEntity
  8
0
100
AcDbLine
 62
7
  6
CONTINUOUS
 10
333.8143899116
 20
182.9661740179
 11
333.8143899116
 21
198.2283645944
  0
LINE
  5
293
100
AcDbEntity
  8
0
100
AcDbLine
 62
7
  6
CONTINUOUS
 10
334.8559035533
 20
198.2283645944
 11
334.8559035533
 21
183.0190183968
  0
LINE
  5
294
100
AcDbEntity
  8
0
100
AcDbLine
 62
7
  6
CONTINUOUS
 10
339.6124610727
 20
184.8283535699
 11
339.6124610727
 21
184.7283518772
  0
LINE
  5
295
100
AcDbEntity
  8
0
100
AcDbLine
 62
7
  6
CONTINUOUS
 10
343.1724590604
 20
195.5283645944
 11
343.1724590604
 21
198.2836159501
  0
LINE
  5
296
100
AcDbEntity
  8
0
100
AcDbLine
 62
7
  6
CONTINUOUS
 10
149.472460574
 20
411.528359528
 11
136.4724636265
 21
411.528359528
  0
LINE
  5
297
100
AcDbEntity
  8
0
100
AcDbLine
 62
7
  6
CONTINUOUS
 10
156.1524729218
 20
419.528357114
 11
151.3134828334
 21
419.528357114
  0
LINE
  5
298
100
AcDbEntity
  8
0
100
AcDbLine
 62
7
  6
CONTINUOUS
 10
354.9494208757
 20
272.6797909347
 11
354.9526489439
 21
272.0319267571
  0
LINE
  5
299
100
AcDbEntity
  8
0
100
AcDbLine
 62
7
  6
CONTINUOUS
 10
345.2124593584
 20
192.9583502893
 11
345.2124593584
 21
185.5325543449
  0
LINE
  5
29A
100
AcDbEntity
  8
0
100
AcDbLine
 62
7
  6
CONTINUOUS
 10
347.2224590604
 20
192.3382991341
 11
347.2224590604
 21
187.5784300547
  0
LINE
  5
29B
100
AcDbEntity
  8
0
100
AcDbLine
 62
7
  6
CONTINUOUS
 10
349.3315218215
 20
369.668794424
 11
349.3315218215
 21
198.4270689428
  0
LINE
  5
29C
100
AcDbEntity
  8
0
100
AcDbLine
 62
7
  6
CONTINUOUS
 10
350.3079753356
 20
369.6289985831
 11
350.3079753356
 21
198.4498118803
  0
LINE
  5
29D
100
AcDbEntity
  8
0
100
AcDbLine
 62
7
  6
CONTINUOUS
 10
352.4459631
 20
198.4996085385
 11
352.4459631
 21
369.9515175185
  0
LINE
  5
29E
100
AcDbEntity
  8
0
100
AcDbLine
 62
7
  6
CONTINUOUS
 10
353.465092109
 20
369.9515175185
 11
353.465092109
 21
325.5532151435
  0
LINE
  5
29F
100
AcDbEntity
  8
0
100
AcDbLine
 62
7
  6
CONTINUOUS
 10
353.972460815
 20
198.5351627574
 11
353.972460815
 21
231.6438850625
  0
LINE
  5
2A0
100
AcDbEntity
  8
0
100
AcDbLine
 62
7
  6
CONTINUOUS
 10
354.9526494519
 20
231.6418508612
 11
354.9526494519
 21
251.061843567
  0
LINE
  5
2A1
100
AcDbEntity
  8
0
100
AcDbLine
 62
7
  6
CONTINUOUS
 10
354.9526494519
 20
258.055034987
 11
354.9526494519
 21
272.031843567
  0
LINE
  5
2A2
100
AcDbEntity
  8
0
100
AcDbLine
 62
7
  6
CONTINUOUS
 10
354.9526494519
 20
279.025034987
 11
354.9526494519
 21
369.9515175185
  0
LINE
  5
2A3
100
AcDbEntity
  8
0
100
AcDbLine
 62
7
  6
CONTINUOUS
 10
355.1273339826
 20
275.8551782864
 11
355.1273339826
 21
275.2015509024
  0
LINE
  5
2A4
100
AcDbEntity
  8
0
100
AcDbLine
 62
7
  6
CONTINUOUS
 10
355.4273339826
 20
275.8551782864
 11
355.4273339826
 21
275.2015509024
  0
LINE
  5
2A5
100
AcDbEntity
  8
0
100
AcDbLine
 62
7
  6
CONTINUOUS
 10
355.4273339826
 20
254.8851782864
 11
355.4273339826
 21
254.2315509024
  0
LINE
  5
2A6
100
AcDbEntity
  8
0
100
AcDbLine
 62
7
  6
CONTINUOUS
 10
354.9526489472
 20
279.0249451575
 11
354.9494355072
 21
278.3800100216
  0
LINE
  5
2A7
100
AcDbEntity
  8
0
100
AcDbLine
 62
7
  6
CONTINUOUS
 10
354.9526501447
 20
231.6418508612
 11
354.9526267717
 21
231.6409511233
  0
LINE
  5
2A8
100
AcDbEntity
  8
0
100
AcDbLine
 62
7
  6
CONTINUOUS
 10
354.9573654825
 20
272.0269322917
 11
355.4273339826
 21
275.2015509024
  0
LINE
  5
2A9
100
AcDbEntity
  8
0
100
AcDbLine
 62
7
  6
CONTINUOUS
 10
354.9573654825
 20
251.0569322917
 11
355.4273339826
 21
254.2315509024
  0
LINE
  5
2AA
100
AcDbEntity
  8
0
100
AcDbLine
 62
7
  6
CONTINUOUS
 10
354.6567776711
 20
272.0249911275
 11
355.1273339826
 21
275.2015509024
  0
LINE
  5
2AB
100
AcDbEntity
  8
0
100
AcDbLine
 62
7
  6
CONTINUOUS
 10
230.1959945385
 20
131.1191799001
 11
229.1199630623
 21
130.6123020009
  0
LINE
  5
2AC
100
AcDbEntity
  8
0
100
AcDbLine
 62
7
  6
CONTINUOUS
 10
154.1524632399
 20
421.0283582912
 11
313.6649607246
 21
421.0283582912
  0
LINE
  5
2AD
100
AcDbEntity
  8
0
100
AcDbLine
 62
7
  6
CONTINUOUS
 10
313.6724634592
 20
421.5276403235
 11
307.9724638288
 21
421.5276403235
  0
LINE
  5
2AE
100
AcDbEntity
  8
0
100
AcDbLine
 62
7
  6
CONTINUOUS
 10
156.0675566347
 20
422.1277850355
 11
164.0673614861
 21
422.1277850355
  0
LINE
  5
2AF
100
AcDbEntity
  8
0
100
AcDbLine
 62
7
  6
CONTINUOUS
 10
216.0725566347
 20
422.1277850355
 11
224.0723614861
 21
422.1277850355
  0
LINE
  5
2B0
100
AcDbEntity
  8
0
100
AcDbLine
 62
7
  6
CONTINUOUS
 10
297.5725566347
 20
422.1277850355
 11
305.5723614861
 21
422.1277850355
  0
LINE
  5
2B1
100
AcDbEntity
  8
0
100
AcDbLine
 62
7
  6
CONTINUOUS
 10
307.9724638288
 20
423.027639638
 11
313.6724634592
 21
423.027639638
  0
LINE
  5
2B2
100
AcDbEntity
  8
0
100
AcDbLine
 62
7
  6
CONTINUOUS
 10
158.0675077982
 20
424.1283645944
 11
162.0673553153
 21
424.1283645944
  0
LINE
  5
2B3
100
AcDbEntity
  8
0
100
AcDbLine
 62
7
  6
CONTINUOUS
 10
218.0725077982
 20
424.1283645944
 11
222.0723553153
 21
424.1283645944
  0
LINE
  5
2B4
100
AcDbEntity
  8
0
100
AcDbLine
 62
7
  6
CONTINUOUS
 10
299.5725077982
 20
424.1283645944
 11
303.5723553153
 21
424.1283645944
  0
LINE
  5
2B5
100
AcDbEntity
  8
0
100
AcDbLine
 62
7
  6
CONTINUOUS
 10
242.0357722793
 20
432.5283592449
 11
233.8699615125
 21
432.5283592449
  0
LINE
  5
2B6
100
AcDbEntity
  8
0
100
AcDbLine
 62
7
  6
CONTINUOUS
 10
229.1199630623
 20
422.4444156395
 11
230.1959945385
 21
421.9375377403
  0
LINE
  5
2B7
100
AcDbEntity
  8
0
100
AcDbLine
 62
7
  6
CONTINUOUS
 10
354.9573654825
 20
258.0597968971
 11
355.4273339826
 21
254.8851782864
  0
LINE
  5
2B8
100
AcDbEntity
  8
0
100
AcDbLine
 62
7
  6
CONTINUOUS
 10
354.6567777423
 20
279.0317378259
 11
355.1273339826
 21
275.8551782864
  0
LINE
  5
2B9
100
AcDbEntity
  8
0
100
AcDbLine
 62
7
  6
CONTINUOUS
 10
354.9573654825
 20
279.0297968971
 11
355.4273339826
 21
275.8551782864
  0
LINE
  5
2BA
100
AcDbEntity
  8
0
100
AcDbLine
 62
7
  6
CONTINUOUS
 10
86.4724590008
 20
448.0357808154
 11
87.4724535768
 21
448.0383616887
  0
LINE
  5
2BB
100
AcDbEntity
  8
0
100
AcDbLine
 62
7
  6
CONTINUOUS
 10
85.4724545777
 20
437.0383654736
 11
86.4724590008
 21
437.0383654736
  0
LINE
  5
2BC
100
AcDbEntity
  8
0
100
AcDbLine
 62
7
  6
CONTINUOUS
 10
90.9724563782
 20
438.1383659098
 11
87.4724535768
 21
438.1381996229
  0
LINE
  5
2BD
100
AcDbEntity
  8
0
100
AcDbLine
 62
7
  6
CONTINUOUS
 10
85.4724545777
 20
449.0383637152
 11
86.4724590008
 21
449.0383637152
  0
LINE
  5
2BE
100
AcDbEntity
  8
0
100
AcDbLine
 62
7
  6
CONTINUOUS
 10
125.4724605803
 20
451.5283586339
 11
138.1954132144
 21
451.5283586339
  0
LINE
  5
2BF
100
AcDbEntity
  8
0
100
AcDbLine
 62
7
  6
CONTINUOUS
 10
45.4724621599
 20
451.5283645944
 11
85.4724559609
 21
451.5283645944
  0
LINE
  5
2C0
100
AcDbEntity
  8
0
100
AcDbLine
 62
7
  6
CONTINUOUS
 10
90.9724563782
 20
447.938363279
 11
87.4724535768
 21
447.9385295659
  0
LINE
  5
2C1
100
AcDbEntity
  8
0
100
AcDbLine
 62
7
  6
CONTINUOUS
 10
86.4724590008
 20
438.0409483734
 11
87.4724535768
 21
438.0383675001
  0
LINE
  5
2C2
100
AcDbEntity
  8
0
100
AcDbLine
 62
7
  6
CONTINUOUS
 10
235.3774635617
 20
452.5283586814
 11
240.3774625187
 21
452.5283586814
  0
LINE
  5
2C3
100
AcDbEntity
  8
0
100
AcDbLine
 62
7
  6
CONTINUOUS
 10
235.3774635617
 20
454.52835866
 11
240.3774625187
 21
454.52835866
  0
CIRCLE
  5
2C4
100
AcDbEntity
  8
0
100
AcDbCircle
 62
7
  6
CONTINUOUS
 10
230.4724590604
 20
249.7033645944
 40
3.4499526549
  0
CIRCLE
  5
2C5
100
AcDbEntity
  8
0
100
AcDbCircle
 62
7
  6
CONTINUOUS
 10
230.4724590604
 20
163.7033645944
 40
3.4499526549
  0
ARC
  5
2C6
100
AcDbEntity
  8
0
100
AcDbCircle
 62
7
  6
CONTINUOUS
 10
313.6745408486
 20
132.3269873927
 40
2.2979177799
100
AcDbArc
 50
270.0001167066
 51
359.9998572675
  0
ARC
  5
2C7
100
AcDbEntity
  8
0
100
AcDbCircle
 62
7
  6
CONTINUOUS
 10
299.5725077982
 20
130.9283158566
 40
1.9999512622
100
AcDbArc
 50
180.0
 51
270.0
  0
ARC
  5
2C8
100
AcDbEntity
  8
0
100
AcDbCircle
 62
7
  6
CONTINUOUS
 10
303.5724103226
 20
130.9283158566
 40
1.9999512622
100
AcDbArc
 50
270.0
 51
360.0
  0
ARC
  5
2C9
100
AcDbEntity
  8
0
100
AcDbCircle
 62
7
  6
CONTINUOUS
 10
218.0725077982
 20
130.9283158566
 40
1.9999512622
100
AcDbArc
 50
180.0
 51
270.0
  0
ARC
  5
2CA
100
AcDbEntity
  8
0
100
AcDbCircle
 62
7
  6
CONTINUOUS
 10
222.0724103226
 20
130.9283158566
 40
1.9999512622
100
AcDbArc
 50
270.0
 51
360.0
  0
ARC
  5
2CB
100
AcDbEntity
  8
0
100
AcDbCircle
 62
7
  6
CONTINUOUS
 10
158.0675077982
 20
130.9283158566
 40
1.9999512622
100
AcDbArc
 50
180.0
 51
270.0
  0
ARC
  5
2CC
100
AcDbEntity
  8
0
100
AcDbCircle
 62
7
  6
CONTINUOUS
 10
162.0674103226
 20
130.9283158566
 40
1.9999512622
100
AcDbArc
 50
270.0
 51
360.0
  0
ARC
  5
2CD
100
AcDbEntity
  8
0
100
AcDbCircle
 62
7
  6
CONTINUOUS
 10
317.0725077982
 20
178.5283158566
 40
1.9999512622
100
AcDbArc
 50
0.0
 51
90.0179998143
  0
ARC
  5
2CE
100
AcDbEntity
  8
0
100
AcDbCircle
 62
7
  6
CONTINUOUS
 10
317.0725077982
 20
174.5284133322
 40
1.9999512622
100
AcDbArc
 50
269.9820001857
 51
360.0
  0
ARC
  5
2CF
100
AcDbEntity
  8
0
100
AcDbCircle
 62
7
  6
CONTINUOUS
 10
137.3960036323
 20
143.4518991826
 40
1.9235429328
100
AcDbArc
 50
180.0000000052
 51
269.9999999993
  0
ARC
  5
2D0
100
AcDbEntity
  8
0
100
AcDbCircle
 62
7
  6
CONTINUOUS
 10
173.5489218642
 20
143.4518960537
 40
1.9235398039
100
AcDbArc
 50
270.0000000003
 51
359.9999999972
  0
ARC
  5
2D1
100
AcDbEntity
  8
0
100
AcDbCircle
 62
7
  6
CONTINUOUS
 10
137.3959995622
 20
211.6048197712
 40
1.9235388627
100
AcDbArc
 50
90.0
 51
179.9999999998
  0
ARC
  5
2D2
100
AcDbEntity
  8
0
100
AcDbCircle
 62
7
  6
CONTINUOUS
 10
173.5489256287
 20
211.6048221624
 40
1.9235364715
100
AcDbArc
 50
0.0
 51
90.0000000001
  0
CIRCLE
  5
2D3
100
AcDbEntity
  8
0
100
AcDbCircle
 62
7
  6
CONTINUOUS
 10
230.4724590604
 20
163.7033645944
 40
1.0210126638
  0
CIRCLE
  5
2D4
100
AcDbEntity
  8
0
100
AcDbCircle
 62
7
  6
CONTINUOUS
 10
230.4724590604
 20
249.7033645944
 40
1.0210126638
  0
ARC
  5
2D5
100
AcDbEntity
  8
0
100
AcDbCircle
 62
7
  6
CONTINUOUS
 10
344.6124593584
 20
192.9583502893
 40
0.6
100
AcDbArc
 50
0.0
 51
90.0
  0
ARC
  5
2D6
100
AcDbEntity
  8
0
100
AcDbCircle
 62
7
  6
CONTINUOUS
 10
90.9724563782
 20
107.6283659098
 40
0.5
100
AcDbArc
 50
270.0
 51
360.0
  0
ARC
  5
2D7
100
AcDbEntity
  8
0
100
AcDbCircle
 62
7
  6
CONTINUOUS
 10
90.9724563782
 20
116.428363279
 40
0.5
100
AcDbArc
 50
0.0
 51
90.0
  0
ARC
  5
2D8
100
AcDbEntity
  8
0
100
AcDbCircle
 62
7
  6
CONTINUOUS
 10
233.5699595512
 20
124.6604526283
 40
0.300002549
100
AcDbArc
 50
205.2251886527
 51
359.9996100578
  0
ARC
  5
2D9
100
AcDbEntity
  8
0
100
AcDbCircle
 62
7
  6
CONTINUOUS
 10
340.9999405089
 20
194.2528997653
 40
0.3000004114
100
AcDbArc
 50
192.9495335809
 51
257.2664864997
  0
ARC
  5
2DA
100
AcDbEntity
  8
0
100
AcDbCircle
 62
7
  6
CONTINUOUS
 10
242.1699621002
 20
124.6604505866
 40
0.3
100
AcDbArc
 50
180.0
 51
334.7774407034
  0
ARC
  5
2DB
100
AcDbEntity
  8
0
100
AcDbCircle
 62
7
  6
CONTINUOUS
 10
339.4124550774
 20
184.7283544869
 40
0.2000059953
100
AcDbArc
 50
270.0007476177
 51
359.9992523832
  0
ARC
  5
2DC
100
AcDbEntity
  8
0
100
AcDbCircle
 62
7
  6
CONTINUOUS
 10
345.0124593584
 20
185.5325543449
 40
0.2
100
AcDbArc
 50
272.4999999998
 51
360.0
  0
ARC
  5
2DD
100
AcDbEntity
  8
0
100
AcDbCircle
 62
7
  6
CONTINUOUS
 10
313.6497302326
 20
420.7049122364
 40
2.3228386474
100
AcDbArc
 50
0.5606137944
 51
89.4392470032
  0
ARC
  5
2DE
100
AcDbEntity
  8
0
100
AcDbCircle
 62
7
  6
CONTINUOUS
 10
299.5725077982
 20
422.1284133322
 40
1.9999512622
100
AcDbArc
 50
90.0
 51
180.0
  0
ARC
  5
2DF
100
AcDbEntity
  8
0
100
AcDbCircle
 62
7
  6
CONTINUOUS
 10
303.5724103226
 20
422.1284133322
 40
1.9999512622
100
AcDbArc
 50
0.0
 51
90.0
  0
ARC
  5
2E0
100
AcDbEntity
  8
0
100
AcDbCircle
 62
7
  6
CONTINUOUS
 10
218.0725077982
 20
422.1284133322
 40
1.9999512622
100
AcDbArc
 50
90.0
 51
180.0
  0
ARC
  5
2E1
100
AcDbEntity
  8
0
100
AcDbCircle
 62
7
  6
CONTINUOUS
 10
222.0724103226
 20
422.1284133322
 40
1.9999512622
100
AcDbArc
 50
0.0
 51
90.0
  0
ARC
  5
2E2
100
AcDbEntity
  8
0
100
AcDbCircle
 62
7
  6
CONTINUOUS
 10
158.0675077982
 20
422.1284133322
 40
1.9999512622
100
AcDbArc
 50
90.0
 51
180.0
  0
ARC
  5
2E3
100
AcDbEntity
  8
0
100
AcDbCircle
 62
7
  6
CONTINUOUS
 10
162.0674103226
 20
422.1284133322
 40
1.9999512622
100
AcDbArc
 50
0.0
 51
90.0
  0
ARC
  5
2E4
100
AcDbEntity
  8
0
100
AcDbCircle
 62
7
  6
CONTINUOUS
 10
317.0725077982
 20
383.5283158566
 40
1.9999512622
100
AcDbArc
 50
0.0
 51
90.0179998143
  0
ARC
  5
2E5
100
AcDbEntity
  8
0
100
AcDbCircle
 62
7
  6
CONTINUOUS
 10
317.0725077982
 20
379.5284133322
 40
1.9999512622
100
AcDbArc
 50
269.9820001857
 51
360.0
  0
ARC
  5
2E6
100
AcDbEntity
  8
0
100
AcDbCircle
 62
7
  6
CONTINUOUS
 10
136.4724630907
 20
378.5283610251
 40
1.0000023912
100
AcDbArc
 50
180.0000755315
 51
269.9999432514
  0
ARC
  5
2E7
100
AcDbEntity
  8
0
100
AcDbCircle
 62
7
  6
CONTINUOUS
 10
149.472460574
 20
410.5283580017
 40
1.0000015263
100
AcDbArc
 50
0.0000362226
 51
89.999999999
  0
ARC
  5
2E8
100
AcDbEntity
  8
0
100
AcDbCircle
 62
7
  6
CONTINUOUS
 10
136.4724636265
 20
410.5283580017
 40
1.0000015263
100
AcDbArc
 50
90.0000000001
 51
179.9999637775
  0
ARC
  5
2E9
100
AcDbEntity
  8
0
100
AcDbCircle
 62
7
  6
CONTINUOUS
 10
149.4724626692
 20
378.5283572603
 40
0.9999986264
100
AcDbArc
 50
270.0
 51
0.0001401757
  0
ARC
  5
2EA
100
AcDbEntity
  8
0
100
AcDbCircle
 62
7
  6
CONTINUOUS
 10
90.9724563782
 20
438.6383659098
 40
0.5
100
AcDbArc
 50
270.0
 51
360.0
  0
ARC
  5
2EB
100
AcDbEntity
  8
0
100
AcDbCircle
 62
7
  6
CONTINUOUS
 10
90.9724563782
 20
447.438363279
 40
0.5
100
AcDbArc
 50
0.0
 51
90.0
  0
ARC
  5
2EC
100
AcDbEntity
  8
0
100
AcDbCircle
 62
7
  6
CONTINUOUS
 10
233.5699595512
 20
428.396265012
 40
0.300002549
100
AcDbArc
 50
0.0003899422
 51
154.7748113473
  0
ARC
  5
2ED
100
AcDbEntity
  8
0
100
AcDbCircle
 62
7
  6
CONTINUOUS
 10
242.1699621002
 20
428.3962670538
 40
0.3
100
AcDbArc
 50
25.2225592967
 51
180.0
  0
ARC
  5
2EE
100
AcDbEntity
  8
0
100
AcDbCircle
 62
7
  6
CONTINUOUS
 10
4016.7478487343
 20
353.4092797887
 40
3664.3949464731
100
AcDbArc
 50
180.0009389743
 51
180.40833903
  0
ARC
  5
2EF
100
AcDbEntity
  8
0
100
AcDbCircle
 62
7
  6
CONTINUOUS
 10
3996.2192332699
 20
353.2961499781
 40
3643.8663309031
100
AcDbArc
 50
179.7445167968
 51
179.9991654227
  0
SPLINE
  5
2F0
100
AcDbEntity
  8
0
100
AcDbSpline
 62
7
  6
CONTINUOUS
 70
0
 71
3
 72
14
 73
10
 74
0
 42
0.0000001
 43
0.0000001
 44
0.0000000001
 40
0.0
 40
0.0
 40
0.0
 40
0.0
 40
0.0262347304
 40
0.084967388
 40
0.1773378212
 40
0.3006750155
 40
0.450520704
 40
0.621480459
 40
1.0
 40
1.0
 40
1.0
 40
1.0
 10
351.5215574619
 20
227.2383020867
 30
0.0
 10
351.4976292502
 20
227.2382927162
 30
0.0
 10
351.4509653043
 20
227.1519948911
 30
0.0
 10
351.415710392
 20
227.0091359628
 30
0.0
 10
351.370249968
 20
226.7550538744
 30
0.0
 10
351.3339404896
 20
226.4266242212
 30
0.0
 10
351.3016580739
 20
226.0216625172
 30
0.0
 10
351.2689835862
 20
225.3850639678
 30
0.0
 10
351.2597909497
 20
224.8836052856
 30
0.0
 10
351.2597909497
 20
224.5383645944
 30
0.0
  0
SPLINE
  5
2F1
100
AcDbEntity
  8
0
100
AcDbSpline
 62
7
  6
CONTINUOUS
 70
0
 71
3
 72
14
 73
10
 74
0
 42
0.0000001
 43
0.0000001
 44
0.0000000001
 40
0.0
 40
0.0
 40
0.0
 40
0.0
 40
0.027229666
 40
0.0862095773
 40
0.1786419233
 40
0.3018513012
 40
0.4514799434
 40
0.6221284486
 40
1.0
 40
1.0
 40
1.0
 40
1.0
 10
351.1289796153
 20
365.0283635554
 30
0.0
 10
351.0921087245
 20
365.028385247
 30
0.0
 10
351.016537687
 20
364.903880851
 30
0.0
 10
350.9593920292
 20
364.6885544451
 30
0.0
 10
350.8862139368
 20
364.3135513927
 30
0.0
 10
350.8274119057
 20
363.8262782323
 30
0.0
 10
350.7750895011
 20
363.2265412912
 30
0.0
 10
350.721989537
 20
362.2831831347
 30
0.0
 10
350.7070104396
 20
361.5400294495
 30
0.0
 10
350.7070104396
 20
361.0283645944
 30
0.0
  0
SPLINE
  5
2F2
100
AcDbEntity
  8
0
100
AcDbSpline
 62
7
  6
CONTINUOUS
 70
0
 71
3
 72
14
 73
10
 74
0
 42
0.0000001
 43
0.0000001
 44
0.0000000001
 40
0.0
 40
0.0
 40
0.0
 40
0.0
 40
0.3785083103
 40
0.5494795397
 40
0.6993349426
 40
0.8226702773
 40
0.9150422588
 40
0.9737642301
 40
1.0
 40
1.0
 40
1.0
 40
1.0
 10
351.2597909497
 20
224.5383645944
 30
0.0
 10
351.2597909497
 20
224.1931343411
 30
0.0
 10
351.2689805542
 20
223.691674953
 30
0.0
 10
351.3016629848
 20
223.0550695922
 30
0.0
 10
351.3339386276
 20
222.6500865112
 30
0.0
 10
351.3702584584
 20
222.3216585275
 30
0.0
 10
351.4156992006
 20
222.0675630187
 30
0.0
 10
351.450984223
 20
221.9247545042
 30
0.0
 10
351.4976315315
 20
221.838418657
 30
0.0
 10
351.5215606782
 20
221.8384272918
 30
0.0
  0
SPLINE
  5
2F3
100
AcDbEntity
  8
0
100
AcDbSpline
 62
7
  6
CONTINUOUS
 70
0
 71
3
 72
14
 73
10
 74
0
 42
0.0000001
 43
0.0000001
 44
0.0000000001
 40
0.0
 40
0.0
 40
0.0
 40
0.0
 40
0.3778629916
 40
0.5485210765
 40
0.6981536154
 40
0.8213677558
 40
0.9137914215
 40
0.9727752874
 40
1.0
 40
1.0
 40
1.0
 40
1.0
 10
350.7070104396
 20
361.0283645944
 30
0.0
 10
350.7070104396
 20
360.5167104057
 30
0.0
 10
350.7219901818
 20
359.7735552489
 30
0.0
 10
350.7750893537
 20
358.8301857583
 30
0.0
 10
350.8274198923
 20
358.230430358
 30
0.0
 10
350.8862055772
 20
357.7431360562
 30
0.0
 10
350.9594143242
 20
357.3681809922
 30
0.0
 10
351.016525941
 20
357.1527785515
 30
0.0
 10
351.0921203492
 20
357.0283845595
 30
0.0
 10
351.1289846007
 20
357.0283653891
 30
0.0
  0
SPLINE
  5
2F4
100
AcDbEntity
  8
0
100
AcDbSpline
 62
7
  6
CONTINUOUS
 70
0
 71
3
 72
9
 73
5
 74
0
 42
0.0000001
 43
0.0000001
 44
0.0000000001
 40
0.0
 40
0.0
 40
0.0
 40
0.0
 40
0.2540501132
 40
1.0
 40
1.0
 40
1.0
 40
1.0
 10
352.4569839845
 20
325.7721581219
 30
0.0
 10
352.4946043746
 20
320.716041353
 30
0.0
 10
352.6805797192
 20
300.8142536833
 30
0.0
 10
353.0038658295
 20
280.9140857295
 30
0.0
 10
353.2556944519
 20
266.0698825744
 30
0.0
  0
SPLINE
  5
2F5
100
AcDbEntity
  8
0
100
AcDbSpline
 62
7
  6
CONTINUOUS
 70
0
 71
3
 72
9
 73
5
 74
0
 42
0.0000001
 43
0.0000001
 44
0.0000000001
 40
0.0
 40
0.0
 40
0.0
 40
0.0
 40
0.3743105244
 40
1.0
 40
1.0
 40
1.0
 40
1.0
 10
354.942513186
 20
254.5583645944
 30
0.0
 10
354.94254732
 20
254.1221111906
 30
0.0
 10
354.9426201063
 20
252.9566222902
 30
0.0
 10
354.9525407262
 20
251.7911586208
 30
0.0
 10
354.9526489439
 20
251.0619267571
 30
0.0
  0
SPLINE
  5
2F6
100
AcDbEntity
  8
0
100
AcDbSpline
 62
7
  6
CONTINUOUS
 70
0
 71
3
 72
14
 73
10
 74
0
 42
0.0000001
 43
0.0000001
 44
0.0000000001
 40
0.0
 40
0.0
 40
0.0
 40
0.0
 40
0.0261200643
 40
0.0847341102
 40
0.1770404938
 40
0.300375304
 40
0.4502667547
 40
0.62130184
 40
1.0
 40
1.0
 40
1.0
 40
1.0
 10
351.5215606782
 20
221.8384272918
 30
0.0
 10
351.5453686873
 20
221.8384358829
 30
0.0
 10
351.5915060326
 20
221.9248903736
 30
0.0
 10
351.6251323105
 20
222.0676630611
 30
0.0
 10
351.668523511
 20
222.3218147837
 30
0.0
 10
351.70226481
 20
222.650253086
 30
0.0
 10
351.7320334802
 20
223.0552512035
 30
0.0
 10
351.7617283816
 20
223.6918409524
 30
0.0
 10
351.7699676662
 20
224.1931874267
 30
0.0
 10
351.7699676662
 20
224.5383645944
 30
0.0
  0
SPLINE
  5
2F7
100
AcDbEntity
  8
0
100
AcDbSpline
 62
7
  6
CONTINUOUS
 70
0
 71
3
 72
14
 73
10
 74
0
 42
0.0000001
 43
0.0000001
 44
0.0000000001
 40
0.0
 40
0.0
 40
0.0
 40
0.0
 40
0.378686486
 40
0.549733144
 40
0.6996343998
 40
0.8229674032
 40
0.9152754451
 40
0.9738786699
 40
1.0
 40
1.0
 40
1.0
 40
1.0
 10
351.7699676662
 20
224.5383645944
 30
0.0
 10
351.7699676662
 20
224.8835309423
 30
0.0
 10
351.7617309848
 20
225.3848777934
 30
0.0
 10
351.7320295893
 20
226.0214742441
 30
0.0
 10
351.7022668915
 20
226.4264939052
 30
0.0
 10
351.6685142135
 20
226.7549306449
 30
0.0
 10
351.6251433196
 20
227.009095931
 30
0.0
 10
351.5914868592
 20
227.151818454
 30
0.0
 10
351.5453666122
 20
227.2383114106
 30
0.0
 10
351.5215574619
 20
227.2383020867
 30
0.0
  0
SPLINE
  5
2F8
100
AcDbEntity
  8
0
100
AcDbSpline
 62
7
  6
CONTINUOUS
 70
0
 71
3
 72
14
 73
10
 74
0
 42
0.0000001
 43
0.0000001
 44
0.0000000001
 40
0.0
 40
0.0
 40
0.0
 40
0.0
 40
0.0270525718
 40
0.0858448545
 40
0.1781750462
 40
0.3013793017
 40
0.4510800315
 40
0.6218465645
 40
1.0
 40
1.0
 40
1.0
 40
1.0
 10
351.1289846007
 20
357.0283653891
 30
0.0
 10
351.1655776551
 20
357.0283463598
 30
0.0
 10
351.2400320083
 20
357.1531617374
 30
0.0
 10
351.2935785219
 20
357.3683602189
 30
0.0
 10
351.3621962196
 20
357.7434942118
 30
0.0
 10
351.4153609137
 20
358.2308046604
 30
0.0
 10
351.462136077
 20
358.8306231141
 30
0.0
 10
351.5086865639
 20
359.7739630843
 30
0.0
 10
351.5215609195
 20
360.5168497858
 30
0.0
 10
351.5215609195
 20
361.0283645944
 30
0.0
  0
SPLINE
  5
2F9
100
AcDbEntity
  8
0
100
AcDbSpline
 62
7
  6
CONTINUOUS
 70
0
 71
3
 72
14
 73
10
 74
0
 42
0.0000001
 43
0.0000001
 44
0.0000000001
 40
0.0
 40
0.0
 40
0.0
 40
0.0
 40
0.378144733
 40
0.5489208769
 40
0.6986255257
 40
0.8218346957
 40
0.9141561298
 40
0.9729525515
 40
1.0
 40
1.0
 40
1.0
 40
1.0
 10
351.5215609195
 20
361.0283645944
 30
0.0
 10
351.5215609195
 20
361.5398684881
 30
0.0
 10
351.5086852431
 20
362.282756344
 30
0.0
 10
351.4621377771
 20
363.2261075756
 30
0.0
 10
351.415352023
 20
363.8259444105
 30
0.0
 10
351.3622055318
 20
364.3132763722
 30
0.0
 10
351.2935538675
 20
364.6883619866
 30
0.0
 10
351.2400446352
 20
364.903637303
 30
0.0
 10
351.1655657994
 20
365.0283420313
 30
0.0
 10
351.1289796153
 20
365.0283635554
 30
0.0
  0
SPLINE
  5
2FA
100
AcDbEntity
  8
0
100
AcDbSpline
 62
7
  6
CONTINUOUS
 70
0
 71
3
 72
21
 73
17
 74
0
 42
0.0000001
 43
0.0000001
 44
0.0000000001
 40
0.0
 40
0.0
 40
0.0
 40
0.0
 40
0.0010515248
 40
0.0042002989
 40
0.0094400411
 40
0.0167643686
 40
0.0376411993
 40
0.0667796106
 40
0.1041055397
 40
0.1494681077
 40
0.2027003378
 40
0.263635268
 40
0.407841745
 40
0.5802368071
 40
0.7786491262
 40
1.0
 40
1.0
 40
1.0
 40
1.0
 10
354.9526267964
 20
231.6409511294
 30
0.0
 10
354.950536118
 20
231.6409387343
 30
0.0
 10
354.9549505765
 20
231.6543889063
 30
0.0
 10
354.9497606855
 20
231.6682260774
 30
0.0
 10
354.9513687972
 20
231.7022342568
 30
0.0
 10
354.9478099
 20
231.7670060903
 30
0.0
 10
354.9456851285
 20
231.8822177243
 30
0.0
 10
354.940247552
 20
232.0552049866
 30
0.0
 10
354.9343508046
 20
232.2776965415
 30
0.0
 10
354.9270225062
 20
232.5477626133
 30
0.0
 10
354.9187610052
 20
232.8648708769
 30
0.0
 10
354.9057015335
 20
233.3784097558
 30
0.0
 10
354.8875454319
 20
234.1288420085
 30
0.0
 10
354.8646312566
 20
235.1525700319
 30
0.0
 10
354.8406944281
 20
236.3296989962
 30
0.0
 10
354.8256291897
 20
237.1641663239
 30
0.0
 10
354.8182218887
 20
237.6042092893
 30
0.0
  0
SPLINE
  5
2FB
100
AcDbEntity
  8
0
100
AcDbSpline
 62
7
  6
CONTINUOUS
 70
0
 71
3
 72
9
 73
5
 74
0
 42
0.0000001
 43
0.0000001
 44
0.0000000001
 40
0.0
 40
0.0
 40
0.0
 40
0.0
 40
0.0865103302
 40
1.0
 40
1.0
 40
1.0
 40
1.0
 10
354.9526489472
 20
258.0549451575
 30
0.0
 10
354.95263381
 20
257.9541146013
 30
0.0
 10
354.9436694774
 20
256.7886056387
 30
0.0
 10
354.9425489252
 20
255.6230660275
 30
0.0
 10
354.942513186
 20
254.5583645944
 30
0.0
  0
SPLINE
  5
2FC
100
AcDbEntity
  8
0
100
AcDbSpline
 62
7
  6
CONTINUOUS
 70
0
 71
3
 72
17
 73
13
 74
0
 42
0.0000001
 43
0.0000001
 44
0.0000000001
 40
0.0
 40
0.0
 40
0.0
 40
0.0
 40
0.1957038295
 40
0.3841797735
 40
0.5574452709
 40
0.7090020951
 40
0.8330979266
 40
0.9248863398
 40
0.9575374035
 40
0.9809026026
 40
0.9949033642
 40
1.0
 40
1.0
 40
1.0
 40
1.0
 10
354.5317900449
 20
275.5283645944
 30
0.0
 10
354.5317900449
 20
275.2995095806
 30
0.0
 10
354.5335041696
 20
274.8502591262
 30
0.0
 10
354.5410226437
 20
274.1983830256
 30
0.0
 10
354.5530403326
 20
273.5983730236
 30
0.0
 10
354.5689320263
 20
273.0732557442
 30
0.0
 10
354.5872234487
 20
272.6450063161
 30
0.0
 10
354.6059219188
 20
272.3526339381
 30
0.0
 10
354.6212569918
 20
272.1836229257
 30
0.0
 10
354.633609976
 20
272.0973131359
 30
0.0
 10
354.6404779125
 20
272.0576715992
 30
0.0
 10
354.6520790196
 20
272.0268487566
 30
0.0
 10
354.6577989365
 20
272.0285232409
 30
0.0
  0
SPLINE
  5
2FD
100
AcDbEntity
  8
0
100
AcDbSpline
 62
7
  6
CONTINUOUS
 70
0
 71
3
 72
17
 73
13
 74
0
 42
0.0000001
 43
0.0000001
 44
0.0000000001
 40
0.0
 40
0.0
 40
0.0
 40
0.0
 40
0.0050976686
 40
0.0191011385
 40
0.0424688669
 40
0.0751224459
 40
0.1669203156
 40
0.2910213999
 40
0.4425819809
 40
0.6158435365
 40
0.8043036123
 40
1.0
 40
1.0
 40
1.0
 40
1.0
 10
354.6577989365
 20
279.0282059415
 30
0.0
 10
354.6520778712
 20
279.0298807955
 30
0.0
 10
354.6404790009
 20
278.9990480189
 30
0.0
 10
354.6336084968
 20
278.959403699
 30
0.0
 10
354.6212555578
 20
278.8730827938
 30
0.0
 10
354.6059177261
 20
278.7040561779
 30
0.0
 10
354.5872203982
 20
278.4116627892
 30
0.0
 10
354.5689287124
 20
277.9833922267
 30
0.0
 10
354.5530381085
 20
277.4582690201
 30
0.0
 10
354.541022171
 20
276.858277962
 30
0.0
 10
354.5335031976
 20
276.2064339146
 30
0.0
 10
354.5317900449
 20
275.7572108416
 30
0.0
 10
354.5317900449
 20
275.5283645944
 30
0.0
  0
SPLINE
  5
2FE
100
AcDbEntity
  8
0
100
AcDbSpline
 62
7
  6
CONTINUOUS
 70
0
 71
3
 72
15
 73
11
 74
0
 42
0.0000001
 43
0.0000001
 44
0.0000000001
 40
0.0
 40
0.0
 40
0.0
 40
0.0
 40
0.3849234679
 40
0.5585446264
 40
0.7104336288
 40
0.834764891
 40
0.9265970501
 40
0.9591765636
 40
0.9823797428
 40
1.0
 40
1.0
 40
1.0
 40
1.0
 10
354.6577989365
 20
275.5283645944
 30
0.0
 10
354.6577989365
 20
275.0793072633
 30
0.0
 10
354.6578496026
 20
274.4281290895
 30
0.0
 10
354.6577405273
 20
273.5982910503
 30
0.0
 10
354.6579980515
 20
273.0759493544
 30
0.0
 10
354.6571035088
 20
272.6397991374
 30
0.0
 10
354.6593257457
 20
272.3642717584
 30
0.0
 10
354.6564325313
 20
272.1719743538
 30
0.0
 10
354.6606580814
 20
272.1212436051
 30
0.0
 10
354.6518459376
 20
272.0088480546
 30
0.0
 10
354.6577989365
 20
272.0285232409
 30
0.0
  0
SPLINE
  5
2FF
100
AcDbEntity
  8
0
100
AcDbSpline
 62
7
  6
CONTINUOUS
 70
0
 71
3
 72
15
 73
11
 74
0
 42
0.0000001
 43
0.0000001
 44
0.0000000001
 40
0.0
 40
0.0
 40
0.0
 40
0.0
 40
0.0176202247
 40
0.0408233915
 40
0.0734028951
 40
0.1652350428
 40
0.2895663037
 40
0.4414553141
 40
0.6150764879
 40
1.0
 40
1.0
 40
1.0
 40
1.0
 10
354.6577989365
 20
279.0282059415
 30
0.0
 10
354.6518459485
 20
279.0478810915
 30
0.0
 10
354.6606580632
 20
278.9354856798
 30
0.0
 10
354.6564325341
 20
278.8847549856
 30
0.0
 10
354.6593257479
 20
278.6924576137
 30
0.0
 10
354.6571035093
 20
278.4169302694
 30
0.0
 10
354.6579980502
 20
277.9807800541
 30
0.0
 10
354.6577405279
 20
277.4584383352
 30
0.0
 10
354.6578496024
 20
276.6286002178
 30
0.0
 10
354.6577989365
 20
275.9774219762
 30
0.0
 10
354.6577989365
 20
275.5283645944
 30
0.0
  0
SPLINE
  5
300
100
AcDbEntity
  8
0
100
AcDbSpline
 62
7
  6
CONTINUOUS
 70
0
 71
3
 72
21
 73
17
 74
0
 42
0.0000001
 43
0.0000001
 44
0.0000000001
 40
0.0
 40
0.0
 40
0.0
 40
0.0
 40
0.2213476556
 40
0.4197591699
 40
0.5921539409
 40
0.7363599961
 40
0.7972948584
 40
0.8505268876
 40
0.8958895299
 40
0.9332162161
 40
0.9623556313
 40
0.9832330823
 40
0.9905577339
 40
0.9957979035
 40
0.9989473072
 40
1.0
 40
1.0
 40
1.0
 40
1.0
 10
353.8335781478
 20
237.6042092893
 30
0.0
 10
353.8411485664
 20
237.1641671482
 30
0.0
 10
353.8565516957
 20
236.3296980894
 30
0.0
 10
353.8810560002
 20
235.1525669796
 30
0.0
 10
353.9045556275
 20
234.1288357162
 30
0.0
 10
353.9232232816
 20
233.3784033388
 30
0.0
 10
353.9366940608
 20
232.8648665602
 30
0.0
 10
353.9452412019
 20
232.5477605508
 30
0.0
 10
353.9528431508
 20
232.2776946798
 30
0.0
 10
353.959013335
 20
232.0552053986
 30
0.0
 10
353.9646838421
 20
231.8822104592
 30
0.0
 10
353.9670631815
 20
231.7670135052
 30
0.0
 10
353.9707392062
 20
231.7022236692
 30
0.0
 10
353.9693348152
 20
231.6682476137
 30
0.0
 10
353.9744539188
 20
231.654353585
 30
0.0
 10
353.9702887712
 20
231.6409578899
 30
0.0
 10
353.9723818376
 20
231.6409511294
 30
0.0
  0
SPLINE
  5
301
100
AcDbEntity
  8
0
100
AcDbSpline
 62
7
  6
CONTINUOUS
 70
0
 71
3
 72
9
 73
5
 74
0
 42
0.0000001
 43
0.0000001
 44
0.0000000001
 40
0.0
 40
0.0
 40
0.0
 40
0.0
 40
0.4711235029
 40
1.0
 40
1.0
 40
1.0
 40
1.0
 10
354.8182218451
 20
237.6042092893
 30
0.0
 10
354.73333212
 20
242.0745781809
 30
0.0
 10
354.5148314833
 20
251.5625274991
 30
0.0
 10
354.3275612798
 20
261.0511989484
 30
0.0
 10
354.250396127
 20
266.0698825744
 30
0.0
  0
SPLINE
  5
302
100
AcDbEntity
  8
0
100
AcDbSpline
 62
7
  6
CONTINUOUS
 70
0
 71
3
 72
9
 73
5
 74
0
 42
0.0000001
 43
0.0000001
 44
0.0000000001
 40
0.0
 40
0.0
 40
0.0
 40
0.0
 40
0.5288772877
 40
1.0
 40
1.0
 40
1.0
 40
1.0
 10
353.2557029037
 20
266.0698825744
 30
0.0
 10
353.334092283
 20
261.0511744963
 30
0.0
 10
353.524363041
 20
251.5624915097
 30
0.0
 10
353.7468193592
 20
242.0745667878
 30
0.0
 10
353.8335784
 20
237.6042092893
 30
0.0
  0
SPLINE
  5
303
100
AcDbEntity
  8
0
100
AcDbSpline
 62
7
  6
CONTINUOUS
 70
0
 71
3
 72
8
 73
4
 74
0
 42
0.0000001
 43
0.0000001
 44
0.0000000001
 40
0.0
 40
0.0
 40
0.0
 40
0.0
 40
1.0
 40
1.0
 40
1.0
 40
1.0
 10
353.465092109
 20
325.5532151435
 30
0.0
 10
353.125321143
 20
325.6267133176
 30
0.0
 10
352.7856118323
 20
325.7004970629
 30
0.0
 10
352.4459631
 20
325.7745580481
 30
0.0
  0
SPLINE
  5
304
100
AcDbEntity
  8
0
100
AcDbSpline
 62
7
  6
CONTINUOUS
 70
0
 71
3
 72
9
 73
5
 74
0
 42
0.0000001
 43
0.0000001
 44
0.0000000001
 40
0.0
 40
0.0
 40
0.0
 40
0.0
 40
0.2451832873
 40
1.0
 40
1.0
 40
1.0
 40
1.0
 10
354.2503954897
 20
266.0698825744
 30
0.0
 10
354.1692139638
 20
270.9310759621
 30
0.0
 10
353.8401176985
 20
290.7578497916
 30
0.0
 10
353.5756967054
 20
310.5859573039
 30
0.0
 10
353.4650928619
 20
325.5532149926
 30
0.0
  0
ENDSEC
  0
SECTION
  2
OBJECTS
  0
DICTIONARY
  5
C
100
AcDbDictionary
280
0
281
1
  3
ACAD_GROUP
350
D
  3
ACAD_MLINESTYLE
350
17
  3
ACAD_LAYOUT
350
1A
  3
ACAD_PLOTSETTINGS
350
19
  3
ACAD_PLOTSTYLENAME
350
E
  0
DICTIONARY
  5
D
102
{ACAD_REACTORS
330
C
102
}
100
AcDbDictionary
280
0
281
1
  0
ACDBDICTIONARYWDFLT
  5
E
102
{ACAD_REACTORS
330
C
102
}
100
AcDbDictionary
281
1
  3
Normal
350
F
100
AcDbDictionaryWithDefault
340
F
  0
DICTIONARY
  5
17
102
{ACAD_REACTORS
330
C
102
}
100
AcDbDictionary
280
0
281
1
  3
Standard
350
18
  0
DICTIONARY
  5
19
102
{ACAD_REACTORS
330
C
102
}
100
AcDbDictionary
281
1
  0
DICTIONARY
  5
1A
102
{ACAD_REACTORS
330
C
102
}
100
AcDbDictionary
281
1
  3
Model
350
305
  3
Layout1
350
306
  0
ACDBPLACEHOLDER
  5
F
102
{ACAD_REACTORS
330
E
102
}
  0
MLINESTYLE
  5
18
102
{ACAD_REACTORS
330
17
102
}
100
AcDbMlineStyle
  2
STANDARD
 70
0
  3

 62
256
 51
90.0
 52
90.0
 71
2
 49
0.5
 62
256
  6
BYLAYER
 49
-0.5
 62
256
  6
BYLAYER
  0
LAYOUT
  5
305
102
{ACAD_REACTORS
330
1A
102
}
100
AcDbPlotSettings
  1

  2
none_device
  4

  6

 40
0.0
 41
0.0
 42
0.0
 43
0.0
 44
210.0
 45
297.0
 46
0.0
 47
0.0
 48
0.0
 49
0.0
140
0.0
141
0.0
142
1.0
143
1.0
 70
1024
 72
1
 73
0
 74
0
  7

 75
0
147
1.0
148
0.0
149
0.0
100
AcDbLayout
  1
Model
 70
0
 71
0
 10
0.0
 20
0.0
 11
210.0
 21
297.0
 12
0.0
 22
0.0
 32
0.0
 14
0.0
 24
0.0
 34
0.0
 15
0.0
 25
0.0
 35
0.0
146
0.0
 13
0.0
 23
0.0
 33
0.0
 16
1.0
 26
0.0
 36
0.0
 17
0.0
 27
1.0
 37
0.0
 76
0
330
210
345
0
346
0
  0
LAYOUT
  5
306
102
{ACAD_REACTORS
330
1A
102
}
100
AcDbPlotSettings
  1

  2
none_device
  4

  6

 40
0.0
 41
0.0
 42
0.0
 43
0.0
 44
210.0
 45
297.0
 46
0.0
 47
0.0
 48
0.0
 49
0.0
140
0.0
141
0.0
142
1.0
143
1.0
 70
0
 72
1
 73
0
 74
0
  7

 75
0
147
1.0
148
0.0
149
0.0
100
AcDbLayout
  1
Layout1
 70
0
 71
1
 10
0.0
 20
0.0
 11
210.0
 21
297.0
 12
0.0
 22
0.0
 32
0.0
 14
0.0
 24
0.0
 34
0.0
 15
0.0
 25
0.0
 35
0.0
146
0.0
 13
0.0
 23
0.0
 33
0.0
 16
1.0
 26
0.0
 36
0.0
 17
0.0
 27
1.0
 37
0.0
 76
0
330
211
345
0
346
0
  0
ENDSEC
  0
EOF
