999
DXF file: C:\Users\sesa63760\Dev\_Creo\CAD\MCADID0001527_3D-CAD\drw0001_7.dxf
999
Pro/ENGINEER 2019471 by Parametric Technology Corporation
  0
SECTION
  2
HEADER
  9
$ACADVER
  1
AC1024
  9
$DWGCODEPAGE
  3
ANSI_1252
  9
$EXTMAX
 10
235.5683333333
 20
333.1609285714
 30
0.0
  9
$EXTMIN
 10
0.0
 20
0.0
 30
0.0
  9
$LIMMIN
 10
0.0
 20
0.0
  9
$LIMMAX
 10
235.5683333333
 20
333.1609285714
  9
$VIEWCTR
 10
117.7841666667
 20
166.5804642857
  9
$VIEWSIZE
 40
333.1609285714
  9
$CLAYER
  8
0
  9
$LTSCALE
 40
21.7171568254
  9
$CELTYPE
  6
BYLAYER
  9
$DIMSCALE
 40
1.0
  9
$DIMASZ
 40
2.8043849206
  9
$DIMEXO
 40
1.0
  9
$DIMDLI
 40
15.0045810794
  9
$DIMEXE
 40
1.0
  9
$DIMCEN
 40
3.5537165714
  9
$DIMLFAC
 40
1.0
  9
$DIMBLK
  1
_FILLED
  9
$DIMALT
 70
0
  9
$DIMALTF
 40
0.0393700787
  9
$DIMTXT
 40
3.9261388889
  9
$DIMTOL
 70
1
  9
$DIMLIM
 70
0
  9
$DIMTFAC
 40
1.0
  9
$DIMTP
 40
0.01
  9
$DIMTM
 40
0.01
  9
$DIMGAP
 40
0.625
  9
$DIMDSEP
 70
46
  9
$AUNITS
 70
0
  9
$PDMODE
 70
3
  9
$PDSIZE
 40
0.3125
  9
$HANDSEED
  5
2B8
  9
$TILEMODE
 70
1
  9
$MEASUREMENT
 70
1
  9
$INSUNITS
 70
4
  0
ENDSEC
  0
SECTION
  2
CLASSES
  0
CLASS
  1
ACDBDICTIONARYWDFLT
  2
AcDbDictionaryWithDefault
  3
AutoCAD 2000
 90
0
 91
1
280
0
281
0
  0
CLASS
  1
ACDBPLACEHOLDER
  2
AcDbPlaceHolder
  3
AutoCAD 2000
 90
0
 91
1
280
0
281
0
  0
CLASS
  1
LAYOUT
  2
AcDbLayout
  3
AutoCAD 2000
 90
0
 91
0
280
0
281
0
  0
ENDSEC
  0
SECTION
  2
TABLES
  0
TABLE
  2
VPORT
  5
8
100
AcDbSymbolTable
 70
2
  0
VPORT
  5
1F4
100
AcDbSymbolTableRecord
100
AcDbViewportTableRecord
  2
*ACTIVE
 70
0
 10
0.0
 20
0.0
 11
1.0
 21
1.0
 12
117.7841666667
 22
166.5804642857
 13
0.0
 23
0.0
 14
1.0
 24
1.0
 15
0.0
 25
0.0
 16
0.0
 26
0.0
 36
1.0
 17
0.0
 27
0.0
 37
0.0
 40
333.1609285714
 41
0.7070707071
 42
50.0
 43
0.0
 44
0.0
 50
0.0
 51
0.0
 71
0
 72
100
 73
1
 74
1
 75
0
 76
0
 77
0
 78
0
  0
ENDTAB
  0
TABLE
  2
LTYPE
  5
5
100
AcDbSymbolTable
 70
6
  0
LTYPE
  5
14
100
AcDbSymbolTableRecord
100
AcDbLinetypeTableRecord
  2
BYBLOCK
 70
0
  3

 72
65
 73
0
 40
0.0
  0
LTYPE
  5
15
100
AcDbSymbolTableRecord
100
AcDbLinetypeTableRecord
  2
BYLAYER
 70
0
  3

 72
65
 73
0
 40
0.0
  0
LTYPE
  5
16
100
AcDbSymbolTableRecord
100
AcDbLinetypeTableRecord
  2
CONTINUOUS
 70
64
  3
Solid line
 72
65
 73
0
 40
0.0
  0
LTYPE
  5
1F5
100
AcDbSymbolTableRecord
100
AcDbLinetypeTableRecord
  2
CENTER
 70
64
  3
____ _ ____ _ ____ _ ____ _ ____ _ ____ _ ____
 72
65
 73
4
 40
0.6
 49
0.375
 74
0
 49
-0.075
 74
0
 49
0.075
 74
0
 49
-0.075
 74
0
  0
LTYPE
  5
1F6
100
AcDbSymbolTableRecord
100
AcDbLinetypeTableRecord
  2
HIDDEN
 70
64
  3
- - - - - - - - - - - - - - - - - - - -
 72
65
 73
2
 40
0.2
 49
0.1
 74
0
 49
-0.1
 74
0
  0
LTYPE
  5
1F7
100
AcDbSymbolTableRecord
100
AcDbLinetypeTableRecord
  2
PHANTOM
 70
64
  3
_____ _ _ _____ _ _ _____ _ _ _____
 72
65
 73
6
 40
0.8
 49
0.45
 74
0
 49
-0.05
 74
0
 49
0.1
 74
0
 49
-0.05
 74
0
 49
0.1
 74
0
 49
-0.05
 74
0
  0
LTYPE
  5
1F8
100
AcDbSymbolTableRecord
100
AcDbLinetypeTableRecord
  2
DOT
 70
64
  3
. . . . . . . . . . . . . . . . . . . .
 72
65
 73
2
 40
0.2
 49
0.1
 74
0
 49
-0.1
 74
0
  0
LTYPE
  5
1F9
100
AcDbSymbolTableRecord
100
AcDbLinetypeTableRecord
  2
DASHED
 70
64
  3
- - - - - - - - - - - - - - - - - - - -
 72
65
 73
2
 40
0.2
 49
0.1
 74
0
 49
-0.1
 74
0
  0
ENDTAB
  0
TABLE
  2
LAYER
  5
2
100
AcDbSymbolTable
 70
36
  0
LAYER
  5
10
100
AcDbSymbolTableRecord
100
AcDbLayerTableRecord
  2
0
 70
0
 62
7
  6
CONTINUOUS
370
-3
390
F
  0
LAYER
  5
1FA
100
AcDbSymbolTableRecord
100
AcDbLayerTableRecord
  2
DEFAULT_1
 70
0
 62
7
  6
CENTER
370
-3
390
F
  0
LAYER
  5
1FB
100
AcDbSymbolTableRecord
100
AcDbLayerTableRecord
  2
DEFAULT_2
 70
0
 62
8
  6
HIDDEN
370
-3
390
F
  0
LAYER
  5
1FC
100
AcDbSymbolTableRecord
100
AcDbLayerTableRecord
  2
DEFAULT_3
 70
0
 62
7
  6
PHANTOM
370
-3
390
F
  0
LAYER
  5
1FD
100
AcDbSymbolTableRecord
100
AcDbLayerTableRecord
  2
00_COMPONENTS
 70
0
 62
7
  6
CONTINUOUS
370
-3
390
F
  0
LAYER
  5
1FE
100
AcDbSymbolTableRecord
100
AcDbLayerTableRecord
  2
01_1_DEFAULT_DATUMS
 70
0
 62
7
  6
CONTINUOUS
370
-3
390
F
  0
LAYER
  5
1FF
100
AcDbSymbolTableRecord
100
AcDbLayerTableRecord
  2
01_PLANES
 70
0
 62
7
  6
CONTINUOUS
370
-3
390
F
  0
LAYER
  5
200
100
AcDbSymbolTableRecord
100
AcDbLayerTableRecord
  2
02_COORD_SYS
 70
0
 62
7
  6
CONTINUOUS
370
-3
390
F
  0
LAYER
  5
201
100
AcDbSymbolTableRecord
100
AcDbLayerTableRecord
  2
03_AXES
 70
0
 62
7
  6
CONTINUOUS
370
-3
390
F
  0
LAYER
  5
202
100
AcDbSymbolTableRecord
100
AcDbLayerTableRecord
  2
04_POINTS
 70
0
 62
7
  6
CONTINUOUS
370
-3
390
F
  0
LAYER
  5
203
100
AcDbSymbolTableRecord
100
AcDbLayerTableRecord
  2
05_CURVES
 70
0
 62
7
  6
CONTINUOUS
370
-3
390
F
  0
LAYER
  5
204
100
AcDbSymbolTableRecord
100
AcDbLayerTableRecord
  2
06_SURFS
 70
0
 62
7
  6
CONTINUOUS
370
-3
390
F
  0
LAYER
  5
205
100
AcDbSymbolTableRecord
100
AcDbLayerTableRecord
  2
07_COSMETICS
 70
0
 62
7
  6
CONTINUOUS
370
-3
390
F
  0
LAYER
  5
206
100
AcDbSymbolTableRecord
100
AcDbLayerTableRecord
  2
10_NOTES
 70
0
 62
7
  6
CONTINUOUS
370
-3
390
F
  0
LAYER
  5
207
100
AcDbSymbolTableRecord
100
AcDbLayerTableRecord
  2
11_NOTES_PUB
 70
0
 62
7
  6
CONTINUOUS
370
-3
390
F
  0
LAYER
  5
208
100
AcDbSymbolTableRecord
100
AcDbLayerTableRecord
  2
13_REF_GTOL
 70
0
 62
7
  6
CONTINUOUS
370
-3
390
F
  0
LAYER
  5
209
100
AcDbSymbolTableRecord
100
AcDbLayerTableRecord
  2
16_MISC
 70
0
 62
7
  6
CONTINUOUS
370
-3
390
F
  0
LAYER
  5
20A
100
AcDbSymbolTableRecord
100
AcDbLayerTableRecord
  2
17_NO_PRINT
 70
0
 62
7
  6
CONTINUOUS
370
-3
390
F
  0
LAYER
  5
20B
100
AcDbSymbolTableRecord
100
AcDbLayerTableRecord
  2
18_DATUM_CAMS_JOINTS
 70
0
 62
7
  6
CONTINUOUS
370
-3
390
F
  0
LAYER
  5
20C
100
AcDbSymbolTableRecord
100
AcDbLayerTableRecord
  2
19_DATUM_FUNCTIONAL
 70
0
 62
7
  6
CONTINUOUS
370
-3
390
F
  0
LAYER
  5
20D
100
AcDbSymbolTableRecord
100
AcDbLayerTableRecord
  2
20_DATUM_KINEMATIC_SCHEME
 70
0
 62
7
  6
CONTINUOUS
370
-3
390
F
  0
LAYER
  5
20E
100
AcDbSymbolTableRecord
100
AcDbLayerTableRecord
  2
_1
 70
0
 62
7
  6
CONTINUOUS
370
-3
390
F
  0
ENDTAB
  0
TABLE
  2
STYLE
  5
3
100
AcDbSymbolTable
 70
1
  0
STYLE
  5
11
100
AcDbSymbolTableRecord
100
AcDbTextStyleTableRecord
  2
STANDARD
 70
0
 40
0.0
 41
0.8
 50
0.0
 71
0
 42
0.2
  3
txt
  4

  0
STYLE
  5
20F
100
AcDbSymbolTableRecord
100
AcDbTextStyleTableRecord
  2
TEXTSTYLE_1
 70
0
 40
0.0
 41
0.8
 50
0.0
 71
0
 42
0.2
  3
gdt
  4

  0
ENDTAB
  0
TABLE
  2
VIEW
  5
6
100
AcDbSymbolTable
 70
0
  0
ENDTAB
  0
TABLE
  2
UCS
  5
7
100
AcDbSymbolTable
 70
0
  0
ENDTAB
  0
TABLE
  2
APPID
  5
9
100
AcDbSymbolTable
 70
1
  0
APPID
  5
210
100
AcDbSymbolTableRecord
100
AcDbRegAppTableRecord
  2
ACAD
 70
0
  0
ENDTAB
  0
TABLE
  2
BLOCK_RECORD
  5
1
100
AcDbSymbolTable
 70
0
  0
BLOCK_RECORD
  5
211
100
AcDbSymbolTableRecord
100
AcDbBlockTableRecord
  2
*Model_Space
  0
BLOCK_RECORD
  5
212
100
AcDbSymbolTableRecord
100
AcDbBlockTableRecord
  2
*Paper_Space
  0
BLOCK_RECORD
  5
213
100
AcDbSymbolTableRecord
100
AcDbBlockTableRecord
  2
_FILLED
  0
ENDTAB
  0
TABLE
  2
DIMSTYLE
  5
A
100
AcDbSymbolTable
 70
1
100
AcDbDimStyleTable
 71
0
  0
DIMSTYLE
105
214
100
AcDbSymbolTableRecord
100
AcDbDimStyleTableRecord
  2
STANDARD
 70
0
  3

  4

 40
1.0
 41
2.8043849206
 42
1.0
 43
0.38
 44
1.0
 45
0.0
 46
0.0
 47
0.01
 48
0.01
140
3.9261388889
141
0.09
142
0.0
143
25.4
144
1.0
145
0.0
146
1.0
147
0.625
 71
1
 72
0
 73
0
 74
0
 75
0
 76
0
 77
1
 78
8
 79
2
170
0
171
1
172
0
173
0
174
0
175
0
176
0
177
0
178
0
270
2
179
2
271
2
272
2
273
2
274
2
275
0
280
0
281
0
282
0
283
1
284
8
285
0
286
0
287
3
288
0
340
11
278
46
341
213
342
213
343
213
344
213
  0
ENDTAB
  0
ENDSEC
  0
SECTION
  2
BLOCKS
  0
BLOCK
  5
20
100
AcDbEntity
  8
0
100
AcDbBlockBegin
  2
*Model_Space
 70
0
 10
0.0
 20
0.0
 30
0.0
  3
*Model_Space
  1

  0
ENDBLK
  5
21
100
AcDbEntity
  8
0
100
AcDbBlockEnd
  0
BLOCK
  5
1C
100
AcDbEntity
  8
0
100
AcDbBlockBegin
  2
*Paper_Space
 70
0
 10
0.0
 20
0.0
 30
0.0
  3
*Paper_Space
  1

  0
ENDBLK
  5
1D
100
AcDbEntity
  8
0
100
AcDbBlockEnd
  0
BLOCK
  5
215
100
AcDbEntity
  8
0
100
AcDbBlockBegin
  2
_FILLED
 70
64
 10
0.0
 20
0.0
  3
_FILLED
  1

  0
SOLID
  5
216
100
AcDbEntity
  8
0
  6
BYBLOCK
 62
0
100
AcDbTrace
 10
0.0
 20
0.0
 11
-1.0
 21
0.25
 12
-1.0
 22
-0.25
 13
-1.0
 23
-0.25
  0
ENDBLK
  5
217
100
AcDbEntity
  8
0
  6
BYBLOCK
 62
0
100
AcDbBlockEnd
  0
ENDSEC
  0
SECTION
  2
ENTITIES
  0
LINE
  5
218
100
AcDbEntity
  8
_1
100
AcDbLine
 62
7
  6
CONTINUOUS
 10
129.516952381
 20
24.6710357143
 11
110.516952381
 21
24.6710357143
  0
LINE
  5
219
100
AcDbEntity
  8
_1
100
AcDbLine
 62
7
  6
CONTINUOUS
 10
167.516952381
 20
61.1710357143
 11
72.516952381
 21
61.1710357143
  0
LINE
  5
21A
100
AcDbEntity
  8
_1
100
AcDbLine
 62
7
  6
CONTINUOUS
 10
70.016952381
 20
64.6710357143
 11
170.016952381
 21
64.6710357143
  0
LINE
  5
21B
100
AcDbEntity
  8
_1
100
AcDbLine
 62
7
  6
CONTINUOUS
 10
70.2120040655
 20
76.6710357143
 11
89.9640687891
 21
76.6710357143
  0
LINE
  5
21C
100
AcDbEntity
  8
_1
100
AcDbLine
 62
7
  6
CONTINUOUS
 10
150.0698359728
 20
76.6710357143
 11
169.8219006964
 21
76.6710357143
  0
LINE
  5
21D
100
AcDbEntity
  8
_1
100
AcDbLine
 62
7
  6
CONTINUOUS
 10
116.516952381
 20
71.1503097721
 11
120.016952381
 21
69.12958383
  0
LINE
  5
21E
100
AcDbEntity
  8
_1
100
AcDbLine
 62
7
  6
CONTINUOUS
 10
115.016952381
 20
93.1710357143
 11
125.016952381
 21
93.1710357143
  0
LINE
  5
21F
100
AcDbEntity
  8
_1
100
AcDbLine
 62
7
  6
CONTINUOUS
 10
70.016952381
 20
94.1710357143
 11
170.016952381
 21
94.1710357143
  0
LINE
  5
220
100
AcDbEntity
  8
_1
100
AcDbLine
 62
7
  6
CONTINUOUS
 10
123.516952381
 20
75.1917616564
 11
120.016952381
 21
77.2124875986
  0
LINE
  5
221
100
AcDbEntity
  8
_1
100
AcDbLine
 62
7
  6
CONTINUOUS
 10
66.366952381
 20
227.1710357143
 11
66.366952381
 21
250.1710357143
  0
LINE
  5
222
100
AcDbEntity
  8
_1
100
AcDbLine
 62
7
  6
CONTINUOUS
 10
70.016952381
 20
64.6710357143
 11
70.016952381
 21
227.1710357143
  0
LINE
  5
223
100
AcDbEntity
  8
_1
100
AcDbLine
 62
7
  6
CONTINUOUS
 10
70.016952381
 20
250.1710357143
 11
70.016952381
 21
302.533732374
  0
LINE
  5
224
100
AcDbEntity
  8
_1
100
AcDbLine
 62
7
  6
CONTINUOUS
 10
70.2120040655
 20
302.2784702428
 11
70.2120040655
 21
250.1710357143
  0
LINE
  5
225
100
AcDbEntity
  8
_1
100
AcDbLine
 62
7
  6
CONTINUOUS
 10
70.2120040655
 20
227.1710357143
 11
70.2120040655
 21
76.6710357143
  0
LINE
  5
226
100
AcDbEntity
  8
_1
100
AcDbLine
 62
7
  6
CONTINUOUS
 10
70.5616736336
 20
76.6710357143
 11
70.5616736336
 21
64.6710357143
  0
LINE
  5
227
100
AcDbEntity
  8
_1
100
AcDbLine
 62
7
  6
CONTINUOUS
 10
72.2794932035
 20
76.6710357143
 11
72.2794932035
 21
227.1710357143
  0
LINE
  5
228
100
AcDbEntity
  8
_1
100
AcDbLine
 62
7
  6
CONTINUOUS
 10
72.2794932035
 20
301.6341106914
 11
72.2794932035
 21
250.1710357143
  0
LINE
  5
229
100
AcDbEntity
  8
_1
100
AcDbLine
 62
7
  6
CONTINUOUS
 10
72.516952381
 20
64.6710357143
 11
72.516952381
 21
61.1710357143
  0
LINE
  5
22A
100
AcDbEntity
  8
_1
100
AcDbLine
 62
7
  6
CONTINUOUS
 10
74.2354096636
 20
76.6710357143
 11
74.2354096636
 21
227.1710357143
  0
LINE
  5
22B
100
AcDbEntity
  8
_1
100
AcDbLine
 62
7
  6
CONTINUOUS
 10
74.2354096636
 20
250.1710357143
 11
74.2354096636
 21
301.7397517806
  0
LINE
  5
22C
100
AcDbEntity
  8
_1
100
AcDbLine
 62
7
  6
CONTINUOUS
 10
79.060945418
 20
64.6710357143
 11
79.060945418
 21
76.6710357143
  0
LINE
  5
22D
100
AcDbEntity
  8
_1
100
AcDbLine
 62
7
  6
CONTINUOUS
 10
79.2438258982
 20
295.1710357143
 11
79.2438258982
 21
293.6710357143
  0
LINE
  5
22E
100
AcDbEntity
  8
_1
100
AcDbLine
 62
7
  6
CONTINUOUS
 10
79.366952381
 20
300.1710357143
 11
79.366952381
 21
295.1710357143
  0
LINE
  5
22F
100
AcDbEntity
  8
_1
100
AcDbLine
 62
7
  6
CONTINUOUS
 10
79.366952381
 20
293.6710357143
 11
79.366952381
 21
250.1710357143
  0
LINE
  5
230
100
AcDbEntity
  8
_1
100
AcDbLine
 62
7
  6
CONTINUOUS
 10
79.366952381
 20
227.1710357143
 11
79.366952381
 21
76.6710357143
  0
LINE
  5
231
100
AcDbEntity
  8
_1
100
AcDbLine
 62
7
  6
CONTINUOUS
 10
82.316952381
 20
225.5091341821
 11
82.316952381
 21
251.8329372465
  0
LINE
  5
232
100
AcDbEntity
  8
_1
100
AcDbLine
 62
7
  6
CONTINUOUS
 10
87.7430976826
 20
293.6710357143
 11
87.7430976826
 21
295.1710357143
  0
LINE
  5
233
100
AcDbEntity
  8
_1
100
AcDbLine
 62
7
  6
CONTINUOUS
 10
87.8411136512
 20
295.1710357143
 11
87.8411136512
 21
293.6710357143
  0
LINE
  5
234
100
AcDbEntity
  8
_1
100
AcDbLine
 62
7
  6
CONTINUOUS
 10
87.8662241653
 20
76.6710357143
 11
87.8662241653
 21
225.3153493413
  0
LINE
  5
235
100
AcDbEntity
  8
_1
100
AcDbLine
 62
7
  6
CONTINUOUS
 10
87.8662241653
 20
252.0267220873
 11
87.8662241653
 21
293.6710357143
  0
LINE
  5
236
100
AcDbEntity
  8
_1
100
AcDbLine
 62
7
  6
CONTINUOUS
 10
87.8662241653
 20
295.1710357143
 11
87.8662241653
 21
300.1710357143
  0
LINE
  5
237
100
AcDbEntity
  8
_1
100
AcDbLine
 62
7
  6
CONTINUOUS
 10
87.9642401339
 20
300.1710357143
 11
87.9642401339
 21
295.1710357143
  0
LINE
  5
238
100
AcDbEntity
  8
_1
100
AcDbLine
 62
7
  6
CONTINUOUS
 10
87.9642401339
 20
293.6710357143
 11
87.9642401339
 21
252.0301448804
  0
LINE
  5
239
100
AcDbEntity
  8
_1
100
AcDbLine
 62
7
  6
CONTINUOUS
 10
87.9642401339
 20
225.3119265482
 11
87.9642401339
 21
76.6710357143
  0
LINE
  5
23A
100
AcDbEntity
  8
_1
100
AcDbLine
 62
7
  6
CONTINUOUS
 10
88.6165001109
 20
300.1710357143
 11
88.6165001109
 21
302.1711663397
  0
LINE
  5
23B
100
AcDbEntity
  8
_1
100
AcDbLine
 62
7
  6
CONTINUOUS
 10
89.8409423063
 20
293.6710357143
 11
89.8409423063
 21
295.1710357143
  0
LINE
  5
23C
100
AcDbEntity
  8
_1
100
AcDbLine
 62
7
  6
CONTINUOUS
 10
89.9640687891
 20
76.6710357143
 11
89.9640687891
 21
225.2420909927
  0
LINE
  5
23D
100
AcDbEntity
  8
_1
100
AcDbLine
 62
7
  6
CONTINUOUS
 10
89.9640687891
 20
252.0999804358
 11
89.9640687891
 21
293.6710357143
  0
LINE
  5
23E
100
AcDbEntity
  8
_1
100
AcDbLine
 62
7
  6
CONTINUOUS
 10
89.9640687891
 20
295.1710357143
 11
89.9640687891
 21
300.1710357143
  0
LINE
  5
23F
100
AcDbEntity
  8
_1
100
AcDbLine
 62
7
  6
CONTINUOUS
 10
90.3172283265
 20
303.2692045872
 11
90.3172283265
 21
302.5312843119
  0
LINE
  5
240
100
AcDbEntity
  8
_1
100
AcDbLine
 62
7
  6
CONTINUOUS
 10
92.016952381
 20
304.6546318683
 11
92.016952381
 21
304.689832264
  0
LINE
  5
241
100
AcDbEntity
  8
_1
100
AcDbLine
 62
7
  6
CONTINUOUS
 10
96.6165001109
 20
300.1710357143
 11
96.6165001109
 21
302.171166377
  0
LINE
  5
242
100
AcDbEntity
  8
_1
100
AcDbLine
 62
7
  6
CONTINUOUS
 10
98.8165001109
 20
300.1710357143
 11
98.8165001109
 21
303.0463639739
  0
LINE
  5
243
100
AcDbEntity
  8
_1
100
AcDbLine
 62
7
  6
CONTINUOUS
 10
98.9145160795
 20
302.2163336242
 11
98.9145160795
 21
300.1710357143
  0
LINE
  5
244
100
AcDbEntity
  8
_1
100
AcDbLine
 62
7
  6
CONTINUOUS
 10
100.9143447346
 20
300.1710357143
 11
100.9143447346
 21
302.073722866
  0
LINE
  5
245
100
AcDbEntity
  8
_1
100
AcDbLine
 62
7
  6
CONTINUOUS
 10
110.516952381
 20
61.1710357143
 11
110.516952381
 21
24.6710357143
  0
LINE
  5
246
100
AcDbEntity
  8
_1
100
AcDbLine
 62
7
  6
CONTINUOUS
 10
113.016952381
 20
72.6710357143
 11
113.016952381
 21
91.1710357143
  0
LINE
  5
247
100
AcDbEntity
  8
_1
100
AcDbLine
 62
7
  6
CONTINUOUS
 10
116.516952381
 20
71.1503097721
 11
116.516952381
 21
75.1917616564
  0
LINE
  5
248
100
AcDbEntity
  8
_1
100
AcDbLine
 62
7
  6
CONTINUOUS
 10
117.016952381
 20
32.6710357143
 11
117.016952381
 21
56.6710357143
  0
LINE
  5
249
100
AcDbEntity
  8
_1
100
AcDbLine
 62
7
  6
CONTINUOUS
 10
119.316952381
 20
248.6710357143
 11
119.316952381
 21
243.5879074594
  0
LINE
  5
24A
100
AcDbEntity
  8
_1
100
AcDbLine
 62
7
  6
CONTINUOUS
 10
119.316952381
 20
233.7541639691
 11
119.316952381
 21
228.6710357143
  0
LINE
  5
24B
100
AcDbEntity
  8
_1
100
AcDbLine
 62
7
  6
CONTINUOUS
 10
120.3852093098
 20
295.1710357143
 11
119.616952381
 21
273.1710357143
  0
LINE
  5
24C
100
AcDbEntity
  8
_1
100
AcDbLine
 62
7
  6
CONTINUOUS
 10
120.116952381
 20
262.6710357143
 11
120.116952381
 21
270.1952689467
  0
LINE
  5
24D
100
AcDbEntity
  8
_1
100
AcDbLine
 62
7
  6
CONTINUOUS
 10
120.616952381
 20
263.1710357143
 11
120.616952381
 21
268.1509207948
  0
LINE
  5
24E
100
AcDbEntity
  8
_1
100
AcDbLine
 62
7
  6
CONTINUOUS
 10
122.116952381
 20
310.1210357143
 11
122.116952381
 21
295.1710357143
  0
LINE
  5
24F
100
AcDbEntity
  8
_1
100
AcDbLine
 62
7
  6
CONTINUOUS
 10
123.016952381
 20
56.6710357143
 11
123.016952381
 21
32.6710357143
  0
LINE
  5
250
100
AcDbEntity
  8
_1
100
AcDbLine
 62
7
  6
CONTINUOUS
 10
123.516952381
 20
75.1917616564
 11
123.516952381
 21
71.1503097721
  0
LINE
  5
251
100
AcDbEntity
  8
_1
100
AcDbLine
 62
7
  6
CONTINUOUS
 10
127.016952381
 20
91.1710357143
 11
127.016952381
 21
72.6710357143
  0
LINE
  5
252
100
AcDbEntity
  8
_1
100
AcDbLine
 62
7
  6
CONTINUOUS
 10
129.516952381
 20
61.1710357143
 11
129.516952381
 21
24.6710357143
  0
LINE
  5
253
100
AcDbEntity
  8
_1
100
AcDbLine
 62
7
  6
CONTINUOUS
 10
145.116952381
 20
310.1210357143
 11
145.116952381
 21
295.1710357143
  0
LINE
  5
254
100
AcDbEntity
  8
_1
100
AcDbLine
 62
7
  6
CONTINUOUS
 10
146.616952381
 20
268.1510567397
 11
146.616952381
 21
263.1710357143
  0
LINE
  5
255
100
AcDbEntity
  8
_1
100
AcDbLine
 62
7
  6
CONTINUOUS
 10
147.116952381
 20
270.1953482893
 11
147.116952381
 21
262.6710357143
  0
LINE
  5
256
100
AcDbEntity
  8
_1
100
AcDbLine
 62
7
  6
CONTINUOUS
 10
148.016952381
 20
304.689832264
 11
148.016952381
 21
304.6546318683
  0
LINE
  5
257
100
AcDbEntity
  8
_1
100
AcDbLine
 62
7
  6
CONTINUOUS
 10
149.7166764354
 20
302.5332433339
 11
149.7166764354
 21
303.2692045872
  0
LINE
  5
258
100
AcDbEntity
  8
_1
100
AcDbLine
 62
7
  6
CONTINUOUS
 10
146.8486954521
 20
295.1710357143
 11
147.616952381
 21
273.1710357143
  0
LINE
  5
259
100
AcDbEntity
  8
_1
100
AcDbLine
 62
7
  6
CONTINUOUS
 10
150.0698359728
 20
300.1710357143
 11
150.0698359728
 21
295.1710357143
  0
LINE
  5
25A
100
AcDbEntity
  8
_1
100
AcDbLine
 62
7
  6
CONTINUOUS
 10
150.0698359728
 20
293.6710357143
 11
150.0698359728
 21
76.6710357143
  0
LINE
  5
25B
100
AcDbEntity
  8
_1
100
AcDbLine
 62
7
  6
CONTINUOUS
 10
150.1929624556
 20
295.1710357143
 11
150.1929624556
 21
293.6710357143
  0
LINE
  5
25C
100
AcDbEntity
  8
_1
100
AcDbLine
 62
7
  6
CONTINUOUS
 10
151.417404651
 20
300.1710357143
 11
151.417404651
 21
302.171166377
  0
LINE
  5
25D
100
AcDbEntity
  8
_1
100
AcDbLine
 62
7
  6
CONTINUOUS
 10
152.069664628
 20
76.6710357143
 11
152.069664628
 21
293.6710357143
  0
LINE
  5
25E
100
AcDbEntity
  8
_1
100
AcDbLine
 62
7
  6
CONTINUOUS
 10
152.069664628
 20
295.1710357143
 11
152.069664628
 21
300.1710357143
  0
LINE
  5
25F
100
AcDbEntity
  8
_1
100
AcDbLine
 62
7
  6
CONTINUOUS
 10
152.1676805966
 20
300.1710357143
 11
152.1676805966
 21
295.1710357143
  0
LINE
  5
260
100
AcDbEntity
  8
_1
100
AcDbLine
 62
7
  6
CONTINUOUS
 10
152.1676805966
 20
293.6710357143
 11
152.1676805966
 21
76.6710357143
  0
LINE
  5
261
100
AcDbEntity
  8
_1
100
AcDbLine
 62
7
  6
CONTINUOUS
 10
152.1927911107
 20
293.6710357143
 11
152.1927911107
 21
295.1710357143
  0
LINE
  5
262
100
AcDbEntity
  8
_1
100
AcDbLine
 62
7
  6
CONTINUOUS
 10
152.2908070793
 20
295.1710357143
 11
152.2908070793
 21
293.6710357143
  0
LINE
  5
263
100
AcDbEntity
  8
_1
100
AcDbLine
 62
7
  6
CONTINUOUS
 10
160.666952381
 20
76.6710357143
 11
160.666952381
 21
293.6710357143
  0
LINE
  5
264
100
AcDbEntity
  8
_1
100
AcDbLine
 62
7
  6
CONTINUOUS
 10
160.666952381
 20
295.1710357143
 11
160.666952381
 21
300.1710357143
  0
LINE
  5
265
100
AcDbEntity
  8
_1
100
AcDbLine
 62
7
  6
CONTINUOUS
 10
160.7900788637
 20
293.6710357143
 11
160.7900788637
 21
295.1710357143
  0
LINE
  5
266
100
AcDbEntity
  8
_1
100
AcDbLine
 62
7
  6
CONTINUOUS
 10
160.9729593439
 20
76.6710357143
 11
160.9729593439
 21
64.6710357143
  0
LINE
  5
267
100
AcDbEntity
  8
_1
100
AcDbLine
 62
7
  6
CONTINUOUS
 10
165.7984950983
 20
301.7397517806
 11
165.7984950983
 21
76.6710357143
  0
LINE
  5
268
100
AcDbEntity
  8
_1
100
AcDbLine
 62
7
  6
CONTINUOUS
 10
167.516952381
 20
64.6710357143
 11
167.516952381
 21
61.1710357143
  0
LINE
  5
269
100
AcDbEntity
  8
_1
100
AcDbLine
 62
7
  6
CONTINUOUS
 10
167.7544115584
 20
76.6710357143
 11
167.7544115584
 21
301.6341106914
  0
LINE
  5
26A
100
AcDbEntity
  8
_1
100
AcDbLine
 62
7
  6
CONTINUOUS
 10
169.4722311283
 20
64.6710357143
 11
169.4722311283
 21
76.6710357143
  0
LINE
  5
26B
100
AcDbEntity
  8
_1
100
AcDbLine
 62
7
  6
CONTINUOUS
 10
169.8219006964
 20
76.6710357143
 11
169.8219006964
 21
302.2784702428
  0
LINE
  5
26C
100
AcDbEntity
  8
_1
100
AcDbLine
 62
7
  6
CONTINUOUS
 10
170.016952381
 20
64.6710357143
 11
170.016952381
 21
302.533732374
  0
LINE
  5
26D
100
AcDbEntity
  8
_1
100
AcDbLine
 62
7
  6
CONTINUOUS
 10
116.316952381
 20
225.6710357143
 11
111.3365915288
 21
225.6710357143
  0
LINE
  5
26E
100
AcDbEntity
  8
_1
100
AcDbLine
 62
7
  6
CONTINUOUS
 10
66.366952381
 20
227.1710357143
 11
82.316952381
 21
227.1710357143
  0
LINE
  5
26F
100
AcDbEntity
  8
_1
100
AcDbLine
 62
7
  6
CONTINUOUS
 10
82.316952381
 20
225.5091341821
 11
106.316952381
 21
224.6710357143
  0
LINE
  5
270
100
AcDbEntity
  8
_1
100
AcDbLine
 62
7
  6
CONTINUOUS
 10
120.016952381
 20
77.2124875986
 11
116.516952381
 21
75.1917616564
  0
LINE
  5
271
100
AcDbEntity
  8
_1
100
AcDbLine
 62
7
  6
CONTINUOUS
 10
120.016952381
 20
69.12958383
 11
123.516952381
 21
71.1503097721
  0
LINE
  5
272
100
AcDbEntity
  8
_1
100
AcDbLine
 62
7
  6
CONTINUOUS
 10
82.316952381
 20
251.8329372465
 11
106.316952381
 21
252.6710357143
  0
LINE
  5
273
100
AcDbEntity
  8
_1
100
AcDbLine
 62
7
  6
CONTINUOUS
 10
66.366952381
 20
250.1710357143
 11
82.316952381
 21
250.1710357143
  0
LINE
  5
274
100
AcDbEntity
  8
_1
100
AcDbLine
 62
7
  6
CONTINUOUS
 10
111.3364556479
 20
251.6710357143
 11
116.316952381
 21
251.6710357143
  0
LINE
  5
275
100
AcDbEntity
  8
_1
100
AcDbLine
 62
7
  6
CONTINUOUS
 10
70.016952381
 20
255.6710357143
 11
170.016952381
 21
255.6710357143
  0
LINE
  5
276
100
AcDbEntity
  8
_1
100
AcDbLine
 62
7
  6
CONTINUOUS
 10
144.116952381
 20
259.6710357143
 11
136.8274483606
 21
259.6710357143
  0
LINE
  5
277
100
AcDbEntity
  8
_1
100
AcDbLine
 62
7
  6
CONTINUOUS
 10
130.4064564013
 20
259.6710357143
 11
123.116952381
 21
259.6710357143
  0
LINE
  5
278
100
AcDbEntity
  8
_1
100
AcDbLine
 62
7
  6
CONTINUOUS
 10
143.616952381
 20
260.1710357143
 11
138.5338241261
 21
260.1710357143
  0
LINE
  5
279
100
AcDbEntity
  8
_1
100
AcDbLine
 62
7
  6
CONTINUOUS
 10
128.7000806358
 20
260.1710357143
 11
123.616952381
 21
260.1710357143
  0
LINE
  5
27A
100
AcDbEntity
  8
_1
100
AcDbLine
 62
7
  6
CONTINUOUS
 10
70.016952381
 20
293.6710357143
 11
120.3328281555
 21
293.6710357143
  0
LINE
  5
27B
100
AcDbEntity
  8
_1
100
AcDbLine
 62
7
  6
CONTINUOUS
 10
146.9010766064
 20
293.6710357143
 11
170.016952381
 21
293.6710357143
  0
LINE
  5
27C
100
AcDbEntity
  8
_1
100
AcDbLine
 62
7
  6
CONTINUOUS
 10
70.016952381
 20
295.1710357143
 11
170.016952381
 21
295.1710357143
  0
LINE
  5
27D
100
AcDbEntity
  8
_1
100
AcDbLine
 62
7
  6
CONTINUOUS
 10
79.366952381
 20
300.1710357143
 11
100.9143447346
 21
300.1710357143
  0
LINE
  5
27E
100
AcDbEntity
  8
_1
100
AcDbLine
 62
7
  6
CONTINUOUS
 10
145.116952381
 20
300.1710357143
 11
160.666952381
 21
300.1710357143
  0
LWPOLYLINE
  5
27F
100
AcDbEntity
  8
_1
100
AcDbPolyline
 62
7
  6
CONTINUOUS
 90
3
 70
0
 10
96.6165001109
 20
302.1711557728
 10
92.6273502095
 20
303.0204517071
 10
88.6165001109
 20
302.1711557848
  0
LINE
  5
280
100
AcDbEntity
  8
_1
100
AcDbLine
 62
7
  6
CONTINUOUS
 10
88.6165001109
 20
302.1711557683
 11
96.6165001109
 21
302.171166377
  0
LINE
  5
281
100
AcDbEntity
  8
_1
100
AcDbLine
 62
7
  6
CONTINUOUS
 10
145.116952381
 20
302.1711739106
 11
151.417404651
 21
302.171166377
  0
LINE
  5
282
100
AcDbEntity
  8
_1
100
AcDbLine
 62
7
  6
CONTINUOUS
 10
122.116952381
 20
310.1210357143
 11
145.116952381
 21
310.1210357143
  0
LWPOLYLINE
  5
283
100
AcDbEntity
  8
_1
100
AcDbPolyline
 62
7
  6
CONTINUOUS
 90
3
 70
0
 10
151.417404651
 20
302.1711557728
 10
147.4282547495
 20
303.0204517071
 10
145.116952381
 20
302.5310343445
  0
ARC
  5
284
100
AcDbEntity
  8
_1
100
AcDbCircle
 62
7
  6
CONTINUOUS
 10
59.2820847516
 20
297.957052756
 40
39.8606458362
100
AcDbArc
 50
6.1340104788
 51
7.335409686
  0
ARC
  5
285
100
AcDbEntity
  8
_1
100
AcDbCircle
 62
7
  6
CONTINUOUS
 10
120.016952381
 20
-94.3289642857
 40
400.0
100
AcDbArc
 50
82.8192442185
 51
85.9860127819
  0
ARC
  5
286
100
AcDbEntity
  8
_1
100
AcDbCircle
 62
7
  6
CONTINUOUS
 10
120.016952381
 20
-94.3289642857
 40
400.0
100
AcDbArc
 50
94.0139872181
 51
97.1807557815
  0
ARC
  5
287
100
AcDbEntity
  8
_1
100
AcDbCircle
 62
7
  6
CONTINUOUS
 10
120.016952381
 20
-94.3289642857
 40
399.8918728857
100
AcDbArc
 50
89.6869772176
 51
93.440743981
  0
ARC
  5
288
100
AcDbEntity
  8
_1
100
AcDbCircle
 62
7
  6
CONTINUOUS
 10
120.016952381
 20
-94.3289642857
 40
398.7058784367
100
AcDbArc
 50
94.2719372368
 51
96.5935517085
  0
ARC
  5
289
100
AcDbEntity
  8
_1
100
AcDbCircle
 62
7
  6
CONTINUOUS
 10
120.016952381
 20
-94.3289642857
 40
398.7058784367
100
AcDbArc
 50
83.4064482915
 51
85.7280627632
  0
ARC
  5
28A
100
AcDbEntity
  8
_1
100
AcDbCircle
 62
7
  6
CONTINUOUS
 10
120.016952381
 20
-94.3289642857
 40
396.8626966597
100
AcDbArc
 50
89.694339835
 51
92.7589437973
  0
ARC
  5
28B
100
AcDbEntity
  8
_1
100
AcDbCircle
 62
7
  6
CONTINUOUS
 10
120.016952381
 20
72.6710357143
 40
7.0
100
AcDbArc
 50
180.0
 51
360.0
  0
CIRCLE
  5
28C
100
AcDbEntity
  8
_1
100
AcDbCircle
 62
7
  6
CONTINUOUS
 10
120.016952381
 20
73.1710357143
 40
4.5
  0
ARC
  5
28D
100
AcDbEntity
  8
_1
100
AcDbCircle
 62
7
  6
CONTINUOUS
 10
120.016952381
 20
73.1710357143
 40
3.8
100
AcDbArc
 50
217.0804578484
 51
262.9195421516
  0
ARC
  5
28E
100
AcDbEntity
  8
_1
100
AcDbCircle
 62
7
  6
CONTINUOUS
 10
120.016952381
 20
73.1710357143
 40
3.8
100
AcDbArc
 50
157.0804578484
 51
202.9195421516
  0
ARC
  5
28F
100
AcDbEntity
  8
_1
100
AcDbCircle
 62
7
  6
CONTINUOUS
 10
120.016952381
 20
73.1710357143
 40
3.8
100
AcDbArc
 50
97.0804578484
 51
142.9195421516
  0
ARC
  5
290
100
AcDbEntity
  8
_1
100
AcDbCircle
 62
7
  6
CONTINUOUS
 10
120.016952381
 20
73.1710357143
 40
3.8
100
AcDbArc
 50
37.0804578484
 51
82.9195421516
  0
ARC
  5
291
100
AcDbEntity
  8
_1
100
AcDbCircle
 62
7
  6
CONTINUOUS
 10
120.016952381
 20
73.1710357143
 40
3.8
100
AcDbArc
 50
337.0804578484
 51
22.9195421516
  0
ARC
  5
292
100
AcDbEntity
  8
_1
100
AcDbCircle
 62
7
  6
CONTINUOUS
 10
120.016952381
 20
73.1710357143
 40
3.8
100
AcDbArc
 50
277.0804578484
 51
322.9195421516
  0
ARC
  5
293
100
AcDbEntity
  8
_1
100
AcDbCircle
 62
7
  6
CONTINUOUS
 10
120.016952381
 20
32.6710357143
 40
3.0
100
AcDbArc
 50
180.0
 51
360.0
  0
ARC
  5
294
100
AcDbEntity
  8
_1
100
AcDbCircle
 62
7
  6
CONTINUOUS
 10
120.016952381
 20
56.6710357143
 40
3.0
100
AcDbArc
 50
0.0
 51
180.0
  0
CIRCLE
  5
295
100
AcDbEntity
  8
_1
100
AcDbCircle
 62
7
  6
CONTINUOUS
 10
120.016952381
 20
73.1710357143
 40
2.0
  0
ARC
  5
296
100
AcDbEntity
  8
_1
100
AcDbCircle
 62
7
  6
CONTINUOUS
 10
125.016952381
 20
91.1710357143
 40
2.0
100
AcDbArc
 50
0.0
 51
90.0
  0
ARC
  5
297
100
AcDbEntity
  8
_1
100
AcDbCircle
 62
7
  6
CONTINUOUS
 10
115.016952381
 20
91.1710357143
 40
2.0
100
AcDbArc
 50
90.0
 51
180.0
  0
ARC
  5
298
100
AcDbEntity
  8
_1
100
AcDbCircle
 62
7
  6
CONTINUOUS
 10
133.616952381
 20
273.1710357143
 40
14.0
100
AcDbArc
 50
180.0
 51
360.0
  0
ARC
  5
299
100
AcDbEntity
  8
_1
100
AcDbCircle
 62
7
  6
CONTINUOUS
 10
106.316952381
 20
238.6710357143
 40
14.0
100
AcDbArc
 50
270.0
 51
90.0
  0
ARC
  5
29A
100
AcDbEntity
  8
_1
100
AcDbCircle
 62
7
  6
CONTINUOUS
 10
143.616952381
 20
263.1710357143
 40
3.0
100
AcDbArc
 50
270.0
 51
360.0
  0
ARC
  5
29B
100
AcDbEntity
  8
_1
100
AcDbCircle
 62
7
  6
CONTINUOUS
 10
123.616952381
 20
263.1710357143
 40
3.0
100
AcDbArc
 50
180.0
 51
270.0
  0
ARC
  5
29C
100
AcDbEntity
  8
_1
100
AcDbCircle
 62
7
  6
CONTINUOUS
 10
116.316952381
 20
248.6710357143
 40
3.0
100
AcDbArc
 50
0.0
 51
90.0
  0
ARC
  5
29D
100
AcDbEntity
  8
_1
100
AcDbCircle
 62
7
  6
CONTINUOUS
 10
116.316952381
 20
228.6710357143
 40
3.0
100
AcDbArc
 50
270.0
 51
360.0
  0
ARC
  5
29E
100
AcDbEntity
  8
_1
100
AcDbCircle
 62
7
  6
CONTINUOUS
 10
123.116952381
 20
262.6710357143
 40
3.0
100
AcDbArc
 50
180.0
 51
270.0
  0
ARC
  5
29F
100
AcDbEntity
  8
_1
100
AcDbCircle
 62
7
  6
CONTINUOUS
 10
144.116952381
 20
262.6710357143
 40
3.0
100
AcDbArc
 50
270.0
 51
360.0
  0
ARC
  5
2A0
100
AcDbEntity
  8
_1
100
AcDbCircle
 62
7
  6
CONTINUOUS
 10
143.616952381
 20
263.1710357143
 40
2.75
100
AcDbArc
 50
214.4951529539
 51
54.902359309
  0
ARC
  5
2A1
100
AcDbEntity
  8
_1
100
AcDbCircle
 62
7
  6
CONTINUOUS
 10
123.616952381
 20
263.1710357143
 40
2.75
100
AcDbArc
 50
125.0997983399
 51
325.5047344122
  0
ARC
  5
2A2
100
AcDbEntity
  8
_1
100
AcDbCircle
 62
7
  6
CONTINUOUS
 10
116.316952381
 20
248.6710357143
 40
2.75
100
AcDbArc
 50
304.4897319741
 51
144.8941798304
  0
ARC
  5
2A3
100
AcDbEntity
  8
_1
100
AcDbCircle
 62
7
  6
CONTINUOUS
 10
116.316952381
 20
228.6710357143
 40
2.75
100
AcDbArc
 50
215.1079698351
 51
55.5101561194
  0
ARC
  5
2A4
100
AcDbEntity
  8
_1
100
AcDbCircle
 62
7
  6
CONTINUOUS
 10
123.616952381
 20
263.1710357143
 40
2.25
100
AcDbArc
 50
130.5879155205
 51
327.3297209884
  0
ARC
  5
2A5
100
AcDbEntity
  8
_1
100
AcDbCircle
 62
7
  6
CONTINUOUS
 10
143.616952381
 20
263.1710357143
 40
2.25
100
AcDbArc
 50
212.6660295507
 51
49.4039463535
  0
ARC
  5
2A6
100
AcDbEntity
  8
_1
100
AcDbCircle
 62
7
  6
CONTINUOUS
 10
116.316952381
 20
228.6710357143
 40
2.25
100
AcDbArc
 50
220.5748094414
 51
57.3353208224
  0
ARC
  5
2A7
100
AcDbEntity
  8
_1
100
AcDbCircle
 62
7
  6
CONTINUOUS
 10
116.316952381
 20
248.6710357143
 40
2.25
100
AcDbArc
 50
302.6613762452
 51
139.4177373582
  0
SPLINE
  5
2A8
100
AcDbEntity
  8
_1
100
AcDbSpline
 62
7
  6
CONTINUOUS
 70
0
 71
3
 72
21
 73
17
 74
0
 42
0.0000001
 43
0.0000001
 44
0.0000000001
 40
0.0
 40
0.0
 40
0.0
 40
0.0
 40
0.0013106637
 40
0.004724722
 40
0.0103468249
 40
0.0181853487
 40
0.0404923544
 40
0.0715335223
 40
0.1110897861
 40
0.1589243201
 40
0.2147206815
 40
0.2781019221
 40
0.4259641414
 40
0.5986609609
 40
0.7916641212
 40
1.0
 40
1.0
 40
1.0
 40
1.0
 10
148.016952381
 20
304.6546059116
 30
0.0
 10
148.016952381
 20
304.6533414193
 30
0.0
 10
148.0107418558
 20
304.6520180188
 30
0.0
 10
148.0024345293
 20
304.6507803495
 30
0.0
 10
147.9852942485
 20
304.6497653723
 30
0.0
 10
147.951333307
 20
304.6487592879
 30
0.0
 10
147.8918972947
 20
304.6487897642
 30
0.0
 10
147.8024668866
 20
304.6502179275
 30
0.0
 10
147.6881706049
 20
304.6531978129
 30
0.0
 10
147.5501267985
 20
304.6577046918
 30
0.0
 10
147.3891016092
 20
304.6637341431
 30
0.0
 10
147.1316894797
 20
304.6743135162
 30
0.0
 10
146.7616549174
 20
304.6911830978
 30
0.0
 10
146.2667904977
 20
304.7156859633
 30
0.0
 10
145.713740276
 20
304.7447819273
 30
0.0
 10
145.327127439
 20
304.7661202012
 30
0.0
 10
145.1264487084
 20
304.7774222044
 30
0.0
  0
SPLINE
  5
2A9
100
AcDbEntity
  8
_1
100
AcDbSpline
 62
7
  6
CONTINUOUS
 70
0
 71
3
 72
23
 73
19
 74
0
 42
0.0000001
 43
0.0000001
 44
0.0000000001
 40
0.0
 40
0.0
 40
0.0
 40
0.0
 40
0.1949731561
 40
0.3825503817
 40
0.5553881654
 40
0.6342223227
 40
0.7069421497
 40
0.7728586925
 40
0.8313258733
 40
0.8817836353
 40
0.92374427
 40
0.9567941951
 40
0.9698828162
 40
0.9806325036
 40
0.989016794
 40
0.9950265161
 40
0.998662815
 40
1.0
 40
1.0
 40
1.0
 40
1.0
 10
96.016952381
 20
304.8420739937
 30
0.0
 10
95.7570901686
 20
304.826455983
 30
0.0
 10
95.2471858226
 20
304.7964281137
 30
0.0
 10
94.5067909939
 20
304.7548097808
 30
0.0
 10
93.9211262548
 20
304.7236453675
 30
0.0
 10
93.4885413184
 20
304.7018582642
 30
0.0
 10
93.1985080476
 20
304.687882459
 30
0.0
 10
92.9356041845
 20
304.6758875108
 30
0.0
 10
92.7023669189
 20
304.6659874492
 30
0.0
 10
92.5010371346
 20
304.6582599311
 30
0.0
 10
92.3336337592
 20
304.6527847188
 30
0.0
 10
92.2159539491
 20
304.64987479
 30
0.0
 10
92.1401264917
 20
304.6488994216
 30
0.0
 10
92.0968372992
 20
304.6487455942
 30
0.0
 10
92.0639505314
 20
304.649304566
 30
0.0
 10
92.0383336258
 20
304.6500107426
 30
0.0
 10
92.0265017366
 20
304.6518216551
 30
0.0
 10
92.016952381
 20
304.6528241862
 30
0.0
 10
92.016952381
 20
304.6546096159
 30
0.0
  0
SPLINE
  5
2AA
100
AcDbEntity
  8
_1
100
AcDbSpline
 62
7
  6
CONTINUOUS
 70
0
 71
3
 72
11
 73
7
 74
0
 42
0.0000001
 43
0.0000001
 44
0.0000000001
 40
0.0
 40
0.0
 40
0.0
 40
0.0
 40
0.37277129
 40
0.6530748526
 40
0.851951311
 40
1.0
 40
1.0
 40
1.0
 40
1.0
 10
70.2120040655
 20
302.2784702428
 30
0.0
 10
70.1976149301
 20
302.3179582169
 30
0.0
 10
70.1700556617
 20
302.3864947645
 30
0.0
 10
70.1224983822
 20
302.470096078
 30
0.0
 10
70.0742533903
 20
302.5238792382
 30
0.0
 10
70.033513148
 20
302.5358188345
 30
0.0
 10
70.016952381
 20
302.533732374
 30
0.0
  0
SPLINE
  5
2AB
100
AcDbEntity
  8
_1
100
AcDbSpline
 62
7
  6
CONTINUOUS
 70
0
 71
3
 72
15
 73
11
 74
0
 42
0.0000001
 43
0.0000001
 44
0.0000000001
 40
0.0
 40
0.0
 40
0.0
 40
0.0
 40
0.3748483149
 40
0.5443914729
 40
0.6934015439
 40
0.8163861495
 40
0.9092041258
 40
0.9435221393
 40
0.9696762277
 40
1.0
 40
1.0
 40
1.0
 40
1.0
 10
100.9143447346
 20
302.073722866
 30
0.0
 10
100.6609717772
 20
302.0615128474
 30
0.0
 10
100.292513517
 20
302.0517713713
 30
0.0
 10
99.8232279412
 20
302.0586297378
 30
0.0
 10
99.5247989217
 20
302.0726392967
 30
0.0
 10
99.2785472676
 20
302.0954881791
 30
0.0
 10
99.1118484603
 20
302.1213638068
 30
0.0
 10
99.0103341014
 20
302.1489441107
 30
0.0
 10
98.9555392135
 20
302.1700591217
 30
0.0
 10
98.9167338865
 20
302.1959331492
 30
0.0
 10
98.9145160795
 20
302.2163336242
 30
0.0
  0
SPLINE
  5
2AC
100
AcDbEntity
  8
_1
100
AcDbSpline
 62
7
  6
CONTINUOUS
 70
0
 71
3
 72
11
 73
7
 74
0
 42
0.0000001
 43
0.0000001
 44
0.0000000001
 40
0.0
 40
0.0
 40
0.0
 40
0.0
 40
0.144388451
 40
0.3587919261
 40
0.6440049643
 40
1.0
 40
1.0
 40
1.0
 40
1.0
 10
70.2120040655
 20
302.2784702428
 30
0.0
 10
70.3017349249
 20
302.2250366727
 30
0.0
 10
70.541928178
 20
302.1230359021
 30
0.0
 10
70.9832626689
 20
301.9750448586
 30
0.0
 10
71.5793404596
 20
301.8072294951
 30
0.0
 10
72.0291712192
 20
301.6944412804
 30
0.0
 10
72.2794932035
 20
301.6341106914
 30
0.0
  0
SPLINE
  5
2AD
100
AcDbEntity
  8
_1
100
AcDbSpline
 62
7
  6
CONTINUOUS
 70
0
 71
3
 72
13
 73
9
 74
0
 42
0.0000001
 43
0.0000001
 44
0.0000000001
 40
0.0
 40
0.0
 40
0.0
 40
0.0
 40
0.0509242958
 40
0.1288990126
 40
0.2319554265
 40
0.3572422995
 40
0.6591990157
 40
1.0
 40
1.0
 40
1.0
 40
1.0
 10
72.2794932035
 20
301.6341106914
 30
0.0
 10
72.3118741194
 20
301.6263065038
 30
0.0
 10
72.3962680093
 20
301.6182087849
 30
0.0
 10
72.5477695862
 20
301.6137973322
 30
0.0
 10
72.7482274588
 20
301.6172917793
 30
0.0
 10
73.0947205901
 20
301.6327252642
 30
0.0
 10
73.5957555309
 20
301.6709919054
 30
0.0
 10
74.0139760849
 20
301.7141562957
 30
0.0
 10
74.2354096636
 20
301.7397517806
 30
0.0
  0
SPLINE
  5
2AE
100
AcDbEntity
  8
_1
100
AcDbSpline
 62
7
  6
CONTINUOUS
 70
0
 71
3
 72
20
 73
16
 74
0
 42
0.0000001
 43
0.0000001
 44
0.0000000001
 40
0.0
 40
0.0
 40
0.0
 40
0.0
 40
0.1916933494
 40
0.3761528814
 40
0.5463959805
 40
0.6959561206
 40
0.7611989253
 40
0.8192691146
 40
0.8696563809
 40
0.9119650125
 40
0.9459162278
 40
0.9714463529
 40
0.9811396178
 40
0.9889329129
 40
1.0
 40
1.0
 40
1.0
 40
1.0
 10
90.3172283265
 20
303.2692045872
 30
0.0
 10
90.8646579681
 20
303.3100963985
 30
0.0
 10
91.9396713742
 20
303.3798741852
 30
0.0
 10
93.5029603802
 20
303.4495630719
 30
0.0
 10
94.9468067989
 20
303.4810155374
 30
0.0
 10
96.0496838109
 20
303.4748858999
 30
0.0
 10
96.8306756717
 20
303.4471077934
 30
0.0
 10
97.3272907136
 20
303.4176052069
 30
0.0
 10
97.7573742384
 20
303.3788542527
 30
0.0
 10
98.1171359951
 20
303.331623615
 30
0.0
 10
98.4034766304
 20
303.2759636247
 30
0.0
 10
98.5942536815
 20
303.220765458
 30
0.0
 10
98.7066011108
 20
303.1684013161
 30
0.0
 10
98.7747158177
 20
303.124835284
 30
0.0
 10
98.8124389959
 20
303.0777956665
 30
0.0
 10
98.8165001109
 20
303.0463639739
 30
0.0
  0
SPLINE
  5
2AF
100
AcDbEntity
  8
_1
100
AcDbSpline
 62
7
  6
CONTINUOUS
 70
0
 71
3
 72
11
 73
7
 74
0
 42
0.0000001
 43
0.0000001
 44
0.0000000001
 40
0.0
 40
0.0
 40
0.0
 40
0.0
 40
0.3559950357
 40
0.6412080739
 40
0.855611549
 40
1.0
 40
1.0
 40
1.0
 40
1.0
 10
167.7544115584
 20
301.6341106914
 30
0.0
 10
168.0047335427
 20
301.6944412804
 30
0.0
 10
168.4545643023
 20
301.8072294951
 30
0.0
 10
169.050642093
 20
301.9750448586
 30
0.0
 10
169.4919765839
 20
302.1230359021
 30
0.0
 10
169.732169837
 20
302.2250366727
 30
0.0
 10
169.8219006964
 20
302.2784702428
 30
0.0
  0
SPLINE
  5
2B0
100
AcDbEntity
  8
_1
100
AcDbSpline
 62
7
  6
CONTINUOUS
 70
0
 71
3
 72
13
 73
9
 74
0
 42
0.0000001
 43
0.0000001
 44
0.0000000001
 40
0.0
 40
0.0
 40
0.0
 40
0.0
 40
0.3408008882
 40
0.6427586588
 40
0.7680452581
 40
0.871101261
 40
0.949075968
 40
1.0
 40
1.0
 40
1.0
 40
1.0
 10
165.7984950983
 20
301.7397517806
 30
0.0
 10
166.0199285911
 20
301.7141563056
 30
0.0
 10
166.4381492168
 20
301.6709832575
 30
0.0
 10
166.9391856248
 20
301.6327391443
 30
0.0
 10
167.2856776462
 20
301.6172745438
 30
0.0
 10
167.4861357997
 20
301.6137991002
 30
0.0
 10
167.6376359594
 20
301.618217384
 30
0.0
 10
167.7220308137
 20
301.626306545
 30
0.0
 10
167.7544115584
 20
301.6341106914
 30
0.0
  0
SPLINE
  5
2B1
100
AcDbEntity
  8
_1
100
AcDbSpline
 62
7
  6
CONTINUOUS
 70
0
 71
3
 72
9
 73
5
 74
0
 42
0.0000001
 43
0.0000001
 44
0.0000000001
 40
0.0
 40
0.0
 40
0.0
 40
0.0
 40
0.4779691711
 40
1.0
 40
1.0
 40
1.0
 40
1.0
 10
145.0338969458
 20
303.4751986466
 30
0.0
 10
145.7807739131
 20
303.4698605642
 30
0.0
 10
147.343148816
 20
303.4239291683
 30
0.0
 10
148.9031940357
 20
303.3299699646
 30
0.0
 10
149.7166764354
 20
303.2692045872
 30
0.0
  0
SPLINE
  5
2B2
100
AcDbEntity
  8
_1
100
AcDbSpline
 62
7
  6
CONTINUOUS
 70
0
 71
3
 72
11
 73
7
 74
0
 42
0.0000001
 43
0.0000001
 44
0.0000000001
 40
0.0
 40
0.0
 40
0.0
 40
0.0
 40
0.148048689
 40
0.3469251474
 40
0.62722871
 40
1.0
 40
1.0
 40
1.0
 40
1.0
 10
170.016952381
 20
302.533732374
 30
0.0
 10
170.0003916139
 20
302.5358188345
 30
0.0
 10
169.9596513716
 20
302.5238792382
 30
0.0
 10
169.9114063797
 20
302.470096078
 30
0.0
 10
169.8638491002
 20
302.3864947645
 30
0.0
 10
169.8362898318
 20
302.3179582169
 30
0.0
 10
169.8219006964
 20
302.2784702428
 30
0.0
  0
ELLIPSE
  5
2B3
100
AcDbEntity
  8
_1
100
AcDbEllipse
 62
7
  6
CONTINUOUS
 10
133.616952381
 20
114.2592914255
 30
0.0
 11
0.0
 21
-160.6319854394
 31
0.0
 40
0.0871557427
 41
2.7140339507
 42
3.1415926536
  0
ELLIPSE
  5
2B4
100
AcDbEntity
  8
_1
100
AcDbEllipse
 62
7
  6
CONTINUOUS
 10
133.616952381
 20
114.2592914255
 30
0.0
 11
-0.0
 21
160.6319854394
 31
0.0
 40
0.0871557427
 41
0.0
 42
0.4275587029
  0
ELLIPSE
  5
2B5
100
AcDbEntity
  8
_1
100
AcDbEllipse
 62
7
  6
CONTINUOUS
 10
265.2286966697
 20
238.6710357143
 30
0.0
 11
160.6319854394
 21
0.0
 31
0.0
 40
0.0871557427
 41
2.7140339507
 42
3.5691513565
  0
ENDSEC
  0
SECTION
  2
OBJECTS
  0
DICTIONARY
  5
C
100
AcDbDictionary
280
0
281
1
  3
ACAD_GROUP
350
D
  3
ACAD_MLINESTYLE
350
17
  3
ACAD_LAYOUT
350
1A
  3
ACAD_PLOTSETTINGS
350
19
  3
ACAD_PLOTSTYLENAME
350
E
  0
DICTIONARY
  5
D
102
{ACAD_REACTORS
330
C
102
}
100
AcDbDictionary
280
0
281
1
  0
ACDBDICTIONARYWDFLT
  5
E
102
{ACAD_REACTORS
330
C
102
}
100
AcDbDictionary
281
1
  3
Normal
350
F
100
AcDbDictionaryWithDefault
340
F
  0
DICTIONARY
  5
17
102
{ACAD_REACTORS
330
C
102
}
100
AcDbDictionary
280
0
281
1
  3
Standard
350
18
  0
DICTIONARY
  5
19
102
{ACAD_REACTORS
330
C
102
}
100
AcDbDictionary
281
1
  0
DICTIONARY
  5
1A
102
{ACAD_REACTORS
330
C
102
}
100
AcDbDictionary
281
1
  3
Model
350
2B6
  3
Layout1
350
2B7
  0
ACDBPLACEHOLDER
  5
F
102
{ACAD_REACTORS
330
E
102
}
  0
MLINESTYLE
  5
18
102
{ACAD_REACTORS
330
17
102
}
100
AcDbMlineStyle
  2
STANDARD
 70
0
  3

 62
256
 51
90.0
 52
90.0
 71
2
 49
0.5
 62
256
  6
BYLAYER
 49
-0.5
 62
256
  6
BYLAYER
  0
LAYOUT
  5
2B6
102
{ACAD_REACTORS
330
1A
102
}
100
AcDbPlotSettings
  1

  2
none_device
  4

  6

 40
0.0
 41
0.0
 42
0.0
 43
0.0
 44
210.0
 45
297.0
 46
0.0
 47
0.0
 48
0.0
 49
0.0
140
0.0
141
0.0
142
1.0
143
1.0
 70
1024
 72
1
 73
0
 74
0
  7

 75
0
147
1.0
148
0.0
149
0.0
100
AcDbLayout
  1
Model
 70
0
 71
0
 10
0.0
 20
0.0
 11
210.0
 21
297.0
 12
0.0
 22
0.0
 32
0.0
 14
0.0
 24
0.0
 34
0.0
 15
0.0
 25
0.0
 35
0.0
146
0.0
 13
0.0
 23
0.0
 33
0.0
 16
1.0
 26
0.0
 36
0.0
 17
0.0
 27
1.0
 37
0.0
 76
0
330
211
345
0
346
0
  0
LAYOUT
  5
2B7
102
{ACAD_REACTORS
330
1A
102
}
100
AcDbPlotSettings
  1

  2
none_device
  4

  6

 40
0.0
 41
0.0
 42
0.0
 43
0.0
 44
210.0
 45
297.0
 46
0.0
 47
0.0
 48
0.0
 49
0.0
140
0.0
141
0.0
142
1.0
143
1.0
 70
0
 72
1
 73
0
 74
0
  7

 75
0
147
1.0
148
0.0
149
0.0
100
AcDbLayout
  1
Layout1
 70
0
 71
1
 10
0.0
 20
0.0
 11
210.0
 21
297.0
 12
0.0
 22
0.0
 32
0.0
 14
0.0
 24
0.0
 34
0.0
 15
0.0
 25
0.0
 35
0.0
146
0.0
 13
0.0
 23
0.0
 33
0.0
 16
1.0
 26
0.0
 36
0.0
 17
0.0
 27
1.0
 37
0.0
 76
0
330
212
345
0
346
0
  0
ENDSEC
  0
EOF
