999
DXF file: C:\Users\sesa63760\Dev\_Creo\CAD\MCADID0000974_3D-CAD\drw0001_2.dxf
999
Pro/ENGINEER 2019471 by Parametric Technology Corporation
  0
SECTION
  2
HEADER
  9
$ACADVER
  1
AC1024
  9
$DWGCODEPAGE
  3
ANSI_1252
  9
$EXTMAX
 10
336.980943265
 20
476.5873340462
 30
0.0
  9
$EXTMIN
 10
0.0
 20
0.0
 30
0.0
  9
$LIMMIN
 10
0.0
 20
0.0
  9
$LIMMAX
 10
336.980943265
 20
476.5873340462
  9
$VIEWCTR
 10
168.4904716325
 20
238.2936670231
  9
$VIEWSIZE
 40
476.5873340462
  9
$CLAYER
  8
0
  9
$LTSCALE
 40
31.0664336267
  9
$CELTYPE
  6
BYLAYER
  9
$DIMSCALE
 40
1.0
  9
$DIMASZ
 40
4.011677896
  9
$DIMEXO
 40
1.0
  9
$DIMDLI
 40
21.4640814148
  9
$DIMEXE
 40
1.0
  9
$DIMCEN
 40
5.0835982298
  9
$DIMLFAC
 40
1.0
  9
$DIMBLK
  1
_FILLED
  9
$DIMALT
 70
0
  9
$DIMALTF
 40
0.0393700787
  9
$DIMTXT
 40
5.6163490544
  9
$DIMTOL
 70
1
  9
$DIMLIM
 70
0
  9
$DIMTFAC
 40
1.0
  9
$DIMTP
 40
0.01
  9
$DIMTM
 40
0.01
  9
$DIMGAP
 40
0.625
  9
$DIMDSEP
 70
46
  9
$AUNITS
 70
0
  9
$PDMODE
 70
3
  9
$PDSIZE
 40
0.3125
  9
$HANDSEED
  5
2CC
  9
$TILEMODE
 70
1
  9
$MEASUREMENT
 70
1
  9
$INSUNITS
 70
4
  0
ENDSEC
  0
SECTION
  2
CLASSES
  0
CLASS
  1
ACDBDICTIONARYWDFLT
  2
AcDbDictionaryWithDefault
  3
AutoCAD 2000
 90
0
 91
1
280
0
281
0
  0
CLASS
  1
ACDBPLACEHOLDER
  2
AcDbPlaceHolder
  3
AutoCAD 2000
 90
0
 91
1
280
0
281
0
  0
CLASS
  1
LAYOUT
  2
AcDbLayout
  3
AutoCAD 2000
 90
0
 91
0
280
0
281
0
  0
ENDSEC
  0
SECTION
  2
TABLES
  0
TABLE
  2
VPORT
  5
8
100
AcDbSymbolTable
 70
2
  0
VPORT
  5
1F4
100
AcDbSymbolTableRecord
100
AcDbViewportTableRecord
  2
*ACTIVE
 70
0
 10
0.0
 20
0.0
 11
1.0
 21
1.0
 12
168.4904716325
 22
238.2936670231
 13
0.0
 23
0.0
 14
1.0
 24
1.0
 15
0.0
 25
0.0
 16
0.0
 26
0.0
 36
1.0
 17
0.0
 27
0.0
 37
0.0
 40
476.5873340462
 41
0.7070707071
 42
50.0
 43
0.0
 44
0.0
 50
0.0
 51
0.0
 71
0
 72
100
 73
1
 74
1
 75
0
 76
0
 77
0
 78
0
  0
ENDTAB
  0
TABLE
  2
LTYPE
  5
5
100
AcDbSymbolTable
 70
6
  0
LTYPE
  5
14
100
AcDbSymbolTableRecord
100
AcDbLinetypeTableRecord
  2
BYBLOCK
 70
0
  3

 72
65
 73
0
 40
0.0
  0
LTYPE
  5
15
100
AcDbSymbolTableRecord
100
AcDbLinetypeTableRecord
  2
BYLAYER
 70
0
  3

 72
65
 73
0
 40
0.0
  0
LTYPE
  5
16
100
AcDbSymbolTableRecord
100
AcDbLinetypeTableRecord
  2
CONTINUOUS
 70
64
  3
Solid line
 72
65
 73
0
 40
0.0
  0
LTYPE
  5
1F5
100
AcDbSymbolTableRecord
100
AcDbLinetypeTableRecord
  2
CENTER
 70
64
  3
____ _ ____ _ ____ _ ____ _ ____ _ ____ _ ____
 72
65
 73
4
 40
0.6
 49
0.375
 74
0
 49
-0.075
 74
0
 49
0.075
 74
0
 49
-0.075
 74
0
  0
LTYPE
  5
1F6
100
AcDbSymbolTableRecord
100
AcDbLinetypeTableRecord
  2
HIDDEN
 70
64
  3
- - - - - - - - - - - - - - - - - - - -
 72
65
 73
2
 40
0.2
 49
0.1
 74
0
 49
-0.1
 74
0
  0
LTYPE
  5
1F7
100
AcDbSymbolTableRecord
100
AcDbLinetypeTableRecord
  2
PHANTOM
 70
64
  3
_____ _ _ _____ _ _ _____ _ _ _____
 72
65
 73
6
 40
0.8
 49
0.45
 74
0
 49
-0.05
 74
0
 49
0.1
 74
0
 49
-0.05
 74
0
 49
0.1
 74
0
 49
-0.05
 74
0
  0
LTYPE
  5
1F8
100
AcDbSymbolTableRecord
100
AcDbLinetypeTableRecord
  2
DOT
 70
64
  3
. . . . . . . . . . . . . . . . . . . .
 72
65
 73
2
 40
0.2
 49
0.1
 74
0
 49
-0.1
 74
0
  0
LTYPE
  5
1F9
100
AcDbSymbolTableRecord
100
AcDbLinetypeTableRecord
  2
DASHED
 70
64
  3
- - - - - - - - - - - - - - - - - - - -
 72
65
 73
2
 40
0.2
 49
0.1
 74
0
 49
-0.1
 74
0
  0
ENDTAB
  0
TABLE
  2
LAYER
  5
2
100
AcDbSymbolTable
 70
36
  0
LAYER
  5
10
100
AcDbSymbolTableRecord
100
AcDbLayerTableRecord
  2
0
 70
0
 62
7
  6
CONTINUOUS
370
-3
390
F
  0
LAYER
  5
1FA
100
AcDbSymbolTableRecord
100
AcDbLayerTableRecord
  2
DEFAULT_1
 70
0
 62
7
  6
CENTER
370
-3
390
F
  0
LAYER
  5
1FB
100
AcDbSymbolTableRecord
100
AcDbLayerTableRecord
  2
DEFAULT_2
 70
0
 62
8
  6
HIDDEN
370
-3
390
F
  0
LAYER
  5
1FC
100
AcDbSymbolTableRecord
100
AcDbLayerTableRecord
  2
DEFAULT_3
 70
0
 62
7
  6
PHANTOM
370
-3
390
F
  0
LAYER
  5
1FD
100
AcDbSymbolTableRecord
100
AcDbLayerTableRecord
  2
00_COMPONENTS
 70
0
 62
7
  6
CONTINUOUS
370
-3
390
F
  0
LAYER
  5
1FE
100
AcDbSymbolTableRecord
100
AcDbLayerTableRecord
  2
01_1_DEFAULT_DATUMS
 70
0
 62
7
  6
CONTINUOUS
370
-3
390
F
  0
LAYER
  5
1FF
100
AcDbSymbolTableRecord
100
AcDbLayerTableRecord
  2
01_PLANES
 70
0
 62
7
  6
CONTINUOUS
370
-3
390
F
  0
LAYER
  5
200
100
AcDbSymbolTableRecord
100
AcDbLayerTableRecord
  2
02_COORD_SYS
 70
0
 62
7
  6
CONTINUOUS
370
-3
390
F
  0
LAYER
  5
201
100
AcDbSymbolTableRecord
100
AcDbLayerTableRecord
  2
03_AXES
 70
0
 62
7
  6
CONTINUOUS
370
-3
390
F
  0
LAYER
  5
202
100
AcDbSymbolTableRecord
100
AcDbLayerTableRecord
  2
04_POINTS
 70
0
 62
7
  6
CONTINUOUS
370
-3
390
F
  0
LAYER
  5
203
100
AcDbSymbolTableRecord
100
AcDbLayerTableRecord
  2
05_CURVES
 70
0
 62
7
  6
CONTINUOUS
370
-3
390
F
  0
LAYER
  5
204
100
AcDbSymbolTableRecord
100
AcDbLayerTableRecord
  2
06_SURFS
 70
0
 62
7
  6
CONTINUOUS
370
-3
390
F
  0
LAYER
  5
205
100
AcDbSymbolTableRecord
100
AcDbLayerTableRecord
  2
07_COSMETICS
 70
0
 62
7
  6
CONTINUOUS
370
-3
390
F
  0
LAYER
  5
206
100
AcDbSymbolTableRecord
100
AcDbLayerTableRecord
  2
10_NOTES
 70
0
 62
7
  6
CONTINUOUS
370
-3
390
F
  0
LAYER
  5
207
100
AcDbSymbolTableRecord
100
AcDbLayerTableRecord
  2
11_NOTES_PUB
 70
0
 62
7
  6
CONTINUOUS
370
-3
390
F
  0
LAYER
  5
208
100
AcDbSymbolTableRecord
100
AcDbLayerTableRecord
  2
13_REF_GTOL
 70
0
 62
7
  6
CONTINUOUS
370
-3
390
F
  0
LAYER
  5
209
100
AcDbSymbolTableRecord
100
AcDbLayerTableRecord
  2
16_MISC
 70
0
 62
7
  6
CONTINUOUS
370
-3
390
F
  0
LAYER
  5
20A
100
AcDbSymbolTableRecord
100
AcDbLayerTableRecord
  2
17_NO_PRINT
 70
0
 62
7
  6
CONTINUOUS
370
-3
390
F
  0
LAYER
  5
20B
100
AcDbSymbolTableRecord
100
AcDbLayerTableRecord
  2
18_DATUM_CAMS_JOINTS
 70
0
 62
7
  6
CONTINUOUS
370
-3
390
F
  0
LAYER
  5
20C
100
AcDbSymbolTableRecord
100
AcDbLayerTableRecord
  2
19_DATUM_FUNCTIONAL
 70
0
 62
7
  6
CONTINUOUS
370
-3
390
F
  0
LAYER
  5
20D
100
AcDbSymbolTableRecord
100
AcDbLayerTableRecord
  2
20_DATUM_KINEMATIC_SCHEME
 70
0
 62
7
  6
CONTINUOUS
370
-3
390
F
  0
ENDTAB
  0
TABLE
  2
STYLE
  5
3
100
AcDbSymbolTable
 70
1
  0
STYLE
  5
11
100
AcDbSymbolTableRecord
100
AcDbTextStyleTableRecord
  2
STANDARD
 70
0
 40
0.0
 41
0.8
 50
0.0
 71
0
 42
0.2
  3
txt
  4

  0
STYLE
  5
20E
100
AcDbSymbolTableRecord
100
AcDbTextStyleTableRecord
  2
TEXTSTYLE_1
 70
0
 40
0.0
 41
0.8
 50
0.0
 71
0
 42
0.2
  3
gdt
  4

  0
ENDTAB
  0
TABLE
  2
VIEW
  5
6
100
AcDbSymbolTable
 70
0
  0
ENDTAB
  0
TABLE
  2
UCS
  5
7
100
AcDbSymbolTable
 70
0
  0
ENDTAB
  0
TABLE
  2
APPID
  5
9
100
AcDbSymbolTable
 70
1
  0
APPID
  5
20F
100
AcDbSymbolTableRecord
100
AcDbRegAppTableRecord
  2
ACAD
 70
0
  0
ENDTAB
  0
TABLE
  2
BLOCK_RECORD
  5
1
100
AcDbSymbolTable
 70
0
  0
BLOCK_RECORD
  5
210
100
AcDbSymbolTableRecord
100
AcDbBlockTableRecord
  2
*Model_Space
  0
BLOCK_RECORD
  5
211
100
AcDbSymbolTableRecord
100
AcDbBlockTableRecord
  2
*Paper_Space
  0
BLOCK_RECORD
  5
212
100
AcDbSymbolTableRecord
100
AcDbBlockTableRecord
  2
_FILLED
  0
ENDTAB
  0
TABLE
  2
DIMSTYLE
  5
A
100
AcDbSymbolTable
 70
1
100
AcDbDimStyleTable
 71
0
  0
DIMSTYLE
105
213
100
AcDbSymbolTableRecord
100
AcDbDimStyleTableRecord
  2
STANDARD
 70
0
  3

  4

 40
1.0
 41
4.011677896
 42
1.0
 43
0.38
 44
1.0
 45
0.0
 46
0.0
 47
0.01
 48
0.01
140
5.6163490544
141
0.09
142
0.0
143
25.4
144
1.0
145
0.0
146
1.0
147
0.625
 71
1
 72
0
 73
0
 74
0
 75
0
 76
0
 77
1
 78
8
 79
2
170
0
171
1
172
0
173
0
174
0
175
0
176
0
177
0
178
0
270
2
179
2
271
2
272
2
273
2
274
2
275
0
280
0
281
0
282
0
283
1
284
8
285
0
286
0
287
3
288
0
340
11
278
46
341
212
342
212
343
212
344
212
  0
ENDTAB
  0
ENDSEC
  0
SECTION
  2
BLOCKS
  0
BLOCK
  5
20
100
AcDbEntity
  8
0
100
AcDbBlockBegin
  2
*Model_Space
 70
0
 10
0.0
 20
0.0
 30
0.0
  3
*Model_Space
  1

  0
ENDBLK
  5
21
100
AcDbEntity
  8
0
100
AcDbBlockEnd
  0
BLOCK
  5
1C
100
AcDbEntity
  8
0
100
AcDbBlockBegin
  2
*Paper_Space
 70
0
 10
0.0
 20
0.0
 30
0.0
  3
*Paper_Space
  1

  0
ENDBLK
  5
1D
100
AcDbEntity
  8
0
100
AcDbBlockEnd
  0
BLOCK
  5
214
100
AcDbEntity
  8
0
100
AcDbBlockBegin
  2
_FILLED
 70
64
 10
0.0
 20
0.0
  3
_FILLED
  1

  0
SOLID
  5
215
100
AcDbEntity
  8
0
  6
BYBLOCK
 62
0
100
AcDbTrace
 10
0.0
 20
0.0
 11
-1.0
 21
0.25
 12
-1.0
 22
-0.25
 13
-1.0
 23
-0.25
  0
ENDBLK
  5
216
100
AcDbEntity
  8
0
  6
BYBLOCK
 62
0
100
AcDbBlockEnd
  0
ENDSEC
  0
SECTION
  2
ENTITIES
  0
LINE
  5
217
100
AcDbEntity
  8
0
100
AcDbLine
 62
7
  6
CONTINUOUS
 10
227.585924553
 20
31.7919335441
 11
199.0617245532
 21
31.7919335441
  0
LINE
  5
218
100
AcDbEntity
  8
0
100
AcDbLine
 62
7
  6
CONTINUOUS
 10
196.9363245531
 20
31.7919335441
 11
174.7113245531
 21
31.7919335441
  0
LINE
  5
219
100
AcDbEntity
  8
0
100
AcDbLine
 62
7
  6
CONTINUOUS
 10
166.9363245531
 20
31.7919335441
 11
144.7113245531
 21
31.7919335441
  0
LINE
  5
21A
100
AcDbEntity
  8
0
100
AcDbLine
 62
7
  6
CONTINUOUS
 10
142.5859245531
 20
31.7919335441
 11
114.0617245531
 21
31.7919335441
  0
LINE
  5
21B
100
AcDbEntity
  8
0
100
AcDbLine
 62
7
  6
CONTINUOUS
 10
199.0617245532
 20
36.7219335441
 11
196.9363245531
 21
36.7219335441
  0
LINE
  5
21C
100
AcDbEntity
  8
0
100
AcDbLine
 62
7
  6
CONTINUOUS
 10
174.7113245531
 20
36.7219335441
 11
166.9363245531
 21
36.7219335441
  0
LINE
  5
21D
100
AcDbEntity
  8
0
100
AcDbLine
 62
7
  6
CONTINUOUS
 10
144.7113245531
 20
36.7219335441
 11
142.5859245531
 21
36.7219335441
  0
LINE
  5
21E
100
AcDbEntity
  8
0
100
AcDbLine
 62
7
  6
CONTINUOUS
 10
103.3238245531
 20
36.7219335441
 11
114.0617245531
 21
36.7219335441
  0
LINE
  5
21F
100
AcDbEntity
  8
0
100
AcDbLine
 62
7
  6
CONTINUOUS
 10
227.585924553
 20
36.7219335441
 11
238.3238245531
 21
36.7219335441
  0
LINE
  5
220
100
AcDbEntity
  8
0
100
AcDbLine
 62
7
  6
CONTINUOUS
 10
199.0617245532
 20
38.4570148001
 11
196.9363245531
 21
38.4570148001
  0
LINE
  5
221
100
AcDbEntity
  8
0
100
AcDbLine
 62
7
  6
CONTINUOUS
 10
174.7113245531
 20
38.4570148001
 11
166.9363245531
 21
38.4570148001
  0
LINE
  5
222
100
AcDbEntity
  8
0
100
AcDbLine
 62
7
  6
CONTINUOUS
 10
144.7113245531
 20
38.4570148001
 11
142.5859245531
 21
38.4570148001
  0
LINE
  5
223
100
AcDbEntity
  8
0
100
AcDbLine
 62
7
  6
CONTINUOUS
 10
103.9757193752
 20
38.4570148001
 11
114.0617245531
 21
38.4570148001
  0
LINE
  5
224
100
AcDbEntity
  8
0
100
AcDbLine
 62
7
  6
CONTINUOUS
 10
227.585924553
 20
38.4570148001
 11
237.3005309282
 21
38.4570148001
  0
LINE
  5
225
100
AcDbEntity
  8
0
100
AcDbLine
 62
7
  6
CONTINUOUS
 10
111.5281180187
 20
39.2329335441
 11
168.8554119385
 21
39.2329335441
  0
LINE
  5
226
100
AcDbEntity
  8
0
100
AcDbLine
 62
7
  6
CONTINUOUS
 10
172.7922371679
 20
39.2329335441
 11
230.1195745531
 21
39.2329335441
  0
LINE
  5
227
100
AcDbEntity
  8
0
100
AcDbLine
 62
7
  6
CONTINUOUS
 10
103.3238245531
 20
41.7219335441
 11
238.3238245531
 21
41.7219335441
  0
LINE
  5
228
100
AcDbEntity
  8
0
100
AcDbLine
 62
7
  6
CONTINUOUS
 10
98.3238245531
 20
44.2219335441
 11
243.3238245531
 21
44.2219335441
  0
LINE
  5
229
100
AcDbEntity
  8
0
100
AcDbLine
 62
7
  6
CONTINUOUS
 10
228.3238245531
 20
83.2219335441
 11
113.3238245531
 21
83.2219335441
  0
LINE
  5
22A
100
AcDbEntity
  8
0
100
AcDbLine
 62
7
  6
CONTINUOUS
 10
243.3238245531
 20
86.2219335441
 11
231.8238245531
 21
86.2219335441
  0
LINE
  5
22B
100
AcDbEntity
  8
0
100
AcDbLine
 62
7
  6
CONTINUOUS
 10
109.8238245531
 20
86.2219335441
 11
98.3238245531
 21
86.2219335441
  0
LINE
  5
22C
100
AcDbEntity
  8
0
100
AcDbLine
 62
7
  6
CONTINUOUS
 10
98.3238245531
 20
87.7219335441
 11
109.8238245531
 21
87.7219335441
  0
LINE
  5
22D
100
AcDbEntity
  8
0
100
AcDbLine
 62
7
  6
CONTINUOUS
 10
231.8238245531
 20
87.7219335441
 11
243.3238245531
 21
87.7219335441
  0
LINE
  5
22E
100
AcDbEntity
  8
0
100
AcDbLine
 62
7
  6
CONTINUOUS
 10
241.3238245531
 20
88.2219335431
 11
236.3238245531
 21
88.2219335431
  0
LINE
  5
22F
100
AcDbEntity
  8
0
100
AcDbLine
 62
7
  6
CONTINUOUS
 10
230.3238245531
 20
88.2219335431
 11
111.3238245531
 21
88.2219335431
  0
LINE
  5
230
100
AcDbEntity
  8
0
100
AcDbLine
 62
7
  6
CONTINUOUS
 10
105.3238245531
 20
88.2219335431
 11
100.3238245531
 21
88.2219335431
  0
LINE
  5
231
100
AcDbEntity
  8
0
100
AcDbLine
 62
7
  6
CONTINUOUS
 10
234.6328956215
 20
98.7219335441
 11
232.0104283336
 21
98.7219335441
  0
LINE
  5
232
100
AcDbEntity
  8
0
100
AcDbLine
 62
7
  6
CONTINUOUS
 10
109.6328956215
 20
98.7219335441
 11
107.0104283336
 21
98.7219335441
  0
LINE
  5
233
100
AcDbEntity
  8
0
100
AcDbLine
 62
7
  6
CONTINUOUS
 10
246.3238245531
 20
99.2219335441
 11
243.3238245531
 21
99.2219335441
  0
LINE
  5
234
100
AcDbEntity
  8
0
100
AcDbLine
 62
7
  6
CONTINUOUS
 10
98.3238245531
 20
99.2219335441
 11
95.3238245531
 21
99.2219335441
  0
LINE
  5
235
100
AcDbEntity
  8
0
100
AcDbLine
 62
7
  6
CONTINUOUS
 10
84.7319333332
 20
391.7254006601
 11
84.3205964215
 21
383.8766248241
  0
LINE
  5
236
100
AcDbEntity
  8
0
100
AcDbLine
 62
7
  6
CONTINUOUS
 10
85.3318691636
 20
402.1851341061
 11
84.7827767729
 21
391.7082578531
  0
LINE
  5
237
100
AcDbEntity
  8
0
100
AcDbLine
 62
7
  6
CONTINUOUS
 10
90.9288466056
 20
385.641471393
 11
91.8278601044
 21
402.7956708446
  0
LINE
  5
238
100
AcDbEntity
  8
0
100
AcDbLine
 62
7
  6
CONTINUOUS
 10
93.2555078709
 20
115.8954227871
 11
93.2555066156
 21
124.7988722191
  0
LINE
  5
239
100
AcDbEntity
  8
0
100
AcDbLine
 62
7
  6
CONTINUOUS
 10
93.3238245531
 20
441.7219335441
 11
93.3238245531
 21
414.8739014893
  0
LINE
  5
23A
100
AcDbEntity
  8
0
100
AcDbLine
 62
7
  6
CONTINUOUS
 10
93.3238245531
 20
46.7219335441
 11
93.3238245531
 21
407.5378336902
  0
LINE
  5
23B
100
AcDbEntity
  8
0
100
AcDbLine
 62
7
  6
CONTINUOUS
 10
97.1056362412
 20
45.3270979354
 11
97.1056362412
 21
99.2219335441
  0
LINE
  5
23C
100
AcDbEntity
  8
0
100
AcDbLine
 62
7
  6
CONTINUOUS
 10
98.3238245531
 20
44.2219335441
 11
98.3238245531
 21
89.7219335441
  0
LINE
  5
23D
100
AcDbEntity
  8
0
100
AcDbLine
 62
7
  6
CONTINUOUS
 10
98.3238245531
 20
90.2219335441
 11
98.3238245531
 21
426.2219335441
  0
LINE
  5
23E
100
AcDbEntity
  8
0
100
AcDbLine
 62
7
  6
CONTINUOUS
 10
107.9737636168
 20
437.3187692804
 11
107.4970186573
 21
428.2219335441
  0
LINE
  5
23F
100
AcDbEntity
  8
0
100
AcDbLine
 62
7
  6
CONTINUOUS
 10
107.2149843863
 20
422.8403990669
 11
106.9272688311
 21
417.3504592319
  0
LINE
  5
240
100
AcDbEntity
  8
0
100
AcDbLine
 62
7
  6
CONTINUOUS
 10
103.3238245531
 20
41.7219335441
 11
103.3238245531
 21
44.2219335441
  0
LINE
  5
241
100
AcDbEntity
  8
0
100
AcDbLine
 62
7
  6
CONTINUOUS
 10
105.3238245531
 20
96.2219335441
 11
105.3238245531
 21
88.2219335431
  0
LINE
  5
242
100
AcDbEntity
  8
0
100
AcDbLine
 62
7
  6
CONTINUOUS
 10
105.3238245531
 20
415.8317057727
 11
105.3238245531
 21
420.2219335441
  0
LINE
  5
243
100
AcDbEntity
  8
0
100
AcDbLine
 62
7
  6
CONTINUOUS
 10
109.3238245531
 20
38.4570148001
 11
109.3238245531
 21
36.7219335441
  0
LINE
  5
244
100
AcDbEntity
  8
0
100
AcDbLine
 62
7
  6
CONTINUOUS
 10
109.8238245531
 20
87.7219335441
 11
109.8238245531
 21
86.2219335441
  0
LINE
  5
245
100
AcDbEntity
  8
0
100
AcDbLine
 62
7
  6
CONTINUOUS
 10
111.3238245531
 20
420.2219335441
 11
111.3238245531
 21
415.8317057727
  0
LINE
  5
246
100
AcDbEntity
  8
0
100
AcDbLine
 62
7
  6
CONTINUOUS
 10
111.3238245531
 20
85.2219335441
 11
111.3238245531
 21
96.2219335441
  0
LINE
  5
247
100
AcDbEntity
  8
0
100
AcDbLine
 62
7
  6
CONTINUOUS
 10
111.5280745531
 20
39.2329335441
 11
111.5280745531
 21
41.7219335441
  0
LINE
  5
248
100
AcDbEntity
  8
0
100
AcDbLine
 62
7
  6
CONTINUOUS
 10
111.7212458965
 20
39.2329335441
 11
111.7212458965
 21
41.7219335441
  0
LINE
  5
249
100
AcDbEntity
  8
0
100
AcDbLine
 62
7
  6
CONTINUOUS
 10
113.2647824832
 20
41.7219335441
 11
113.2647824832
 21
39.2329335441
  0
LINE
  5
24A
100
AcDbEntity
  8
0
100
AcDbLine
 62
7
  6
CONTINUOUS
 10
114.0617245531
 20
31.7919335441
 11
114.0617245531
 21
39.2329335441
  0
LINE
  5
24B
100
AcDbEntity
  8
0
100
AcDbLine
 62
7
  6
CONTINUOUS
 10
114.7879773756
 20
41.7219335441
 11
114.7879773756
 21
39.2329335441
  0
LINE
  5
24C
100
AcDbEntity
  8
0
100
AcDbLine
 62
7
  6
CONTINUOUS
 10
118.3800798246
 20
39.2329335441
 11
118.3800798246
 21
41.7219335441
  0
LINE
  5
24D
100
AcDbEntity
  8
0
100
AcDbLine
 62
7
  6
CONTINUOUS
 10
119.4715250118
 20
41.7219335441
 11
119.4715250118
 21
39.2329335441
  0
LINE
  5
24E
100
AcDbEntity
  8
0
100
AcDbLine
 62
7
  6
CONTINUOUS
 10
125.7838245531
 20
41.7219335441
 11
125.7838245531
 21
39.2329335441
  0
LINE
  5
24F
100
AcDbEntity
  8
0
100
AcDbLine
 62
7
  6
CONTINUOUS
 10
130.8638245532
 20
39.2329335441
 11
130.8638245532
 21
41.7219335441
  0
LINE
  5
250
100
AcDbEntity
  8
0
100
AcDbLine
 62
7
  6
CONTINUOUS
 10
137.1761240947
 20
39.2329335441
 11
137.1761240947
 21
41.7219335441
  0
LINE
  5
251
100
AcDbEntity
  8
0
100
AcDbLine
 62
7
  6
CONTINUOUS
 10
138.2675692824
 20
41.7219335441
 11
138.2675692824
 21
39.2329335441
  0
LINE
  5
252
100
AcDbEntity
  8
0
100
AcDbLine
 62
7
  6
CONTINUOUS
 10
141.8596717304
 20
39.2329335441
 11
141.8596717304
 21
41.7219335441
  0
LINE
  5
253
100
AcDbEntity
  8
0
100
AcDbLine
 62
7
  6
CONTINUOUS
 10
142.5859245531
 20
31.7919335441
 11
142.5859245531
 21
39.2329335441
  0
LINE
  5
254
100
AcDbEntity
  8
0
100
AcDbLine
 62
7
  6
CONTINUOUS
 10
143.3828666234
 20
39.2329335441
 11
143.3828666234
 21
41.7219335441
  0
LINE
  5
255
100
AcDbEntity
  8
0
100
AcDbLine
 62
7
  6
CONTINUOUS
 10
144.7113245531
 20
31.7919335441
 11
144.7113245531
 21
39.2329335441
  0
LINE
  5
256
100
AcDbEntity
  8
0
100
AcDbLine
 62
7
  6
CONTINUOUS
 10
144.9264032101
 20
41.7219335441
 11
144.9264032101
 21
39.2329335441
  0
LINE
  5
257
100
AcDbEntity
  8
0
100
AcDbLine
 62
7
  6
CONTINUOUS
 10
145.1195745531
 20
39.2329335441
 11
145.1195745531
 21
41.7219335441
  0
LINE
  5
258
100
AcDbEntity
  8
0
100
AcDbLine
 62
7
  6
CONTINUOUS
 10
145.1671371678
 20
39.2329335441
 11
145.1671371678
 21
41.7219335441
  0
LINE
  5
259
100
AcDbEntity
  8
0
100
AcDbLine
 62
7
  6
CONTINUOUS
 10
146.5652543438
 20
41.7219335441
 11
146.5652543438
 21
39.2329335441
  0
LINE
  5
25A
100
AcDbEntity
  8
0
100
AcDbLine
 62
7
  6
CONTINUOUS
 10
153.4489245531
 20
41.7219335441
 11
153.4489245531
 21
39.2329335441
  0
LINE
  5
25B
100
AcDbEntity
  8
0
100
AcDbLine
 62
7
  6
CONTINUOUS
 10
85.4976585484
 20
404.0852206181
 11
85.5335972043
 21
403.9979846121
  0
LINE
  5
25C
100
AcDbEntity
  8
0
100
AcDbLine
 62
7
  6
CONTINUOUS
 10
158.1987245532
 20
39.2329335441
 11
158.1987245532
 21
41.7219335441
  0
LINE
  5
25D
100
AcDbEntity
  8
0
100
AcDbLine
 62
7
  6
CONTINUOUS
 10
165.0823947617
 20
39.2329335441
 11
165.0823947617
 21
41.7219335441
  0
LINE
  5
25E
100
AcDbEntity
  8
0
100
AcDbLine
 62
7
  6
CONTINUOUS
 10
166.4805119381
 20
41.7219335441
 11
166.4805119381
 21
39.2329335441
  0
LINE
  5
25F
100
AcDbEntity
  8
0
100
AcDbLine
 62
7
  6
CONTINUOUS
 10
166.9363245531
 20
31.7919335441
 11
166.9363245531
 21
39.2329335441
  0
LINE
  5
260
100
AcDbEntity
  8
0
100
AcDbLine
 62
7
  6
CONTINUOUS
 10
168.8554119383
 20
39.2329335441
 11
168.8554119383
 21
41.7219335441
  0
LINE
  5
261
100
AcDbEntity
  8
0
100
AcDbLine
 62
7
  6
CONTINUOUS
 10
172.7922371681
 20
41.7219335441
 11
172.7922371681
 21
39.2329335441
  0
LINE
  5
262
100
AcDbEntity
  8
0
100
AcDbLine
 62
7
  6
CONTINUOUS
 10
174.7113245531
 20
31.7919335441
 11
174.7113245531
 21
39.2329335441
  0
LINE
  5
263
100
AcDbEntity
  8
0
100
AcDbLine
 62
7
  6
CONTINUOUS
 10
175.167137168
 20
39.2329335441
 11
175.167137168
 21
41.7219335441
  0
LINE
  5
264
100
AcDbEntity
  8
0
100
AcDbLine
 62
7
  6
CONTINUOUS
 10
176.5652543441
 20
41.7219335441
 11
176.5652543441
 21
39.2329335441
  0
LINE
  5
265
100
AcDbEntity
  8
0
100
AcDbLine
 62
7
  6
CONTINUOUS
 10
183.4489245531
 20
41.7219335441
 11
183.4489245531
 21
39.2329335441
  0
LINE
  5
266
100
AcDbEntity
  8
0
100
AcDbLine
 62
7
  6
CONTINUOUS
 10
188.1987245532
 20
39.2329335441
 11
188.1987245532
 21
41.7219335441
  0
LINE
  5
267
100
AcDbEntity
  8
0
100
AcDbLine
 62
7
  6
CONTINUOUS
 10
195.0823947619
 20
39.2329335441
 11
195.0823947619
 21
41.7219335441
  0
LINE
  5
268
100
AcDbEntity
  8
0
100
AcDbLine
 62
7
  6
CONTINUOUS
 10
196.4805119383
 20
41.7219335441
 11
196.4805119383
 21
39.2329335441
  0
LINE
  5
269
100
AcDbEntity
  8
0
100
AcDbLine
 62
7
  6
CONTINUOUS
 10
196.5280745531
 20
39.2329335441
 11
196.5280745531
 21
41.7219335441
  0
LINE
  5
26A
100
AcDbEntity
  8
0
100
AcDbLine
 62
7
  6
CONTINUOUS
 10
196.7212458965
 20
39.2329335441
 11
196.7212458965
 21
41.7219335441
  0
LINE
  5
26B
100
AcDbEntity
  8
0
100
AcDbLine
 62
7
  6
CONTINUOUS
 10
196.9363245531
 20
31.7919335441
 11
196.9363245531
 21
39.2329335441
  0
LINE
  5
26C
100
AcDbEntity
  8
0
100
AcDbLine
 62
7
  6
CONTINUOUS
 10
198.2647824832
 20
41.7219335441
 11
198.2647824832
 21
39.2329335441
  0
LINE
  5
26D
100
AcDbEntity
  8
0
100
AcDbLine
 62
7
  6
CONTINUOUS
 10
199.0617245532
 20
31.7919335441
 11
199.0617245532
 21
39.2329335441
  0
LINE
  5
26E
100
AcDbEntity
  8
0
100
AcDbLine
 62
7
  6
CONTINUOUS
 10
199.7879773756
 20
41.7219335441
 11
199.7879773756
 21
39.2329335441
  0
LINE
  5
26F
100
AcDbEntity
  8
0
100
AcDbLine
 62
7
  6
CONTINUOUS
 10
203.3800798246
 20
39.2329335441
 11
203.3800798246
 21
41.7219335441
  0
LINE
  5
270
100
AcDbEntity
  8
0
100
AcDbLine
 62
7
  6
CONTINUOUS
 10
204.4715250118
 20
41.7219335441
 11
204.4715250118
 21
39.2329335441
  0
LINE
  5
271
100
AcDbEntity
  8
0
100
AcDbLine
 62
7
  6
CONTINUOUS
 10
210.7838245531
 20
41.7219335441
 11
210.7838245531
 21
39.2329335441
  0
LINE
  5
272
100
AcDbEntity
  8
0
100
AcDbLine
 62
7
  6
CONTINUOUS
 10
215.8638245532
 20
39.2329335441
 11
215.8638245532
 21
41.7219335441
  0
LINE
  5
273
100
AcDbEntity
  8
0
100
AcDbLine
 62
7
  6
CONTINUOUS
 10
222.1761240947
 20
39.2329335441
 11
222.1761240947
 21
41.7219335441
  0
LINE
  5
274
100
AcDbEntity
  8
0
100
AcDbLine
 62
7
  6
CONTINUOUS
 10
223.2675692824
 20
41.7219335441
 11
223.2675692824
 21
39.2329335441
  0
LINE
  5
275
100
AcDbEntity
  8
0
100
AcDbLine
 62
7
  6
CONTINUOUS
 10
226.8596717305
 20
39.2329335441
 11
226.8596717305
 21
41.7219335441
  0
LINE
  5
276
100
AcDbEntity
  8
0
100
AcDbLine
 62
7
  6
CONTINUOUS
 10
227.585924553
 20
31.7919335441
 11
227.585924553
 21
39.2329335441
  0
LINE
  5
277
100
AcDbEntity
  8
0
100
AcDbLine
 62
7
  6
CONTINUOUS
 10
228.3828666234
 20
39.2329335441
 11
228.3828666234
 21
41.7219335441
  0
LINE
  5
278
100
AcDbEntity
  8
0
100
AcDbLine
 62
7
  6
CONTINUOUS
 10
229.9264032101
 20
41.7219335441
 11
229.9264032101
 21
39.2329335441
  0
LINE
  5
279
100
AcDbEntity
  8
0
100
AcDbLine
 62
7
  6
CONTINUOUS
 10
230.1195745531
 20
39.2329335441
 11
230.1195745531
 21
41.7219335441
  0
LINE
  5
27A
100
AcDbEntity
  8
0
100
AcDbLine
 62
7
  6
CONTINUOUS
 10
230.3238245531
 20
96.2219335441
 11
230.3238245531
 21
85.2219335441
  0
LINE
  5
27B
100
AcDbEntity
  8
0
100
AcDbLine
 62
7
  6
CONTINUOUS
 10
230.3238245531
 20
415.8317057728
 11
230.3238245531
 21
420.2219335441
  0
LINE
  5
27C
100
AcDbEntity
  8
0
100
AcDbLine
 62
7
  6
CONTINUOUS
 10
231.8238245531
 20
86.2219335441
 11
231.8238245531
 21
87.7219335441
  0
LINE
  5
27D
100
AcDbEntity
  8
0
100
AcDbLine
 62
7
  6
CONTINUOUS
 10
234.7203804001
 20
417.3504568461
 11
234.4328972582
 21
422.8359619741
  0
LINE
  5
27E
100
AcDbEntity
  8
0
100
AcDbLine
 62
7
  6
CONTINUOUS
 10
234.1506304489
 20
428.2219335441
 11
233.6739000189
 21
437.3184920427
  0
LINE
  5
27F
100
AcDbEntity
  8
0
100
AcDbLine
 62
7
  6
CONTINUOUS
 10
232.3238245531
 20
38.4570148001
 11
232.3238245531
 21
36.7219335441
  0
LINE
  5
280
100
AcDbEntity
  8
0
100
AcDbLine
 62
7
  6
CONTINUOUS
 10
236.3238245531
 20
420.2219335441
 11
236.3238245531
 21
415.8317057727
  0
LINE
  5
281
100
AcDbEntity
  8
0
100
AcDbLine
 62
7
  6
CONTINUOUS
 10
236.3238245531
 20
88.2219335441
 11
236.3238245531
 21
96.2219335441
  0
LINE
  5
282
100
AcDbEntity
  8
0
100
AcDbLine
 62
7
  6
CONTINUOUS
 10
238.3238245531
 20
44.2219335441
 11
238.3238245531
 21
41.7219335441
  0
LINE
  5
283
100
AcDbEntity
  8
0
100
AcDbLine
 62
7
  6
CONTINUOUS
 10
243.3238245531
 20
426.2219335441
 11
243.3238245531
 21
90.2219335441
  0
LINE
  5
284
100
AcDbEntity
  8
0
100
AcDbLine
 62
7
  6
CONTINUOUS
 10
243.3238245531
 20
89.7219335441
 11
243.3238245531
 21
44.2219335441
  0
LINE
  5
285
100
AcDbEntity
  8
0
100
AcDbLine
 62
7
  6
CONTINUOUS
 10
244.542012865
 20
99.2219335441
 11
244.542012865
 21
45.6984967389
  0
LINE
  5
286
100
AcDbEntity
  8
0
100
AcDbLine
 62
7
  6
CONTINUOUS
 10
249.8197890004
 20
402.7956708532
 11
250.7188024993
 21
385.6414713986
  0
LINE
  5
287
100
AcDbEntity
  8
0
100
AcDbLine
 62
7
  6
CONTINUOUS
 10
248.3238245531
 20
441.7219335441
 11
248.3238245531
 21
414.8737643181
  0
LINE
  5
288
100
AcDbEntity
  8
0
100
AcDbLine
 62
7
  6
CONTINUOUS
 10
248.3238245531
 20
407.5378267459
 11
248.3238245531
 21
46.7219335441
  0
LINE
  5
289
100
AcDbEntity
  8
0
100
AcDbLine
 62
7
  6
CONTINUOUS
 10
256.8648723353
 20
391.7082578541
 11
256.3158169223
 21
402.1847113116
  0
LINE
  5
28A
100
AcDbEntity
  8
0
100
AcDbLine
 62
7
  6
CONTINUOUS
 10
257.3270526847
 20
383.8766248241
 11
256.9157157568
 21
391.7254009683
  0
LINE
  5
28B
100
AcDbEntity
  8
0
100
AcDbLine
 62
7
  6
CONTINUOUS
 10
84.7827767729
 20
391.7082578531
 11
84.7319333332
 21
391.7254006601
  0
LINE
  5
28C
100
AcDbEntity
  8
0
100
AcDbLine
 62
7
  6
CONTINUOUS
 10
86.8171702577
 20
383.7461433111
 11
88.9315875365
 21
383.7461433111
  0
LINE
  5
28D
100
AcDbEntity
  8
0
100
AcDbLine
 62
7
  6
CONTINUOUS
 10
252.7160615685
 20
383.7461433111
 11
254.8304788478
 21
383.7461433111
  0
LINE
  5
28E
100
AcDbEntity
  8
0
100
AcDbLine
 62
7
  6
CONTINUOUS
 10
104.5489073355
 20
407.2219335441
 11
110.3238245531
 21
407.2219335441
  0
LINE
  5
28F
100
AcDbEntity
  8
0
100
AcDbLine
 62
7
  6
CONTINUOUS
 10
231.3238245531
 20
407.2219335441
 11
237.0987417707
 21
407.2219335441
  0
LINE
  5
290
100
AcDbEntity
  8
0
100
AcDbLine
 62
7
  6
CONTINUOUS
 10
103.3238245531
 20
412.2219335441
 11
110.3748599871
 21
412.2219335441
  0
LINE
  5
291
100
AcDbEntity
  8
0
100
AcDbLine
 62
7
  6
CONTINUOUS
 10
231.2727891191
 20
412.2219335441
 11
238.3238245531
 21
412.2219335441
  0
LINE
  5
292
100
AcDbEntity
  8
0
100
AcDbLine
 62
7
  6
CONTINUOUS
 10
103.2105411235
 20
412.7461433101
 11
113.4371079828
 21
412.7461433101
  0
LINE
  5
293
100
AcDbEntity
  8
0
100
AcDbLine
 62
7
  6
CONTINUOUS
 10
228.2105411235
 20
412.7461433101
 11
238.4371079828
 21
412.7461433101
  0
LINE
  5
294
100
AcDbEntity
  8
0
100
AcDbLine
 62
7
  6
CONTINUOUS
 10
106.4279432084
 20
416.8701355701
 11
105.3238245531
 21
416.8701355701
  0
LINE
  5
295
100
AcDbEntity
  8
0
100
AcDbLine
 62
7
  6
CONTINUOUS
 10
236.3238245531
 20
417.0287404161
 11
235.2196951679
 21
417.0287404161
  0
LINE
  5
296
100
AcDbEntity
  8
0
100
AcDbLine
 62
7
  6
CONTINUOUS
 10
100.3238245531
 20
428.2219335441
 11
241.3238245531
 21
428.2219335441
  0
LINE
  5
297
100
AcDbEntity
  8
0
100
AcDbLine
 62
7
  6
CONTINUOUS
 10
235.2196951679
 20
417.0287404161
 11
235.0618774929
 21
417.0510426761
  0
LINE
  5
298
100
AcDbEntity
  8
0
100
AcDbLine
 62
7
  6
CONTINUOUS
 10
234.7627551682
 20
417.3185355061
 11
234.7203804001
 21
417.3504568461
  0
LINE
  5
299
100
AcDbEntity
  8
0
100
AcDbLine
 62
7
  6
CONTINUOUS
 10
93.3238245531
 20
441.7219335441
 11
111.1812375374
 21
441.7219335441
  0
LINE
  5
29A
100
AcDbEntity
  8
0
100
AcDbLine
 62
7
  6
CONTINUOUS
 10
230.4664798487
 20
441.7219335441
 11
248.3238245531
 21
441.7219335441
  0
ARC
  5
29B
100
AcDbEntity
  8
0
100
AcDbCircle
 62
7
  6
CONTINUOUS
 10
170.8238245204
 20
-1058.4859429564
 40
1501.6559669595
100
AcDbArc
 50
87.7845646592
 51
92.2154253653
  0
ARC
  5
29C
100
AcDbEntity
  8
0
100
AcDbCircle
 62
7
  6
CONTINUOUS
 10
100.950293303
 20
401.3648163158
 40
15.6399518501
100
AcDbArc
 50
170.3074236959
 51
176.993448292
  0
ARC
  5
29D
100
AcDbEntity
  8
0
100
AcDbCircle
 62
7
  6
CONTINUOUS
 10
100.7587292843
 20
401.3733932488
 40
15.500138312
100
AcDbArc
 50
162.507199345
 51
169.9239580839
  0
ARC
  5
29E
100
AcDbEntity
  8
0
100
AcDbCircle
 62
7
  6
CONTINUOUS
 10
102.313647581
 20
402.2460995009
 40
10.5001794106
100
AcDbArc
 50
112.8484137068
 51
176.9998119596
  0
ARC
  5
29F
100
AcDbEntity
  8
0
100
AcDbCircle
 62
7
  6
CONTINUOUS
 10
103.3238245531
 20
46.7219335441
 40
10.0
100
AcDbArc
 50
180.0
 51
270.0
  0
ARC
  5
2A0
100
AcDbEntity
  8
0
100
AcDbCircle
 62
7
  6
CONTINUOUS
 10
103.3238245531
 20
402.2219335441
 40
10.0
100
AcDbArc
 50
90.0
 51
91.6206809437
  0
ARC
  5
2A1
100
AcDbEntity
  8
0
100
AcDbCircle
 62
7
  6
CONTINUOUS
 10
103.3238245531
 20
402.2219335441
 40
10.0
100
AcDbArc
 50
120.0035959386
 51
180.0
  0
ARC
  5
2A2
100
AcDbEntity
  8
0
100
AcDbCircle
 62
7
  6
CONTINUOUS
 10
103.9757193764
 20
45.3270979351
 40
6.8700831352
100
AcDbArc
 50
179.9999999975
 51
269.9999999899
  0
ARC
  5
2A3
100
AcDbEntity
  8
0
100
AcDbCircle
 62
7
  6
CONTINUOUS
 10
110.3238245531
 20
413.2219335441
 40
6.0
100
AcDbArc
 50
270.0
 51
291.1017752079
  0
ARC
  5
2A4
100
AcDbEntity
  8
0
100
AcDbCircle
 62
7
  6
CONTINUOUS
 10
108.3238245531
 20
411.2219335441
 40
5.5
100
AcDbArc
 50
319.1471214063
 51
56.944268849
  0
ARC
  5
2A5
100
AcDbEntity
  8
0
100
AcDbCircle
 62
7
  6
CONTINUOUS
 10
108.3238245531
 20
411.2219335441
 40
5.5
100
AcDbArc
 50
123.055731151
 51
226.6582417728
  0
ARC
  5
2A6
100
AcDbEntity
  8
0
100
AcDbCircle
 62
7
  6
CONTINUOUS
 10
108.3238245531
 20
96.2219335441
 40
3.0
100
AcDbArc
 50
0.0
 51
180.0
  0
ARC
  5
2A7
100
AcDbEntity
  8
0
100
AcDbCircle
 62
7
  6
CONTINUOUS
 10
108.3238245531
 20
420.2219335441
 40
3.0
100
AcDbArc
 50
0.0
 51
180.0
  0
ARC
  5
2A8
100
AcDbEntity
  8
0
100
AcDbCircle
 62
7
  6
CONTINUOUS
 10
100.3238245531
 20
90.2219335441
 40
2.0
100
AcDbArc
 50
179.9999999943
 51
270.0000000057
  0
ARC
  5
2A9
100
AcDbEntity
  8
0
100
AcDbCircle
 62
7
  6
CONTINUOUS
 10
100.3238245531
 20
426.2219335441
 40
2.0
100
AcDbArc
 50
89.9999999943
 51
180.0000000057
  0
ARC
  5
2AA
100
AcDbEntity
  8
0
100
AcDbCircle
 62
7
  6
CONTINUOUS
 10
95.3238245531
 20
101.2219335441
 40
2.0
100
AcDbArc
 50
179.9999999943
 51
270.0000000057
  0
ARC
  5
2AB
100
AcDbEntity
  8
0
100
AcDbCircle
 62
7
  6
CONTINUOUS
 10
113.3238245531
 20
85.2219335441
 40
2.0
100
AcDbArc
 50
179.9999999943
 51
270.0000000057
  0
ARC
  5
2AC
100
AcDbEntity
  8
0
100
AcDbCircle
 62
7
  6
CONTINUOUS
 10
110.3748599864
 20
413.2219335441
 40
1.0
100
AcDbArc
 50
270.0000000401
 51
331.5891854394
  0
ARC
  5
2AD
100
AcDbEntity
  8
0
100
AcDbCircle
 62
7
  6
CONTINUOUS
 10
240.6936251051
 20
401.3638860647
 40
15.6437332192
100
AcDbArc
 50
3.0076839566
 51
9.6934021091
  0
ARC
  5
2AE
100
AcDbEntity
  8
0
100
AcDbCircle
 62
7
  6
CONTINUOUS
 10
240.883358034
 20
401.3724304015
 40
15.5057925637
100
AcDbArc
 50
10.0763689285
 51
17.4893690214
  0
ARC
  5
2AF
100
AcDbEntity
  8
0
100
AcDbCircle
 62
7
  6
CONTINUOUS
 10
239.3338441485
 20
402.245988995
 40
10.500342356
100
AcDbArc
 50
3.0007452977
 51
67.1510005486
  0
ARC
  5
2B0
100
AcDbEntity
  8
0
100
AcDbCircle
 62
7
  6
CONTINUOUS
 10
238.3238245531
 20
46.7219335441
 40
10.0
100
AcDbArc
 50
270.0
 51
360.0
  0
ARC
  5
2B1
100
AcDbEntity
  8
0
100
AcDbCircle
 62
7
  6
CONTINUOUS
 10
238.3238245531
 20
402.2219335441
 40
10.0
100
AcDbArc
 50
0.0
 51
59.996212404
  0
ARC
  5
2B2
100
AcDbEntity
  8
0
100
AcDbCircle
 62
7
  6
CONTINUOUS
 10
238.3238245531
 20
402.2219335441
 40
10.0
100
AcDbArc
 50
88.3792553244
 51
90.0
  0
ARC
  5
2B3
100
AcDbEntity
  8
0
100
AcDbCircle
 62
7
  6
CONTINUOUS
 10
237.3005309257
 20
45.6984967391
 40
7.2414819393
100
AcDbArc
 50
270.0000000192
 51
359.9999999988
  0
ARC
  5
2B4
100
AcDbEntity
  8
0
100
AcDbCircle
 62
7
  6
CONTINUOUS
 10
231.3238245531
 20
413.2219335441
 40
6.0
100
AcDbArc
 50
248.8982247921
 51
270.0
  0
ARC
  5
2B5
100
AcDbEntity
  8
0
100
AcDbCircle
 62
7
  6
CONTINUOUS
 10
233.3238245531
 20
411.2219335441
 40
5.5
100
AcDbArc
 50
123.0557311505
 51
220.8528785937
  0
ARC
  5
2B6
100
AcDbEntity
  8
0
100
AcDbCircle
 62
7
  6
CONTINUOUS
 10
233.3238245531
 20
411.2219335441
 40
5.5
100
AcDbArc
 50
313.3417582272
 51
56.944268849
  0
ARC
  5
2B7
100
AcDbEntity
  8
0
100
AcDbCircle
 62
7
  6
CONTINUOUS
 10
233.3238245531
 20
96.2219335441
 40
3.0
100
AcDbArc
 50
0.0
 51
180.0
  0
ARC
  5
2B8
100
AcDbEntity
  8
0
100
AcDbCircle
 62
7
  6
CONTINUOUS
 10
233.3238245531
 20
420.2219335441
 40
3.0
100
AcDbArc
 50
0.0
 51
180.0
  0
ARC
  5
2B9
100
AcDbEntity
  8
0
100
AcDbCircle
 62
7
  6
CONTINUOUS
 10
241.3238245531
 20
426.2219335441
 40
2.0
100
AcDbArc
 50
0.0
 51
90.0000000057
  0
ARC
  5
2BA
100
AcDbEntity
  8
0
100
AcDbCircle
 62
7
  6
CONTINUOUS
 10
241.3238245531
 20
90.2219335441
 40
2.0
100
AcDbArc
 50
269.9999999943
 51
360.0
  0
ARC
  5
2BB
100
AcDbEntity
  8
0
100
AcDbCircle
 62
7
  6
CONTINUOUS
 10
228.3238245531
 20
85.2219335441
 40
2.0
100
AcDbArc
 50
269.9999999943
 51
360.0
  0
ARC
  5
2BC
100
AcDbEntity
  8
0
100
AcDbCircle
 62
7
  6
CONTINUOUS
 10
246.3238245531
 20
101.2219335441
 40
2.0
100
AcDbArc
 50
269.9999999943
 51
360.0
  0
ARC
  5
2BD
100
AcDbEntity
  8
0
100
AcDbCircle
 62
7
  6
CONTINUOUS
 10
231.2727891198
 20
413.2219335441
 40
1.0
100
AcDbArc
 50
208.4867861545
 51
269.9999999599
  0
ARC
  5
2BE
100
AcDbEntity
  8
0
100
AcDbCircle
 62
7
  6
CONTINUOUS
 10
255.7563823457
 20
404.1961713217
 40
0.4089061664
100
AcDbArc
 50
330.9973685324
 51
344.2727823062
  0
SPLINE
  5
2BF
100
AcDbEntity
  8
0
100
AcDbSpline
 62
7
  6
CONTINUOUS
 70
0
 71
3
 72
11
 73
7
 74
0
 42
0.0000001
 43
0.0000001
 44
0.0000000001
 40
0.0
 40
0.0
 40
0.0
 40
0.0
 40
0.2501546333
 40
0.5000000007
 40
0.7498453681
 40
1.0
 40
1.0
 40
1.0
 40
1.0
 10
88.9315875365
 20
383.7461433111
 30
0.0
 10
89.1831800839
 20
383.746143311
 30
0.0
 10
89.6900666293
 20
383.8467758596
 30
0.0
 10
90.3427429945
 20
384.2590957349
 30
0.0
 10
90.7886562413
 20
384.8892984732
 30
0.0
 10
90.9156792691
 20
385.3902236458
 30
0.0
 10
90.9288466064
 20
385.641471393
 30
0.0
  0
SPLINE
  5
2C0
100
AcDbEntity
  8
0
100
AcDbSpline
 62
7
  6
CONTINUOUS
 70
0
 71
3
 72
18
 73
14
 74
0
 42
0.0000001
 43
0.0000001
 44
0.0000000001
 40
0.0
 40
0.0
 40
0.0
 40
0.0
 40
0.0071339024
 40
0.0226895155
 40
0.0472599091
 40
0.0806538845
 40
0.1225617472
 40
0.1726398695
 40
0.2958709218
 40
0.4467741401
 40
0.6190721321
 40
0.8058034107
 40
1.0
 40
1.0
 40
1.0
 40
1.0
 10
84.3205964216
 20
383.8766248241
 30
0.0
 10
84.3205964213
 20
383.8706595992
 30
0.0
 10
84.3410682431
 20
383.858614891
 30
0.0
 10
84.3760807399
 20
383.8491984814
 30
0.0
 10
84.4380459526
 20
383.8366226345
 30
0.0
 10
84.5201087989
 20
383.8254217059
 30
0.0
 10
84.6245971259
 20
383.8139802431
 30
0.0
 10
84.8037878317
 20
383.798571794
 30
0.0
 10
85.074489982
 20
383.7819948052
 30
0.0
 10
85.4474548111
 20
383.7666564817
 30
0.0
 10
85.8737153999
 20
383.7550992668
 30
0.0
 10
86.3362595652
 20
383.747831205
 30
0.0
 10
86.6547869996
 20
383.7461433105
 30
0.0
 10
86.8171702577
 20
383.7461433105
 30
0.0
  0
SPLINE
  5
2C1
100
AcDbEntity
  8
0
100
AcDbSpline
 62
7
  6
CONTINUOUS
 70
0
 71
3
 72
16
 73
12
 74
0
 42
0.0000001
 43
0.0000001
 44
0.0000000001
 40
0.0
 40
0.0
 40
0.0
 40
0.0
 40
0.0218114081
 40
0.09815072
 40
0.1738888582
 40
0.3255126257
 40
0.4012203367
 40
0.5892874492
 40
0.7018364799
 40
0.7769077367
 40
1.0
 40
1.0
 40
1.0
 40
1.0
 10
98.266879705
 20
416.5471213561
 30
0.0
 10
98.1447874388
 20
416.5275236504
 30
0.0
 10
97.5964419017
 20
416.4328329375
 30
0.0
 10
96.6340129136
 20
416.2133249189
 30
0.0
 10
94.9911963384
 20
415.6936209256
 30
0.0
 10
93.4210046545
 20
414.9725939142
 30
0.0
 10
91.4181296088
 20
413.7315717314
 30
0.0
 10
89.7719196429
 20
412.3458567342
 30
0.0
 10
88.3902006363
 20
410.7181563178
 30
0.0
 10
87.0753533587
 20
408.795228557
 30
0.0
 10
86.3566904488
 20
407.2384060035
 30
0.0
 10
85.9753990911
 20
406.0325172101
 30
0.0
  0
SPLINE
  5
2C2
100
AcDbEntity
  8
0
100
AcDbSpline
 62
7
  6
CONTINUOUS
 70
0
 71
3
 72
11
 73
7
 74
0
 42
0.0000001
 43
0.0000001
 44
0.0000000001
 40
0.0
 40
0.0
 40
0.0
 40
0.0
 40
0.2503629884
 40
0.5002307069
 40
0.7499731728
 40
1.0
 40
1.0
 40
1.0
 40
1.0
 10
112.7745668237
 20
442.0474547748
 30
0.0
 10
112.1616223907
 20
442.0239294947
 30
0.0
 10
110.9366732675
 20
441.7385725809
 30
0.0
 10
109.3727721202
 20
440.6975568381
 30
0.0
 10
108.3086016606
 20
439.1502463051
 30
0.0
 10
108.0058485792
 20
437.9305016732
 30
0.0
 10
107.9738687084
 20
437.3187637865
 30
0.0
  0
SPLINE
  5
2C3
100
AcDbEntity
  8
0
100
AcDbSpline
 62
7
  6
CONTINUOUS
 70
0
 71
3
 72
11
 73
7
 74
0
 42
0.0000001
 43
0.0000001
 44
0.0000000001
 40
0.0
 40
0.0
 40
0.0
 40
0.0
 40
0.2500640436
 40
0.4998059559
 40
0.7496731203
 40
1.0
 40
1.0
 40
1.0
 40
1.0
 10
233.6737533301
 20
437.3184843841
 30
0.0
 10
233.641809879
 20
437.9303153338
 30
0.0
 10
233.3390752352
 20
439.1501687648
 30
0.0
 10
232.2748652545
 20
440.6975665596
 30
0.0
 10
230.7110483297
 20
441.7385475105
 30
0.0
 10
229.4862022058
 20
442.0239251473
 30
0.0
 10
228.873345091
 20
442.0474870959
 30
0.0
  0
SPLINE
  5
2C4
100
AcDbEntity
  8
0
100
AcDbSpline
 62
7
  6
CONTINUOUS
 70
0
 71
3
 72
12
 73
8
 74
0
 42
0.0000001
 43
0.0000001
 44
0.0000000001
 40
0.0
 40
0.0
 40
0.0
 40
0.0
 40
0.162538325
 40
0.275083268
 40
0.4996849727
 40
0.7820064405
 40
1.0
 40
1.0
 40
1.0
 40
1.0
 10
255.6723382943
 20
406.0323612983
 30
0.0
 10
255.3948524655
 20
406.9097601694
 30
0.0
 10
254.7872249255
 20
408.3559209497
 30
0.0
 10
253.2998460885
 20
410.7686279828
 30
0.0
 10
250.9106665917
 20
413.3880329181
 30
0.0
 10
247.3522159626
 20
415.569816426
 30
0.0
 10
244.6022576479
 20
416.3511494311
 30
0.0
 10
243.3810321137
 20
416.5470915498
 30
0.0
  0
SPLINE
  5
2C5
100
AcDbEntity
  8
0
100
AcDbSpline
 62
7
  6
CONTINUOUS
 70
0
 71
3
 72
11
 73
7
 74
0
 42
0.0000001
 43
0.0000001
 44
0.0000000001
 40
0.0
 40
0.0
 40
0.0
 40
0.0
 40
0.2501546334
 40
0.5000000004
 40
0.7498453673
 40
1.0
 40
1.0
 40
1.0
 40
1.0
 10
250.7188024996
 20
385.6414713986
 30
0.0
 10
250.7319698362
 20
385.3902236497
 30
0.0
 10
250.8589928638
 20
384.8892984749
 30
0.0
 10
251.3049061116
 20
384.2590957351
 30
0.0
 10
251.9575824764
 20
383.8467758599
 30
0.0
 10
252.4644690214
 20
383.7461433112
 30
0.0
 10
252.7160615685
 20
383.7461433111
 30
0.0
  0
SPLINE
  5
2C6
100
AcDbEntity
  8
0
100
AcDbSpline
 62
7
  6
CONTINUOUS
 70
0
 71
3
 72
18
 73
14
 74
0
 42
0.0000001
 43
0.0000001
 44
0.0000000001
 40
0.0
 40
0.0
 40
0.0
 40
0.0
 40
0.0071347542
 40
0.0226909074
 40
0.0472617636
 40
0.0806561075
 40
0.122564241
 40
0.1726425354
 40
0.2958736362
 40
0.4467765263
 40
0.6190738928
 40
0.805804344
 40
1.0
 40
1.0
 40
1.0
 40
1.0
 10
257.3270526848
 20
383.8766248241
 30
0.0
 10
257.3270525342
 20
383.8706586468
 30
0.0
 10
257.3065792997
 20
383.8586147757
 30
0.0
 10
257.2715651949
 20
383.8491973883
 30
0.0
 10
257.2095988577
 20
383.8366220753
 30
0.0
 10
257.1275350356
 20
383.8254209986
 30
0.0
 10
257.0230460226
 20
383.8139796918
 30
0.0
 10
256.8438548716
 20
383.7985713366
 30
0.0
 10
256.5731527858
 20
383.7819945032
 30
0.0
 10
256.2001886757
 20
383.7666562947
 30
0.0
 10
255.7739295387
 20
383.7550991839
 30
0.0
 10
255.3113873284
 20
383.7478311885
 30
0.0
 10
254.9928613394
 20
383.7461433105
 30
0.0
 10
254.8304788478
 20
383.7461433105
 30
0.0
  0
SPLINE
  5
2C7
100
AcDbEntity
  8
0
100
AcDbSpline
 62
7
  6
CONTINUOUS
 70
0
 71
3
 72
9
 73
5
 74
0
 42
0.0000001
 43
0.0000001
 44
0.0000000001
 40
0.0
 40
0.0
 40
0.0
 40
0.0
 40
0.6972702324
 40
1.0
 40
1.0
 40
1.0
 40
1.0
 10
256.8648723353
 20
391.7082578545
 30
0.0
 10
256.8777010768
 20
391.7092551577
 30
0.0
 10
256.8937579494
 20
391.7095838217
 30
0.0
 10
256.915716018
 20
391.7198142912
 30
0.0
 10
256.9157157731
 20
391.7254009683
 30
0.0
  0
SPLINE
  5
2C8
100
AcDbEntity
  8
0
100
AcDbSpline
 62
7
  6
CONTINUOUS
 70
0
 71
3
 72
9
 73
5
 74
0
 42
0.0000001
 43
0.0000001
 44
0.0000000001
 40
0.0
 40
0.0
 40
0.0
 40
0.0
 40
0.4998577752
 40
1.0
 40
1.0
 40
1.0
 40
1.0
 10
234.7627551683
 20
417.3185355061
 30
0.0
 10
234.7896337958
 20
417.2555935512
 30
0.0
 10
234.8731425706
 20
417.141007275
 30
0.0
 10
234.9963074287
 20
417.0707923501
 30
0.0
 10
235.061877493
 20
417.0510426763
 30
0.0
  0
SPLINE
  5
2C9
100
AcDbEntity
  8
0
100
AcDbSpline
 62
7
  6
CONTINUOUS
 70
0
 71
3
 72
9
 73
5
 74
0
 42
0.0000001
 43
0.0000001
 44
0.0000000001
 40
0.0
 40
0.0
 40
0.0
 40
0.0
 40
0.500241664
 40
1.0
 40
1.0
 40
1.0
 40
1.0
 10
106.4279431888
 20
416.8701383481
 30
0.0
 10
106.5523345326
 20
416.8710133317
 30
0.0
 10
106.8100132135
 20
416.9727113545
 30
0.0
 10
106.9217362839
 20
417.2263079884
 30
0.0
 10
106.9272682409
 20
417.3504592582
 30
0.0
  0
ENDSEC
  0
SECTION
  2
OBJECTS
  0
DICTIONARY
  5
C
100
AcDbDictionary
280
0
281
1
  3
ACAD_GROUP
350
D
  3
ACAD_MLINESTYLE
350
17
  3
ACAD_LAYOUT
350
1A
  3
ACAD_PLOTSETTINGS
350
19
  3
ACAD_PLOTSTYLENAME
350
E
  0
DICTIONARY
  5
D
102
{ACAD_REACTORS
330
C
102
}
100
AcDbDictionary
280
0
281
1
  0
ACDBDICTIONARYWDFLT
  5
E
102
{ACAD_REACTORS
330
C
102
}
100
AcDbDictionary
281
1
  3
Normal
350
F
100
AcDbDictionaryWithDefault
340
F
  0
DICTIONARY
  5
17
102
{ACAD_REACTORS
330
C
102
}
100
AcDbDictionary
280
0
281
1
  3
Standard
350
18
  0
DICTIONARY
  5
19
102
{ACAD_REACTORS
330
C
102
}
100
AcDbDictionary
281
1
  0
DICTIONARY
  5
1A
102
{ACAD_REACTORS
330
C
102
}
100
AcDbDictionary
281
1
  3
Model
350
2CA
  3
Layout1
350
2CB
  0
ACDBPLACEHOLDER
  5
F
102
{ACAD_REACTORS
330
E
102
}
  0
MLINESTYLE
  5
18
102
{ACAD_REACTORS
330
17
102
}
100
AcDbMlineStyle
  2
STANDARD
 70
0
  3

 62
256
 51
90.0
 52
90.0
 71
2
 49
0.5
 62
256
  6
BYLAYER
 49
-0.5
 62
256
  6
BYLAYER
  0
LAYOUT
  5
2CA
102
{ACAD_REACTORS
330
1A
102
}
100
AcDbPlotSettings
  1

  2
none_device
  4

  6

 40
0.0
 41
0.0
 42
0.0
 43
0.0
 44
210.0
 45
297.0
 46
0.0
 47
0.0
 48
0.0
 49
0.0
140
0.0
141
0.0
142
1.0
143
1.0
 70
1024
 72
1
 73
0
 74
0
  7

 75
0
147
1.0
148
0.0
149
0.0
100
AcDbLayout
  1
Model
 70
0
 71
0
 10
0.0
 20
0.0
 11
210.0
 21
297.0
 12
0.0
 22
0.0
 32
0.0
 14
0.0
 24
0.0
 34
0.0
 15
0.0
 25
0.0
 35
0.0
146
0.0
 13
0.0
 23
0.0
 33
0.0
 16
1.0
 26
0.0
 36
0.0
 17
0.0
 27
1.0
 37
0.0
 76
0
330
210
345
0
346
0
  0
LAYOUT
  5
2CB
102
{ACAD_REACTORS
330
1A
102
}
100
AcDbPlotSettings
  1

  2
none_device
  4

  6

 40
0.0
 41
0.0
 42
0.0
 43
0.0
 44
210.0
 45
297.0
 46
0.0
 47
0.0
 48
0.0
 49
0.0
140
0.0
141
0.0
142
1.0
143
1.0
 70
0
 72
1
 73
0
 74
0
  7

 75
0
147
1.0
148
0.0
149
0.0
100
AcDbLayout
  1
Layout1
 70
0
 71
1
 10
0.0
 20
0.0
 11
210.0
 21
297.0
 12
0.0
 22
0.0
 32
0.0
 14
0.0
 24
0.0
 34
0.0
 15
0.0
 25
0.0
 35
0.0
146
0.0
 13
0.0
 23
0.0
 33
0.0
 16
1.0
 26
0.0
 36
0.0
 17
0.0
 27
1.0
 37
0.0
 76
0
330
211
345
0
346
0
  0
ENDSEC
  0
EOF
