999
DXF file: C:\Users\sesa63760\Dev\_Creo\CAD\MCADFD0002525_3D-CAD\drw0001_7.dxf
999
Pro/ENGINEER 2019471 by Parametric Technology Corporation
  0
SECTION
  2
HEADER
  9
$ACADVER
  1
AC1024
  9
$DWGCODEPAGE
  3
ANSI_1252
  9
$EXTMAX
 10
833.34
 20
1178.5808571429
 30
0.0
  9
$EXTMIN
 10
0.0
 20
0.0
 30
0.0
  9
$LIMMIN
 10
0.0
 20
0.0
  9
$LIMMAX
 10
833.34
 20
1178.5808571429
  9
$VIEWCTR
 10
416.67
 20
589.2904285714
  9
$VIEWSIZE
 40
1178.5808571429
  9
$CLAYER
  8
0
  9
$LTSCALE
 40
76.8260114286
  9
$CELTYPE
  6
BYLAYER
  9
$DIMSCALE
 40
1.0
  9
$DIMASZ
 40
9.9207142857
  9
$DIMEXO
 40
1.0
  9
$DIMDLI
 40
53.0797897143
  9
$DIMEXE
 40
1.0
  9
$DIMCEN
 40
12.5715291429
  9
$DIMLFAC
 40
1.0
  9
$DIMBLK
  1
_FILLED
  9
$DIMALT
 70
0
  9
$DIMALTF
 40
0.0393700787
  9
$DIMTXT
 40
13.889
  9
$DIMTOL
 70
1
  9
$DIMLIM
 70
0
  9
$DIMTFAC
 40
1.0
  9
$DIMTP
 40
0.01
  9
$DIMTM
 40
0.01
  9
$DIMGAP
 40
0.625
  9
$DIMDSEP
 70
46
  9
$AUNITS
 70
0
  9
$PDMODE
 70
3
  9
$PDSIZE
 40
0.3125
  9
$HANDSEED
  5
707
  9
$TILEMODE
 70
1
  9
$MEASUREMENT
 70
1
  9
$INSUNITS
 70
4
  0
ENDSEC
  0
SECTION
  2
CLASSES
  0
CLASS
  1
ACDBDICTIONARYWDFLT
  2
AcDbDictionaryWithDefault
  3
AutoCAD 2000
 90
0
 91
1
280
0
281
0
  0
CLASS
  1
ACDBPLACEHOLDER
  2
AcDbPlaceHolder
  3
AutoCAD 2000
 90
0
 91
1
280
0
281
0
  0
CLASS
  1
LAYOUT
  2
AcDbLayout
  3
AutoCAD 2000
 90
0
 91
0
280
0
281
0
  0
ENDSEC
  0
SECTION
  2
TABLES
  0
TABLE
  2
VPORT
  5
8
100
AcDbSymbolTable
 70
2
  0
VPORT
  5
1F4
100
AcDbSymbolTableRecord
100
AcDbViewportTableRecord
  2
*ACTIVE
 70
0
 10
0.0
 20
0.0
 11
1.0
 21
1.0
 12
416.67
 22
589.2904285714
 13
0.0
 23
0.0
 14
1.0
 24
1.0
 15
0.0
 25
0.0
 16
0.0
 26
0.0
 36
1.0
 17
0.0
 27
0.0
 37
0.0
 40
1178.5808571429
 41
0.7070707071
 42
50.0
 43
0.0
 44
0.0
 50
0.0
 51
0.0
 71
0
 72
100
 73
1
 74
1
 75
0
 76
0
 77
0
 78
0
  0
ENDTAB
  0
TABLE
  2
LTYPE
  5
5
100
AcDbSymbolTable
 70
6
  0
LTYPE
  5
14
100
AcDbSymbolTableRecord
100
AcDbLinetypeTableRecord
  2
BYBLOCK
 70
0
  3

 72
65
 73
0
 40
0.0
  0
LTYPE
  5
15
100
AcDbSymbolTableRecord
100
AcDbLinetypeTableRecord
  2
BYLAYER
 70
0
  3

 72
65
 73
0
 40
0.0
  0
LTYPE
  5
16
100
AcDbSymbolTableRecord
100
AcDbLinetypeTableRecord
  2
CONTINUOUS
 70
64
  3
Solid line
 72
65
 73
0
 40
0.0
  0
LTYPE
  5
1F5
100
AcDbSymbolTableRecord
100
AcDbLinetypeTableRecord
  2
CENTER
 70
64
  3
____ _ ____ _ ____ _ ____ _ ____ _ ____ _ ____
 72
65
 73
4
 40
0.6
 49
0.375
 74
0
 49
-0.075
 74
0
 49
0.075
 74
0
 49
-0.075
 74
0
  0
LTYPE
  5
1F6
100
AcDbSymbolTableRecord
100
AcDbLinetypeTableRecord
  2
HIDDEN
 70
64
  3
- - - - - - - - - - - - - - - - - - - -
 72
65
 73
2
 40
0.2
 49
0.1
 74
0
 49
-0.1
 74
0
  0
LTYPE
  5
1F7
100
AcDbSymbolTableRecord
100
AcDbLinetypeTableRecord
  2
PHANTOM
 70
64
  3
_____ _ _ _____ _ _ _____ _ _ _____
 72
65
 73
6
 40
0.8
 49
0.45
 74
0
 49
-0.05
 74
0
 49
0.1
 74
0
 49
-0.05
 74
0
 49
0.1
 74
0
 49
-0.05
 74
0
  0
LTYPE
  5
1F8
100
AcDbSymbolTableRecord
100
AcDbLinetypeTableRecord
  2
DOT
 70
64
  3
. . . . . . . . . . . . . . . . . . . .
 72
65
 73
2
 40
0.2
 49
0.1
 74
0
 49
-0.1
 74
0
  0
LTYPE
  5
1F9
100
AcDbSymbolTableRecord
100
AcDbLinetypeTableRecord
  2
DASHED
 70
64
  3
- - - - - - - - - - - - - - - - - - - -
 72
65
 73
2
 40
0.2
 49
0.1
 74
0
 49
-0.1
 74
0
  0
ENDTAB
  0
TABLE
  2
LAYER
  5
2
100
AcDbSymbolTable
 70
36
  0
LAYER
  5
10
100
AcDbSymbolTableRecord
100
AcDbLayerTableRecord
  2
0
 70
0
 62
7
  6
CONTINUOUS
370
-3
390
F
  0
LAYER
  5
1FA
100
AcDbSymbolTableRecord
100
AcDbLayerTableRecord
  2
DEFAULT_1
 70
0
 62
7
  6
CENTER
370
-3
390
F
  0
LAYER
  5
1FB
100
AcDbSymbolTableRecord
100
AcDbLayerTableRecord
  2
DEFAULT_2
 70
0
 62
8
  6
HIDDEN
370
-3
390
F
  0
LAYER
  5
1FC
100
AcDbSymbolTableRecord
100
AcDbLayerTableRecord
  2
DEFAULT_3
 70
0
 62
7
  6
PHANTOM
370
-3
390
F
  0
LAYER
  5
1FD
100
AcDbSymbolTableRecord
100
AcDbLayerTableRecord
  2
00_COMPONENTS
 70
0
 62
7
  6
CONTINUOUS
370
-3
390
F
  0
LAYER
  5
1FE
100
AcDbSymbolTableRecord
100
AcDbLayerTableRecord
  2
01_1_DEFAULT_DATUMS
 70
0
 62
7
  6
CONTINUOUS
370
-3
390
F
  0
LAYER
  5
1FF
100
AcDbSymbolTableRecord
100
AcDbLayerTableRecord
  2
01_PLANES
 70
0
 62
7
  6
CONTINUOUS
370
-3
390
F
  0
LAYER
  5
200
100
AcDbSymbolTableRecord
100
AcDbLayerTableRecord
  2
02_COORD_SYS
 70
0
 62
7
  6
CONTINUOUS
370
-3
390
F
  0
LAYER
  5
201
100
AcDbSymbolTableRecord
100
AcDbLayerTableRecord
  2
03_AXES
 70
0
 62
7
  6
CONTINUOUS
370
-3
390
F
  0
LAYER
  5
202
100
AcDbSymbolTableRecord
100
AcDbLayerTableRecord
  2
04_POINTS
 70
0
 62
7
  6
CONTINUOUS
370
-3
390
F
  0
LAYER
  5
203
100
AcDbSymbolTableRecord
100
AcDbLayerTableRecord
  2
05_CURVES
 70
0
 62
7
  6
CONTINUOUS
370
-3
390
F
  0
LAYER
  5
204
100
AcDbSymbolTableRecord
100
AcDbLayerTableRecord
  2
06_SURFS
 70
0
 62
7
  6
CONTINUOUS
370
-3
390
F
  0
LAYER
  5
205
100
AcDbSymbolTableRecord
100
AcDbLayerTableRecord
  2
07_COSMETICS
 70
0
 62
7
  6
CONTINUOUS
370
-3
390
F
  0
LAYER
  5
206
100
AcDbSymbolTableRecord
100
AcDbLayerTableRecord
  2
10_NOTES
 70
0
 62
7
  6
CONTINUOUS
370
-3
390
F
  0
LAYER
  5
207
100
AcDbSymbolTableRecord
100
AcDbLayerTableRecord
  2
11_NOTES_PUB
 70
0
 62
7
  6
CONTINUOUS
370
-3
390
F
  0
LAYER
  5
208
100
AcDbSymbolTableRecord
100
AcDbLayerTableRecord
  2
13_REF_GTOL
 70
0
 62
7
  6
CONTINUOUS
370
-3
390
F
  0
LAYER
  5
209
100
AcDbSymbolTableRecord
100
AcDbLayerTableRecord
  2
16_MISC
 70
0
 62
7
  6
CONTINUOUS
370
-3
390
F
  0
LAYER
  5
20A
100
AcDbSymbolTableRecord
100
AcDbLayerTableRecord
  2
17_NO_PRINT
 70
0
 62
7
  6
CONTINUOUS
370
-3
390
F
  0
LAYER
  5
20B
100
AcDbSymbolTableRecord
100
AcDbLayerTableRecord
  2
18_DATUM_CAMS_JOINTS
 70
0
 62
7
  6
CONTINUOUS
370
-3
390
F
  0
LAYER
  5
20C
100
AcDbSymbolTableRecord
100
AcDbLayerTableRecord
  2
19_DATUM_FUNCTIONAL
 70
0
 62
7
  6
CONTINUOUS
370
-3
390
F
  0
LAYER
  5
20D
100
AcDbSymbolTableRecord
100
AcDbLayerTableRecord
  2
20_DATUM_KINEMATIC_SCHEME
 70
0
 62
7
  6
CONTINUOUS
370
-3
390
F
  0
ENDTAB
  0
TABLE
  2
STYLE
  5
3
100
AcDbSymbolTable
 70
1
  0
STYLE
  5
11
100
AcDbSymbolTableRecord
100
AcDbTextStyleTableRecord
  2
STANDARD
 70
0
 40
0.0
 41
0.8
 50
0.0
 71
0
 42
0.2
  3
txt
  4

  0
STYLE
  5
20E
100
AcDbSymbolTableRecord
100
AcDbTextStyleTableRecord
  2
TEXTSTYLE_1
 70
0
 40
0.0
 41
0.8
 50
0.0
 71
0
 42
0.2
  3
gdt
  4

  0
ENDTAB
  0
TABLE
  2
VIEW
  5
6
100
AcDbSymbolTable
 70
0
  0
ENDTAB
  0
TABLE
  2
UCS
  5
7
100
AcDbSymbolTable
 70
0
  0
ENDTAB
  0
TABLE
  2
APPID
  5
9
100
AcDbSymbolTable
 70
1
  0
APPID
  5
20F
100
AcDbSymbolTableRecord
100
AcDbRegAppTableRecord
  2
ACAD
 70
0
  0
ENDTAB
  0
TABLE
  2
BLOCK_RECORD
  5
1
100
AcDbSymbolTable
 70
0
  0
BLOCK_RECORD
  5
210
100
AcDbSymbolTableRecord
100
AcDbBlockTableRecord
  2
*Model_Space
  0
BLOCK_RECORD
  5
211
100
AcDbSymbolTableRecord
100
AcDbBlockTableRecord
  2
*Paper_Space
  0
BLOCK_RECORD
  5
212
100
AcDbSymbolTableRecord
100
AcDbBlockTableRecord
  2
_FILLED
  0
ENDTAB
  0
TABLE
  2
DIMSTYLE
  5
A
100
AcDbSymbolTable
 70
1
100
AcDbDimStyleTable
 71
0
  0
DIMSTYLE
105
213
100
AcDbSymbolTableRecord
100
AcDbDimStyleTableRecord
  2
STANDARD
 70
0
  3

  4

 40
1.0
 41
9.9207142857
 42
1.0
 43
0.38
 44
1.0
 45
0.0
 46
0.0
 47
0.01
 48
0.01
140
13.889
141
0.09
142
0.0
143
25.4
144
1.0
145
0.0
146
1.0
147
0.625
 71
1
 72
0
 73
0
 74
0
 75
0
 76
0
 77
1
 78
8
 79
2
170
0
171
1
172
0
173
0
174
0
175
0
176
0
177
0
178
0
270
2
179
2
271
2
272
2
273
2
274
2
275
0
280
0
281
0
282
0
283
1
284
8
285
0
286
0
287
3
288
0
340
11
278
46
341
212
342
212
343
212
344
212
  0
ENDTAB
  0
ENDSEC
  0
SECTION
  2
BLOCKS
  0
BLOCK
  5
20
100
AcDbEntity
  8
0
100
AcDbBlockBegin
  2
*Model_Space
 70
0
 10
0.0
 20
0.0
 30
0.0
  3
*Model_Space
  1

  0
ENDBLK
  5
21
100
AcDbEntity
  8
0
100
AcDbBlockEnd
  0
BLOCK
  5
1C
100
AcDbEntity
  8
0
100
AcDbBlockBegin
  2
*Paper_Space
 70
0
 10
0.0
 20
0.0
 30
0.0
  3
*Paper_Space
  1

  0
ENDBLK
  5
1D
100
AcDbEntity
  8
0
100
AcDbBlockEnd
  0
BLOCK
  5
214
100
AcDbEntity
  8
0
100
AcDbBlockBegin
  2
_FILLED
 70
64
 10
0.0
 20
0.0
  3
_FILLED
  1

  0
SOLID
  5
215
100
AcDbEntity
  8
0
  6
BYBLOCK
 62
0
100
AcDbTrace
 10
0.0
 20
0.0
 11
-1.0
 21
0.25
 12
-1.0
 22
-0.25
 13
-1.0
 23
-0.25
  0
ENDBLK
  5
216
100
AcDbEntity
  8
0
  6
BYBLOCK
 62
0
100
AcDbBlockEnd
  0
ENDSEC
  0
SECTION
  2
ENTITIES
  0
LINE
  5
217
100
AcDbEntity
  8
0
100
AcDbLine
 62
7
  6
CONTINUOUS
 10
408.5125714286
 20
87.2755714286
 11
427.8125714286
 21
87.2755714286
  0
LINE
  5
218
100
AcDbEntity
  8
0
100
AcDbLine
 62
7
  6
CONTINUOUS
 10
426.412518257
 20
92.8755714286
 11
408.4125714286
 21
92.8755714286
  0
LINE
  5
219
100
AcDbEntity
  8
0
100
AcDbLine
 62
7
  6
CONTINUOUS
 10
408.4125714286
 20
93.9755714286
 11
424.9125847873
 21
93.9755714286
  0
LINE
  5
21A
100
AcDbEntity
  8
0
100
AcDbLine
 62
7
  6
CONTINUOUS
 10
408.4126786326
 20
94.8755714286
 11
420.020524322
 21
94.8755714286
  0
LINE
  5
21B
100
AcDbEntity
  8
0
100
AcDbLine
 62
7
  6
CONTINUOUS
 10
410.3125714286
 20
96.8755714286
 11
408.5125714286
 21
96.8755714286
  0
LINE
  5
21C
100
AcDbEntity
  8
0
100
AcDbLine
 62
7
  6
CONTINUOUS
 10
410.9522067741
 20
96.8755714286
 11
413.7157388497
 21
96.8755714286
  0
LINE
  5
21D
100
AcDbEntity
  8
0
100
AcDbLine
 62
7
  6
CONTINUOUS
 10
413.7157388497
 20
101.8755714286
 11
408.5125714286
 21
101.8755714286
  0
LINE
  5
21E
100
AcDbEntity
  8
0
100
AcDbLine
 62
7
  6
CONTINUOUS
 10
420.020524322
 20
103.8755714286
 11
408.4126786326
 21
103.8755714286
  0
LINE
  5
21F
100
AcDbEntity
  8
0
100
AcDbLine
 62
7
  6
CONTINUOUS
 10
424.9125847873
 20
104.7755714286
 11
408.4125714286
 21
104.7755714286
  0
LINE
  5
220
100
AcDbEntity
  8
0
100
AcDbLine
 62
7
  6
CONTINUOUS
 10
408.4125714286
 20
105.8755714286
 11
426.412518257
 21
105.8755714286
  0
LINE
  5
221
100
AcDbEntity
  8
0
100
AcDbLine
 62
7
  6
CONTINUOUS
 10
426.412518257
 20
110.4755714286
 11
408.4125714286
 21
110.4755714286
  0
LINE
  5
222
100
AcDbEntity
  8
0
100
AcDbLine
 62
7
  6
CONTINUOUS
 10
408.4125714286
 20
111.5755714286
 11
424.9125847873
 21
111.5755714286
  0
LINE
  5
223
100
AcDbEntity
  8
0
100
AcDbLine
 62
7
  6
CONTINUOUS
 10
408.4126786326
 20
112.4755714286
 11
420.020524322
 21
112.4755714286
  0
LINE
  5
224
100
AcDbEntity
  8
0
100
AcDbLine
 62
7
  6
CONTINUOUS
 10
410.3125714286
 20
114.4755714286
 11
408.5125714286
 21
114.4755714286
  0
LINE
  5
225
100
AcDbEntity
  8
0
100
AcDbLine
 62
7
  6
CONTINUOUS
 10
410.9522067741
 20
114.4755714286
 11
413.7157388497
 21
114.4755714286
  0
LINE
  5
226
100
AcDbEntity
  8
0
100
AcDbLine
 62
7
  6
CONTINUOUS
 10
413.7157388497
 20
119.4755714286
 11
408.5125714286
 21
119.4755714286
  0
LINE
  5
227
100
AcDbEntity
  8
0
100
AcDbLine
 62
7
  6
CONTINUOUS
 10
420.020524322
 20
121.4755714286
 11
408.4126786326
 21
121.4755714286
  0
LINE
  5
228
100
AcDbEntity
  8
0
100
AcDbLine
 62
7
  6
CONTINUOUS
 10
424.9125847873
 20
122.3755714286
 11
408.4125714286
 21
122.3755714286
  0
LINE
  5
229
100
AcDbEntity
  8
0
100
AcDbLine
 62
7
  6
CONTINUOUS
 10
408.4125714286
 20
123.4755714286
 11
426.412518257
 21
123.4755714286
  0
LINE
  5
22A
100
AcDbEntity
  8
0
100
AcDbLine
 62
7
  6
CONTINUOUS
 10
426.412518257
 20
128.0755714286
 11
408.4125714286
 21
128.0755714286
  0
LINE
  5
22B
100
AcDbEntity
  8
0
100
AcDbLine
 62
7
  6
CONTINUOUS
 10
408.4125714286
 20
129.1755714286
 11
424.9125847873
 21
129.1755714286
  0
LINE
  5
22C
100
AcDbEntity
  8
0
100
AcDbLine
 62
7
  6
CONTINUOUS
 10
408.4126786326
 20
130.0755714286
 11
420.020524322
 21
130.0755714286
  0
LINE
  5
22D
100
AcDbEntity
  8
0
100
AcDbLine
 62
7
  6
CONTINUOUS
 10
410.3125714286
 20
132.0755714286
 11
408.5125714286
 21
132.0755714286
  0
LINE
  5
22E
100
AcDbEntity
  8
0
100
AcDbLine
 62
7
  6
CONTINUOUS
 10
410.9522067741
 20
132.0755714286
 11
413.7157388497
 21
132.0755714286
  0
LINE
  5
22F
100
AcDbEntity
  8
0
100
AcDbLine
 62
7
  6
CONTINUOUS
 10
413.7157388497
 20
137.0755714286
 11
408.5125714286
 21
137.0755714286
  0
LINE
  5
230
100
AcDbEntity
  8
0
100
AcDbLine
 62
7
  6
CONTINUOUS
 10
420.020524322
 20
139.0755714286
 11
408.4126786326
 21
139.0755714286
  0
LINE
  5
231
100
AcDbEntity
  8
0
100
AcDbLine
 62
7
  6
CONTINUOUS
 10
424.9125847873
 20
139.9755714286
 11
408.4125714286
 21
139.9755714286
  0
LINE
  5
232
100
AcDbEntity
  8
0
100
AcDbLine
 62
7
  6
CONTINUOUS
 10
408.4125714286
 20
141.0755714286
 11
426.412518257
 21
141.0755714286
  0
LINE
  5
233
100
AcDbEntity
  8
0
100
AcDbLine
 62
7
  6
CONTINUOUS
 10
426.412518257
 20
145.6755714286
 11
408.4125714286
 21
145.6755714286
  0
LINE
  5
234
100
AcDbEntity
  8
0
100
AcDbLine
 62
7
  6
CONTINUOUS
 10
408.4125714286
 20
146.7755714286
 11
424.9125847873
 21
146.7755714286
  0
LINE
  5
235
100
AcDbEntity
  8
0
100
AcDbLine
 62
7
  6
CONTINUOUS
 10
408.4126786326
 20
147.6755714286
 11
420.020524322
 21
147.6755714286
  0
LINE
  5
236
100
AcDbEntity
  8
0
100
AcDbLine
 62
7
  6
CONTINUOUS
 10
410.3125714286
 20
149.6755714286
 11
408.5125714286
 21
149.6755714286
  0
LINE
  5
237
100
AcDbEntity
  8
0
100
AcDbLine
 62
7
  6
CONTINUOUS
 10
410.9522067741
 20
149.6755714286
 11
413.7157388497
 21
149.6755714286
  0
LINE
  5
238
100
AcDbEntity
  8
0
100
AcDbLine
 62
7
  6
CONTINUOUS
 10
413.7157388497
 20
154.6755714286
 11
408.5125714286
 21
154.6755714286
  0
LINE
  5
239
100
AcDbEntity
  8
0
100
AcDbLine
 62
7
  6
CONTINUOUS
 10
420.020524322
 20
156.6755714286
 11
408.4126786326
 21
156.6755714286
  0
LINE
  5
23A
100
AcDbEntity
  8
0
100
AcDbLine
 62
7
  6
CONTINUOUS
 10
424.9125847873
 20
157.5755714286
 11
408.4125714286
 21
157.5755714286
  0
LINE
  5
23B
100
AcDbEntity
  8
0
100
AcDbLine
 62
7
  6
CONTINUOUS
 10
408.4125714286
 20
158.6755714286
 11
426.412518257
 21
158.6755714286
  0
LINE
  5
23C
100
AcDbEntity
  8
0
100
AcDbLine
 62
7
  6
CONTINUOUS
 10
426.412518257
 20
163.2755714286
 11
408.4125714286
 21
163.2755714286
  0
LINE
  5
23D
100
AcDbEntity
  8
0
100
AcDbLine
 62
7
  6
CONTINUOUS
 10
408.4125714286
 20
164.3755714286
 11
424.9125847873
 21
164.3755714286
  0
LINE
  5
23E
100
AcDbEntity
  8
0
100
AcDbLine
 62
7
  6
CONTINUOUS
 10
408.4126786326
 20
165.2755714286
 11
420.020524322
 21
165.2755714286
  0
LINE
  5
23F
100
AcDbEntity
  8
0
100
AcDbLine
 62
7
  6
CONTINUOUS
 10
410.3125714286
 20
167.2755714286
 11
408.5125714286
 21
167.2755714286
  0
LINE
  5
240
100
AcDbEntity
  8
0
100
AcDbLine
 62
7
  6
CONTINUOUS
 10
410.9522067741
 20
167.2755714286
 11
413.7157388497
 21
167.2755714286
  0
LINE
  5
241
100
AcDbEntity
  8
0
100
AcDbLine
 62
7
  6
CONTINUOUS
 10
413.7157388497
 20
172.2755714286
 11
408.5125714286
 21
172.2755714286
  0
LINE
  5
242
100
AcDbEntity
  8
0
100
AcDbLine
 62
7
  6
CONTINUOUS
 10
420.020524322
 20
174.2755714286
 11
408.4126786326
 21
174.2755714286
  0
LINE
  5
243
100
AcDbEntity
  8
0
100
AcDbLine
 62
7
  6
CONTINUOUS
 10
424.9125847873
 20
175.1755714286
 11
408.4125714286
 21
175.1755714286
  0
LINE
  5
244
100
AcDbEntity
  8
0
100
AcDbLine
 62
7
  6
CONTINUOUS
 10
408.4125714286
 20
176.2755714286
 11
426.412518257
 21
176.2755714286
  0
LINE
  5
245
100
AcDbEntity
  8
0
100
AcDbLine
 62
7
  6
CONTINUOUS
 10
426.412518257
 20
180.8755714286
 11
408.4125714286
 21
180.8755714286
  0
LINE
  5
246
100
AcDbEntity
  8
0
100
AcDbLine
 62
7
  6
CONTINUOUS
 10
408.4125714286
 20
181.9755714286
 11
424.9125847873
 21
181.9755714286
  0
LINE
  5
247
100
AcDbEntity
  8
0
100
AcDbLine
 62
7
  6
CONTINUOUS
 10
408.4126786326
 20
182.8755714286
 11
420.020524322
 21
182.8755714286
  0
LINE
  5
248
100
AcDbEntity
  8
0
100
AcDbLine
 62
7
  6
CONTINUOUS
 10
410.3125714286
 20
184.8755714286
 11
408.5125714286
 21
184.8755714286
  0
LINE
  5
249
100
AcDbEntity
  8
0
100
AcDbLine
 62
7
  6
CONTINUOUS
 10
410.9522067741
 20
184.8755714286
 11
413.7157388497
 21
184.8755714286
  0
LINE
  5
24A
100
AcDbEntity
  8
0
100
AcDbLine
 62
7
  6
CONTINUOUS
 10
413.7157388497
 20
189.8755714286
 11
408.5125714286
 21
189.8755714286
  0
LINE
  5
24B
100
AcDbEntity
  8
0
100
AcDbLine
 62
7
  6
CONTINUOUS
 10
420.020524322
 20
191.8755714286
 11
408.4126786326
 21
191.8755714286
  0
LINE
  5
24C
100
AcDbEntity
  8
0
100
AcDbLine
 62
7
  6
CONTINUOUS
 10
424.9125847873
 20
192.7755714286
 11
408.4125714286
 21
192.7755714286
  0
LINE
  5
24D
100
AcDbEntity
  8
0
100
AcDbLine
 62
7
  6
CONTINUOUS
 10
408.4125714286
 20
193.8755714286
 11
426.412518257
 21
193.8755714286
  0
LINE
  5
24E
100
AcDbEntity
  8
0
100
AcDbLine
 62
7
  6
CONTINUOUS
 10
426.412518257
 20
198.4755714286
 11
408.4125714286
 21
198.4755714286
  0
LINE
  5
24F
100
AcDbEntity
  8
0
100
AcDbLine
 62
7
  6
CONTINUOUS
 10
408.4125714286
 20
199.5755714286
 11
424.9125847873
 21
199.5755714286
  0
LINE
  5
250
100
AcDbEntity
  8
0
100
AcDbLine
 62
7
  6
CONTINUOUS
 10
408.4126786326
 20
200.4755714286
 11
420.020524322
 21
200.4755714286
  0
LINE
  5
251
100
AcDbEntity
  8
0
100
AcDbLine
 62
7
  6
CONTINUOUS
 10
410.3125714286
 20
202.4755714286
 11
408.5125714286
 21
202.4755714286
  0
LINE
  5
252
100
AcDbEntity
  8
0
100
AcDbLine
 62
7
  6
CONTINUOUS
 10
410.9522067741
 20
202.4755714286
 11
413.7157388497
 21
202.4755714286
  0
LINE
  5
253
100
AcDbEntity
  8
0
100
AcDbLine
 62
7
  6
CONTINUOUS
 10
413.7157388497
 20
207.4755714286
 11
408.5125714286
 21
207.4755714286
  0
LINE
  5
254
100
AcDbEntity
  8
0
100
AcDbLine
 62
7
  6
CONTINUOUS
 10
420.020524322
 20
209.4755714286
 11
408.4126786326
 21
209.4755714286
  0
LINE
  5
255
100
AcDbEntity
  8
0
100
AcDbLine
 62
7
  6
CONTINUOUS
 10
424.9125847873
 20
210.3755714286
 11
408.4125714286
 21
210.3755714286
  0
LINE
  5
256
100
AcDbEntity
  8
0
100
AcDbLine
 62
7
  6
CONTINUOUS
 10
408.4125714286
 20
211.4755714286
 11
426.412518257
 21
211.4755714286
  0
LINE
  5
257
100
AcDbEntity
  8
0
100
AcDbLine
 62
7
  6
CONTINUOUS
 10
426.412518257
 20
216.0755714286
 11
408.4125714286
 21
216.0755714286
  0
LINE
  5
258
100
AcDbEntity
  8
0
100
AcDbLine
 62
7
  6
CONTINUOUS
 10
408.4125714286
 20
217.1755714286
 11
424.9125847873
 21
217.1755714286
  0
LINE
  5
259
100
AcDbEntity
  8
0
100
AcDbLine
 62
7
  6
CONTINUOUS
 10
408.4126786326
 20
218.0755714286
 11
420.020524322
 21
218.0755714286
  0
LINE
  5
25A
100
AcDbEntity
  8
0
100
AcDbLine
 62
7
  6
CONTINUOUS
 10
410.3125714286
 20
220.0755714286
 11
408.5125714286
 21
220.0755714286
  0
LINE
  5
25B
100
AcDbEntity
  8
0
100
AcDbLine
 62
7
  6
CONTINUOUS
 10
410.9522067741
 20
220.0755714286
 11
413.7157388497
 21
220.0755714286
  0
LINE
  5
25C
100
AcDbEntity
  8
0
100
AcDbLine
 62
7
  6
CONTINUOUS
 10
413.7157388497
 20
225.0755714286
 11
408.5125714286
 21
225.0755714286
  0
LINE
  5
25D
100
AcDbEntity
  8
0
100
AcDbLine
 62
7
  6
CONTINUOUS
 10
420.020524322
 20
227.0755714286
 11
408.4126786326
 21
227.0755714286
  0
LINE
  5
25E
100
AcDbEntity
  8
0
100
AcDbLine
 62
7
  6
CONTINUOUS
 10
424.9125847873
 20
227.9755714286
 11
408.4125714286
 21
227.9755714286
  0
LINE
  5
25F
100
AcDbEntity
  8
0
100
AcDbLine
 62
7
  6
CONTINUOUS
 10
408.4125714286
 20
229.0755714286
 11
426.412518257
 21
229.0755714286
  0
LINE
  5
260
100
AcDbEntity
  8
0
100
AcDbLine
 62
7
  6
CONTINUOUS
 10
426.412518257
 20
233.6755714286
 11
408.4125714286
 21
233.6755714286
  0
LINE
  5
261
100
AcDbEntity
  8
0
100
AcDbLine
 62
7
  6
CONTINUOUS
 10
408.4125714286
 20
234.7755714286
 11
424.9125847873
 21
234.7755714286
  0
LINE
  5
262
100
AcDbEntity
  8
0
100
AcDbLine
 62
7
  6
CONTINUOUS
 10
408.4126786326
 20
235.6755714286
 11
420.020524322
 21
235.6755714286
  0
LINE
  5
263
100
AcDbEntity
  8
0
100
AcDbLine
 62
7
  6
CONTINUOUS
 10
410.3125714286
 20
237.6755714286
 11
408.5125714286
 21
237.6755714286
  0
LINE
  5
264
100
AcDbEntity
  8
0
100
AcDbLine
 62
7
  6
CONTINUOUS
 10
410.9522067741
 20
237.6755714286
 11
413.7157388497
 21
237.6755714286
  0
LINE
  5
265
100
AcDbEntity
  8
0
100
AcDbLine
 62
7
  6
CONTINUOUS
 10
413.7157388497
 20
242.6755714286
 11
408.5125714286
 21
242.6755714286
  0
LINE
  5
266
100
AcDbEntity
  8
0
100
AcDbLine
 62
7
  6
CONTINUOUS
 10
420.020524322
 20
244.6755714286
 11
408.4126786326
 21
244.6755714286
  0
LINE
  5
267
100
AcDbEntity
  8
0
100
AcDbLine
 62
7
  6
CONTINUOUS
 10
424.9125847873
 20
245.5755714286
 11
408.4125714286
 21
245.5755714286
  0
LINE
  5
268
100
AcDbEntity
  8
0
100
AcDbLine
 62
7
  6
CONTINUOUS
 10
408.4125714286
 20
246.6755714286
 11
426.412518257
 21
246.6755714286
  0
LINE
  5
269
100
AcDbEntity
  8
0
100
AcDbLine
 62
7
  6
CONTINUOUS
 10
426.412518257
 20
251.2755714286
 11
408.4125714286
 21
251.2755714286
  0
LINE
  5
26A
100
AcDbEntity
  8
0
100
AcDbLine
 62
7
  6
CONTINUOUS
 10
408.4125714286
 20
252.3755714286
 11
424.9125847873
 21
252.3755714286
  0
LINE
  5
26B
100
AcDbEntity
  8
0
100
AcDbLine
 62
7
  6
CONTINUOUS
 10
408.4126786326
 20
253.2755714286
 11
420.020524322
 21
253.2755714286
  0
LINE
  5
26C
100
AcDbEntity
  8
0
100
AcDbLine
 62
7
  6
CONTINUOUS
 10
410.3125714286
 20
255.2755714286
 11
408.5125714286
 21
255.2755714286
  0
LINE
  5
26D
100
AcDbEntity
  8
0
100
AcDbLine
 62
7
  6
CONTINUOUS
 10
410.9522067741
 20
255.2755714286
 11
413.7157388497
 21
255.2755714286
  0
LINE
  5
26E
100
AcDbEntity
  8
0
100
AcDbLine
 62
7
  6
CONTINUOUS
 10
413.7157388497
 20
260.2755714286
 11
408.5125714286
 21
260.2755714286
  0
LINE
  5
26F
100
AcDbEntity
  8
0
100
AcDbLine
 62
7
  6
CONTINUOUS
 10
420.020524322
 20
262.2755714286
 11
408.4126786326
 21
262.2755714286
  0
LINE
  5
270
100
AcDbEntity
  8
0
100
AcDbLine
 62
7
  6
CONTINUOUS
 10
424.9125847873
 20
263.1755714286
 11
408.4125714286
 21
263.1755714286
  0
LINE
  5
271
100
AcDbEntity
  8
0
100
AcDbLine
 62
7
  6
CONTINUOUS
 10
408.4125714286
 20
264.2755714286
 11
426.412518257
 21
264.2755714286
  0
LINE
  5
272
100
AcDbEntity
  8
0
100
AcDbLine
 62
7
  6
CONTINUOUS
 10
426.412518257
 20
268.8755714286
 11
408.4125714286
 21
268.8755714286
  0
LINE
  5
273
100
AcDbEntity
  8
0
100
AcDbLine
 62
7
  6
CONTINUOUS
 10
408.4125714286
 20
269.9755714286
 11
424.9125847873
 21
269.9755714286
  0
LINE
  5
274
100
AcDbEntity
  8
0
100
AcDbLine
 62
7
  6
CONTINUOUS
 10
408.4126786326
 20
270.8755714286
 11
420.020524322
 21
270.8755714286
  0
LINE
  5
275
100
AcDbEntity
  8
0
100
AcDbLine
 62
7
  6
CONTINUOUS
 10
410.3125714286
 20
272.8755714286
 11
408.5125714286
 21
272.8755714286
  0
LINE
  5
276
100
AcDbEntity
  8
0
100
AcDbLine
 62
7
  6
CONTINUOUS
 10
410.9522067741
 20
272.8755714286
 11
413.7157388497
 21
272.8755714286
  0
LINE
  5
277
100
AcDbEntity
  8
0
100
AcDbLine
 62
7
  6
CONTINUOUS
 10
413.7157388497
 20
277.8755714286
 11
408.5125714286
 21
277.8755714286
  0
LINE
  5
278
100
AcDbEntity
  8
0
100
AcDbLine
 62
7
  6
CONTINUOUS
 10
420.020524322
 20
279.8755714286
 11
408.4126786326
 21
279.8755714286
  0
LINE
  5
279
100
AcDbEntity
  8
0
100
AcDbLine
 62
7
  6
CONTINUOUS
 10
424.9125847873
 20
280.7755714286
 11
408.4125714286
 21
280.7755714286
  0
LINE
  5
27A
100
AcDbEntity
  8
0
100
AcDbLine
 62
7
  6
CONTINUOUS
 10
408.4125714286
 20
281.8755714286
 11
426.412518257
 21
281.8755714286
  0
LINE
  5
27B
100
AcDbEntity
  8
0
100
AcDbLine
 62
7
  6
CONTINUOUS
 10
426.412518257
 20
286.4755714286
 11
408.4125714286
 21
286.4755714286
  0
LINE
  5
27C
100
AcDbEntity
  8
0
100
AcDbLine
 62
7
  6
CONTINUOUS
 10
408.4125714286
 20
287.5755714286
 11
424.9125847873
 21
287.5755714286
  0
LINE
  5
27D
100
AcDbEntity
  8
0
100
AcDbLine
 62
7
  6
CONTINUOUS
 10
408.4126786326
 20
288.4755714286
 11
420.020524322
 21
288.4755714286
  0
LINE
  5
27E
100
AcDbEntity
  8
0
100
AcDbLine
 62
7
  6
CONTINUOUS
 10
410.3125714286
 20
290.4755714286
 11
408.5125714286
 21
290.4755714286
  0
LINE
  5
27F
100
AcDbEntity
  8
0
100
AcDbLine
 62
7
  6
CONTINUOUS
 10
410.9522067741
 20
290.4755714286
 11
413.7157388497
 21
290.4755714286
  0
LINE
  5
280
100
AcDbEntity
  8
0
100
AcDbLine
 62
7
  6
CONTINUOUS
 10
413.7157388497
 20
295.4755714286
 11
408.5125714286
 21
295.4755714286
  0
LINE
  5
281
100
AcDbEntity
  8
0
100
AcDbLine
 62
7
  6
CONTINUOUS
 10
420.020524322
 20
297.4755714286
 11
408.4126786326
 21
297.4755714286
  0
LINE
  5
282
100
AcDbEntity
  8
0
100
AcDbLine
 62
7
  6
CONTINUOUS
 10
424.9125847873
 20
298.3755714286
 11
408.4125714286
 21
298.3755714286
  0
LINE
  5
283
100
AcDbEntity
  8
0
100
AcDbLine
 62
7
  6
CONTINUOUS
 10
408.4125714286
 20
299.4755714286
 11
426.412518257
 21
299.4755714286
  0
LINE
  5
284
100
AcDbEntity
  8
0
100
AcDbLine
 62
7
  6
CONTINUOUS
 10
426.412518257
 20
304.0755714286
 11
408.4125714286
 21
304.0755714286
  0
LINE
  5
285
100
AcDbEntity
  8
0
100
AcDbLine
 62
7
  6
CONTINUOUS
 10
408.4125714286
 20
305.1755714286
 11
424.9125847873
 21
305.1755714286
  0
LINE
  5
286
100
AcDbEntity
  8
0
100
AcDbLine
 62
7
  6
CONTINUOUS
 10
408.4126786326
 20
306.0755714286
 11
420.020524322
 21
306.0755714286
  0
LINE
  5
287
100
AcDbEntity
  8
0
100
AcDbLine
 62
7
  6
CONTINUOUS
 10
410.3125714286
 20
308.0755714286
 11
408.5125714286
 21
308.0755714286
  0
LINE
  5
288
100
AcDbEntity
  8
0
100
AcDbLine
 62
7
  6
CONTINUOUS
 10
410.9522067741
 20
308.0755714286
 11
413.7157388497
 21
308.0755714286
  0
LINE
  5
289
100
AcDbEntity
  8
0
100
AcDbLine
 62
7
  6
CONTINUOUS
 10
413.7157388497
 20
313.0755714286
 11
408.5125714286
 21
313.0755714286
  0
LINE
  5
28A
100
AcDbEntity
  8
0
100
AcDbLine
 62
7
  6
CONTINUOUS
 10
420.020524322
 20
315.0755714286
 11
408.4126786326
 21
315.0755714286
  0
LINE
  5
28B
100
AcDbEntity
  8
0
100
AcDbLine
 62
7
  6
CONTINUOUS
 10
424.9125847873
 20
315.9755714286
 11
408.4125714286
 21
315.9755714286
  0
LINE
  5
28C
100
AcDbEntity
  8
0
100
AcDbLine
 62
7
  6
CONTINUOUS
 10
408.4125714286
 20
317.0755714286
 11
426.412518257
 21
317.0755714286
  0
LINE
  5
28D
100
AcDbEntity
  8
0
100
AcDbLine
 62
7
  6
CONTINUOUS
 10
426.412518257
 20
321.6755714286
 11
408.4125714286
 21
321.6755714286
  0
LINE
  5
28E
100
AcDbEntity
  8
0
100
AcDbLine
 62
7
  6
CONTINUOUS
 10
408.4125714286
 20
322.7755714286
 11
424.9125847873
 21
322.7755714286
  0
LINE
  5
28F
100
AcDbEntity
  8
0
100
AcDbLine
 62
7
  6
CONTINUOUS
 10
408.4126786326
 20
323.6755714286
 11
420.020524322
 21
323.6755714286
  0
LINE
  5
290
100
AcDbEntity
  8
0
100
AcDbLine
 62
7
  6
CONTINUOUS
 10
410.3125714286
 20
325.6755714286
 11
408.5125714286
 21
325.6755714286
  0
LINE
  5
291
100
AcDbEntity
  8
0
100
AcDbLine
 62
7
  6
CONTINUOUS
 10
410.9522067741
 20
325.6755714286
 11
413.7157388497
 21
325.6755714286
  0
LINE
  5
292
100
AcDbEntity
  8
0
100
AcDbLine
 62
7
  6
CONTINUOUS
 10
413.7157388497
 20
330.6755714286
 11
408.5125714286
 21
330.6755714286
  0
LINE
  5
293
100
AcDbEntity
  8
0
100
AcDbLine
 62
7
  6
CONTINUOUS
 10
420.020524322
 20
332.6755714286
 11
408.4126786326
 21
332.6755714286
  0
LINE
  5
294
100
AcDbEntity
  8
0
100
AcDbLine
 62
7
  6
CONTINUOUS
 10
424.9125847873
 20
333.5755714286
 11
408.4125714286
 21
333.5755714286
  0
LINE
  5
295
100
AcDbEntity
  8
0
100
AcDbLine
 62
7
  6
CONTINUOUS
 10
408.4125714286
 20
334.6755714286
 11
426.412518257
 21
334.6755714286
  0
LINE
  5
296
100
AcDbEntity
  8
0
100
AcDbLine
 62
7
  6
CONTINUOUS
 10
426.412518257
 20
339.2755714286
 11
408.4125714286
 21
339.2755714286
  0
LINE
  5
297
100
AcDbEntity
  8
0
100
AcDbLine
 62
7
  6
CONTINUOUS
 10
408.4125714286
 20
340.3755714286
 11
424.9125847873
 21
340.3755714286
  0
LINE
  5
298
100
AcDbEntity
  8
0
100
AcDbLine
 62
7
  6
CONTINUOUS
 10
408.4126786326
 20
341.2755714286
 11
420.020524322
 21
341.2755714286
  0
LINE
  5
299
100
AcDbEntity
  8
0
100
AcDbLine
 62
7
  6
CONTINUOUS
 10
410.3125714286
 20
343.2755714286
 11
408.5125714286
 21
343.2755714286
  0
LINE
  5
29A
100
AcDbEntity
  8
0
100
AcDbLine
 62
7
  6
CONTINUOUS
 10
410.9522067741
 20
343.2755714286
 11
413.7157388497
 21
343.2755714286
  0
LINE
  5
29B
100
AcDbEntity
  8
0
100
AcDbLine
 62
7
  6
CONTINUOUS
 10
413.7157388497
 20
348.2755714286
 11
408.5125714286
 21
348.2755714286
  0
LINE
  5
29C
100
AcDbEntity
  8
0
100
AcDbLine
 62
7
  6
CONTINUOUS
 10
420.020524322
 20
350.2755714286
 11
408.4126786326
 21
350.2755714286
  0
LINE
  5
29D
100
AcDbEntity
  8
0
100
AcDbLine
 62
7
  6
CONTINUOUS
 10
424.9125847873
 20
351.1755714286
 11
408.4125714286
 21
351.1755714286
  0
LINE
  5
29E
100
AcDbEntity
  8
0
100
AcDbLine
 62
7
  6
CONTINUOUS
 10
408.4125714286
 20
352.2755714286
 11
426.412518257
 21
352.2755714286
  0
LINE
  5
29F
100
AcDbEntity
  8
0
100
AcDbLine
 62
7
  6
CONTINUOUS
 10
426.412518257
 20
356.8755714286
 11
408.4125714286
 21
356.8755714286
  0
LINE
  5
2A0
100
AcDbEntity
  8
0
100
AcDbLine
 62
7
  6
CONTINUOUS
 10
408.4125714286
 20
357.9755714286
 11
424.9125847873
 21
357.9755714286
  0
LINE
  5
2A1
100
AcDbEntity
  8
0
100
AcDbLine
 62
7
  6
CONTINUOUS
 10
408.4126786326
 20
358.8755714286
 11
420.020524322
 21
358.8755714286
  0
LINE
  5
2A2
100
AcDbEntity
  8
0
100
AcDbLine
 62
7
  6
CONTINUOUS
 10
410.3125714286
 20
360.8755714286
 11
408.5125714286
 21
360.8755714286
  0
LINE
  5
2A3
100
AcDbEntity
  8
0
100
AcDbLine
 62
7
  6
CONTINUOUS
 10
410.9522067741
 20
360.8755714286
 11
413.7157388497
 21
360.8755714286
  0
LINE
  5
2A4
100
AcDbEntity
  8
0
100
AcDbLine
 62
7
  6
CONTINUOUS
 10
413.7157388497
 20
365.8755714286
 11
408.5125714286
 21
365.8755714286
  0
LINE
  5
2A5
100
AcDbEntity
  8
0
100
AcDbLine
 62
7
  6
CONTINUOUS
 10
420.020524322
 20
367.8755714286
 11
408.4126786326
 21
367.8755714286
  0
LINE
  5
2A6
100
AcDbEntity
  8
0
100
AcDbLine
 62
7
  6
CONTINUOUS
 10
424.9125847873
 20
368.7755714286
 11
408.4125714286
 21
368.7755714286
  0
LINE
  5
2A7
100
AcDbEntity
  8
0
100
AcDbLine
 62
7
  6
CONTINUOUS
 10
408.4125714286
 20
369.8755714286
 11
426.412518257
 21
369.8755714286
  0
LINE
  5
2A8
100
AcDbEntity
  8
0
100
AcDbLine
 62
7
  6
CONTINUOUS
 10
426.412518257
 20
374.4755714286
 11
408.4125714286
 21
374.4755714286
  0
LINE
  5
2A9
100
AcDbEntity
  8
0
100
AcDbLine
 62
7
  6
CONTINUOUS
 10
408.4125714286
 20
375.5755714286
 11
424.9125847873
 21
375.5755714286
  0
LINE
  5
2AA
100
AcDbEntity
  8
0
100
AcDbLine
 62
7
  6
CONTINUOUS
 10
408.4126786326
 20
376.4755714286
 11
420.020524322
 21
376.4755714286
  0
LINE
  5
2AB
100
AcDbEntity
  8
0
100
AcDbLine
 62
7
  6
CONTINUOUS
 10
410.3125714286
 20
378.4755714286
 11
408.5125714286
 21
378.4755714286
  0
LINE
  5
2AC
100
AcDbEntity
  8
0
100
AcDbLine
 62
7
  6
CONTINUOUS
 10
410.9522067741
 20
378.4755714286
 11
413.7157388497
 21
378.4755714286
  0
LINE
  5
2AD
100
AcDbEntity
  8
0
100
AcDbLine
 62
7
  6
CONTINUOUS
 10
413.7157388497
 20
383.4755714286
 11
408.5125714286
 21
383.4755714286
  0
LINE
  5
2AE
100
AcDbEntity
  8
0
100
AcDbLine
 62
7
  6
CONTINUOUS
 10
420.020524322
 20
385.4755714286
 11
408.4126786326
 21
385.4755714286
  0
LINE
  5
2AF
100
AcDbEntity
  8
0
100
AcDbLine
 62
7
  6
CONTINUOUS
 10
424.9125847873
 20
386.3755714286
 11
408.4125714286
 21
386.3755714286
  0
LINE
  5
2B0
100
AcDbEntity
  8
0
100
AcDbLine
 62
7
  6
CONTINUOUS
 10
408.4125714286
 20
387.4755714286
 11
426.412518257
 21
387.4755714286
  0
LINE
  5
2B1
100
AcDbEntity
  8
0
100
AcDbLine
 62
7
  6
CONTINUOUS
 10
426.412518257
 20
392.0755714286
 11
408.4125714286
 21
392.0755714286
  0
LINE
  5
2B2
100
AcDbEntity
  8
0
100
AcDbLine
 62
7
  6
CONTINUOUS
 10
408.4125714286
 20
393.1755714286
 11
424.9125847873
 21
393.1755714286
  0
LINE
  5
2B3
100
AcDbEntity
  8
0
100
AcDbLine
 62
7
  6
CONTINUOUS
 10
408.4126786326
 20
394.0755714286
 11
420.020524322
 21
394.0755714286
  0
LINE
  5
2B4
100
AcDbEntity
  8
0
100
AcDbLine
 62
7
  6
CONTINUOUS
 10
410.3125714286
 20
396.0755714286
 11
408.5125714286
 21
396.0755714286
  0
LINE
  5
2B5
100
AcDbEntity
  8
0
100
AcDbLine
 62
7
  6
CONTINUOUS
 10
410.9522067741
 20
396.0755714286
 11
413.7157388497
 21
396.0755714286
  0
LINE
  5
2B6
100
AcDbEntity
  8
0
100
AcDbLine
 62
7
  6
CONTINUOUS
 10
413.7157388497
 20
401.0755714286
 11
408.5125714286
 21
401.0755714286
  0
LINE
  5
2B7
100
AcDbEntity
  8
0
100
AcDbLine
 62
7
  6
CONTINUOUS
 10
420.020524322
 20
403.0755714286
 11
408.4126786326
 21
403.0755714286
  0
LINE
  5
2B8
100
AcDbEntity
  8
0
100
AcDbLine
 62
7
  6
CONTINUOUS
 10
424.9125847873
 20
403.9755714286
 11
408.4125714286
 21
403.9755714286
  0
LINE
  5
2B9
100
AcDbEntity
  8
0
100
AcDbLine
 62
7
  6
CONTINUOUS
 10
408.4125714286
 20
405.0755714286
 11
426.412518257
 21
405.0755714286
  0
LINE
  5
2BA
100
AcDbEntity
  8
0
100
AcDbLine
 62
7
  6
CONTINUOUS
 10
426.412518257
 20
409.6755714286
 11
408.4125714286
 21
409.6755714286
  0
LINE
  5
2BB
100
AcDbEntity
  8
0
100
AcDbLine
 62
7
  6
CONTINUOUS
 10
408.4125714286
 20
410.7755714286
 11
424.9125847873
 21
410.7755714286
  0
LINE
  5
2BC
100
AcDbEntity
  8
0
100
AcDbLine
 62
7
  6
CONTINUOUS
 10
408.4126786326
 20
411.6755714286
 11
420.020524322
 21
411.6755714286
  0
LINE
  5
2BD
100
AcDbEntity
  8
0
100
AcDbLine
 62
7
  6
CONTINUOUS
 10
410.3125714286
 20
413.6755714286
 11
408.5125714286
 21
413.6755714286
  0
LINE
  5
2BE
100
AcDbEntity
  8
0
100
AcDbLine
 62
7
  6
CONTINUOUS
 10
410.9522067741
 20
413.6755714286
 11
413.7157388497
 21
413.6755714286
  0
LINE
  5
2BF
100
AcDbEntity
  8
0
100
AcDbLine
 62
7
  6
CONTINUOUS
 10
413.7157388497
 20
418.6755714286
 11
408.5125714286
 21
418.6755714286
  0
LINE
  5
2C0
100
AcDbEntity
  8
0
100
AcDbLine
 62
7
  6
CONTINUOUS
 10
420.020524322
 20
420.6755714286
 11
408.4126786326
 21
420.6755714286
  0
LINE
  5
2C1
100
AcDbEntity
  8
0
100
AcDbLine
 62
7
  6
CONTINUOUS
 10
424.9125847873
 20
421.5755714286
 11
408.4125714286
 21
421.5755714286
  0
LINE
  5
2C2
100
AcDbEntity
  8
0
100
AcDbLine
 62
7
  6
CONTINUOUS
 10
408.4125714286
 20
422.6755714286
 11
426.412518257
 21
422.6755714286
  0
LINE
  5
2C3
100
AcDbEntity
  8
0
100
AcDbLine
 62
7
  6
CONTINUOUS
 10
426.412518257
 20
427.2755714286
 11
408.4125714286
 21
427.2755714286
  0
LINE
  5
2C4
100
AcDbEntity
  8
0
100
AcDbLine
 62
7
  6
CONTINUOUS
 10
408.4125714286
 20
428.3755714286
 11
424.9125847873
 21
428.3755714286
  0
LINE
  5
2C5
100
AcDbEntity
  8
0
100
AcDbLine
 62
7
  6
CONTINUOUS
 10
408.4126786326
 20
429.2755714286
 11
420.020524322
 21
429.2755714286
  0
LINE
  5
2C6
100
AcDbEntity
  8
0
100
AcDbLine
 62
7
  6
CONTINUOUS
 10
410.3125714286
 20
431.2755714286
 11
408.5125714286
 21
431.2755714286
  0
LINE
  5
2C7
100
AcDbEntity
  8
0
100
AcDbLine
 62
7
  6
CONTINUOUS
 10
410.9522067741
 20
431.2755714286
 11
413.7157388497
 21
431.2755714286
  0
LINE
  5
2C8
100
AcDbEntity
  8
0
100
AcDbLine
 62
7
  6
CONTINUOUS
 10
413.7157388497
 20
436.2755714286
 11
408.5125714286
 21
436.2755714286
  0
LINE
  5
2C9
100
AcDbEntity
  8
0
100
AcDbLine
 62
7
  6
CONTINUOUS
 10
420.020524322
 20
438.2755714286
 11
408.4126786326
 21
438.2755714286
  0
LINE
  5
2CA
100
AcDbEntity
  8
0
100
AcDbLine
 62
7
  6
CONTINUOUS
 10
424.9125847873
 20
439.1755714286
 11
408.4125714286
 21
439.1755714286
  0
LINE
  5
2CB
100
AcDbEntity
  8
0
100
AcDbLine
 62
7
  6
CONTINUOUS
 10
408.4125714286
 20
440.2755714286
 11
426.412518257
 21
440.2755714286
  0
LINE
  5
2CC
100
AcDbEntity
  8
0
100
AcDbLine
 62
7
  6
CONTINUOUS
 10
426.412518257
 20
444.8755714286
 11
408.4125714286
 21
444.8755714286
  0
LINE
  5
2CD
100
AcDbEntity
  8
0
100
AcDbLine
 62
7
  6
CONTINUOUS
 10
408.4125714286
 20
445.9755714286
 11
424.9125847873
 21
445.9755714286
  0
LINE
  5
2CE
100
AcDbEntity
  8
0
100
AcDbLine
 62
7
  6
CONTINUOUS
 10
408.4126786326
 20
446.8755714286
 11
420.020524322
 21
446.8755714286
  0
LINE
  5
2CF
100
AcDbEntity
  8
0
100
AcDbLine
 62
7
  6
CONTINUOUS
 10
410.3125714286
 20
448.8755714286
 11
408.5125714286
 21
448.8755714286
  0
LINE
  5
2D0
100
AcDbEntity
  8
0
100
AcDbLine
 62
7
  6
CONTINUOUS
 10
410.9522067741
 20
448.8755714286
 11
413.7157388497
 21
448.8755714286
  0
LINE
  5
2D1
100
AcDbEntity
  8
0
100
AcDbLine
 62
7
  6
CONTINUOUS
 10
413.7157388497
 20
453.8755714286
 11
408.5125714286
 21
453.8755714286
  0
LINE
  5
2D2
100
AcDbEntity
  8
0
100
AcDbLine
 62
7
  6
CONTINUOUS
 10
420.020524322
 20
455.8755714286
 11
408.4126786326
 21
455.8755714286
  0
LINE
  5
2D3
100
AcDbEntity
  8
0
100
AcDbLine
 62
7
  6
CONTINUOUS
 10
424.9125847873
 20
456.7755714286
 11
408.4125714286
 21
456.7755714286
  0
LINE
  5
2D4
100
AcDbEntity
  8
0
100
AcDbLine
 62
7
  6
CONTINUOUS
 10
408.4125714286
 20
457.8755714286
 11
426.412518257
 21
457.8755714286
  0
LINE
  5
2D5
100
AcDbEntity
  8
0
100
AcDbLine
 62
7
  6
CONTINUOUS
 10
426.412518257
 20
462.4755714286
 11
408.4125714286
 21
462.4755714286
  0
LINE
  5
2D6
100
AcDbEntity
  8
0
100
AcDbLine
 62
7
  6
CONTINUOUS
 10
408.4125714286
 20
463.5755714286
 11
424.9125847873
 21
463.5755714286
  0
LINE
  5
2D7
100
AcDbEntity
  8
0
100
AcDbLine
 62
7
  6
CONTINUOUS
 10
408.4126786326
 20
464.4755714286
 11
420.020524322
 21
464.4755714286
  0
LINE
  5
2D8
100
AcDbEntity
  8
0
100
AcDbLine
 62
7
  6
CONTINUOUS
 10
410.3125714286
 20
466.4755714286
 11
408.5125714286
 21
466.4755714286
  0
LINE
  5
2D9
100
AcDbEntity
  8
0
100
AcDbLine
 62
7
  6
CONTINUOUS
 10
410.9522067741
 20
466.4755714286
 11
413.7157388497
 21
466.4755714286
  0
LINE
  5
2DA
100
AcDbEntity
  8
0
100
AcDbLine
 62
7
  6
CONTINUOUS
 10
413.7157388497
 20
471.4755714286
 11
408.5125714286
 21
471.4755714286
  0
LINE
  5
2DB
100
AcDbEntity
  8
0
100
AcDbLine
 62
7
  6
CONTINUOUS
 10
420.020524322
 20
473.4755714286
 11
408.4126786326
 21
473.4755714286
  0
LINE
  5
2DC
100
AcDbEntity
  8
0
100
AcDbLine
 62
7
  6
CONTINUOUS
 10
424.9125847873
 20
474.3755714286
 11
408.4125714286
 21
474.3755714286
  0
LINE
  5
2DD
100
AcDbEntity
  8
0
100
AcDbLine
 62
7
  6
CONTINUOUS
 10
408.4125714286
 20
475.4755714286
 11
426.412518257
 21
475.4755714286
  0
LINE
  5
2DE
100
AcDbEntity
  8
0
100
AcDbLine
 62
7
  6
CONTINUOUS
 10
426.412518257
 20
480.0755714286
 11
408.4125714286
 21
480.0755714286
  0
LINE
  5
2DF
100
AcDbEntity
  8
0
100
AcDbLine
 62
7
  6
CONTINUOUS
 10
408.4125714286
 20
481.1755714286
 11
424.9125847873
 21
481.1755714286
  0
LINE
  5
2E0
100
AcDbEntity
  8
0
100
AcDbLine
 62
7
  6
CONTINUOUS
 10
408.4126786326
 20
482.0755714286
 11
420.020524322
 21
482.0755714286
  0
LINE
  5
2E1
100
AcDbEntity
  8
0
100
AcDbLine
 62
7
  6
CONTINUOUS
 10
410.3125714286
 20
484.0755714286
 11
408.5125714286
 21
484.0755714286
  0
LINE
  5
2E2
100
AcDbEntity
  8
0
100
AcDbLine
 62
7
  6
CONTINUOUS
 10
410.9522067741
 20
484.0755714286
 11
413.7157388497
 21
484.0755714286
  0
LINE
  5
2E3
100
AcDbEntity
  8
0
100
AcDbLine
 62
7
  6
CONTINUOUS
 10
413.7157388497
 20
489.0755714286
 11
408.5125714286
 21
489.0755714286
  0
LINE
  5
2E4
100
AcDbEntity
  8
0
100
AcDbLine
 62
7
  6
CONTINUOUS
 10
420.020524322
 20
491.0755714286
 11
408.4126786326
 21
491.0755714286
  0
LINE
  5
2E5
100
AcDbEntity
  8
0
100
AcDbLine
 62
7
  6
CONTINUOUS
 10
424.9125847873
 20
491.9755714286
 11
408.4125714286
 21
491.9755714286
  0
LINE
  5
2E6
100
AcDbEntity
  8
0
100
AcDbLine
 62
7
  6
CONTINUOUS
 10
408.4125714286
 20
493.0755714286
 11
426.412518257
 21
493.0755714286
  0
LINE
  5
2E7
100
AcDbEntity
  8
0
100
AcDbLine
 62
7
  6
CONTINUOUS
 10
426.412518257
 20
497.6755714286
 11
408.4125714286
 21
497.6755714286
  0
LINE
  5
2E8
100
AcDbEntity
  8
0
100
AcDbLine
 62
7
  6
CONTINUOUS
 10
408.4125714286
 20
498.7755714286
 11
424.9125847873
 21
498.7755714286
  0
LINE
  5
2E9
100
AcDbEntity
  8
0
100
AcDbLine
 62
7
  6
CONTINUOUS
 10
408.4126786326
 20
499.6755714286
 11
420.020524322
 21
499.6755714286
  0
LINE
  5
2EA
100
AcDbEntity
  8
0
100
AcDbLine
 62
7
  6
CONTINUOUS
 10
410.3125714286
 20
501.6755714286
 11
408.5125714286
 21
501.6755714286
  0
LINE
  5
2EB
100
AcDbEntity
  8
0
100
AcDbLine
 62
7
  6
CONTINUOUS
 10
410.9522067741
 20
501.6755714286
 11
413.7157388497
 21
501.6755714286
  0
LINE
  5
2EC
100
AcDbEntity
  8
0
100
AcDbLine
 62
7
  6
CONTINUOUS
 10
413.7157388497
 20
506.6755714286
 11
408.5125714286
 21
506.6755714286
  0
LINE
  5
2ED
100
AcDbEntity
  8
0
100
AcDbLine
 62
7
  6
CONTINUOUS
 10
420.020524322
 20
508.6755714286
 11
408.4126786326
 21
508.6755714286
  0
LINE
  5
2EE
100
AcDbEntity
  8
0
100
AcDbLine
 62
7
  6
CONTINUOUS
 10
424.9125847873
 20
509.5755714286
 11
408.4125714286
 21
509.5755714286
  0
LINE
  5
2EF
100
AcDbEntity
  8
0
100
AcDbLine
 62
7
  6
CONTINUOUS
 10
408.4125714286
 20
510.6755714286
 11
426.412518257
 21
510.6755714286
  0
LINE
  5
2F0
100
AcDbEntity
  8
0
100
AcDbLine
 62
7
  6
CONTINUOUS
 10
426.412518257
 20
515.2755714286
 11
408.4125714286
 21
515.2755714286
  0
LINE
  5
2F1
100
AcDbEntity
  8
0
100
AcDbLine
 62
7
  6
CONTINUOUS
 10
408.4125714286
 20
516.3755714286
 11
424.9125847873
 21
516.3755714286
  0
LINE
  5
2F2
100
AcDbEntity
  8
0
100
AcDbLine
 62
7
  6
CONTINUOUS
 10
408.4126786326
 20
517.2755714286
 11
420.020524322
 21
517.2755714286
  0
LINE
  5
2F3
100
AcDbEntity
  8
0
100
AcDbLine
 62
7
  6
CONTINUOUS
 10
410.3125714286
 20
519.2755714286
 11
408.5125714286
 21
519.2755714286
  0
LINE
  5
2F4
100
AcDbEntity
  8
0
100
AcDbLine
 62
7
  6
CONTINUOUS
 10
410.9522067741
 20
519.2755714286
 11
413.7157388497
 21
519.2755714286
  0
LINE
  5
2F5
100
AcDbEntity
  8
0
100
AcDbLine
 62
7
  6
CONTINUOUS
 10
413.7157388497
 20
524.2755714286
 11
408.5125714286
 21
524.2755714286
  0
LINE
  5
2F6
100
AcDbEntity
  8
0
100
AcDbLine
 62
7
  6
CONTINUOUS
 10
420.020524322
 20
526.2755714286
 11
408.4126786326
 21
526.2755714286
  0
LINE
  5
2F7
100
AcDbEntity
  8
0
100
AcDbLine
 62
7
  6
CONTINUOUS
 10
424.9125847873
 20
527.1755714286
 11
408.4125714286
 21
527.1755714286
  0
LINE
  5
2F8
100
AcDbEntity
  8
0
100
AcDbLine
 62
7
  6
CONTINUOUS
 10
408.4125714286
 20
528.2755714286
 11
426.412518257
 21
528.2755714286
  0
LINE
  5
2F9
100
AcDbEntity
  8
0
100
AcDbLine
 62
7
  6
CONTINUOUS
 10
426.412518257
 20
532.8755714286
 11
408.4125714286
 21
532.8755714286
  0
LINE
  5
2FA
100
AcDbEntity
  8
0
100
AcDbLine
 62
7
  6
CONTINUOUS
 10
408.4125714286
 20
533.9755714286
 11
424.9125847873
 21
533.9755714286
  0
LINE
  5
2FB
100
AcDbEntity
  8
0
100
AcDbLine
 62
7
  6
CONTINUOUS
 10
408.4126786326
 20
534.8755714286
 11
420.020524322
 21
534.8755714286
  0
LINE
  5
2FC
100
AcDbEntity
  8
0
100
AcDbLine
 62
7
  6
CONTINUOUS
 10
410.3125714286
 20
536.8755714286
 11
408.5125714286
 21
536.8755714286
  0
LINE
  5
2FD
100
AcDbEntity
  8
0
100
AcDbLine
 62
7
  6
CONTINUOUS
 10
410.9522067741
 20
536.8755714286
 11
413.7157388497
 21
536.8755714286
  0
LINE
  5
2FE
100
AcDbEntity
  8
0
100
AcDbLine
 62
7
  6
CONTINUOUS
 10
413.7157388497
 20
541.8755714286
 11
408.5125714286
 21
541.8755714286
  0
LINE
  5
2FF
100
AcDbEntity
  8
0
100
AcDbLine
 62
7
  6
CONTINUOUS
 10
420.020524322
 20
543.8755714286
 11
408.4126786326
 21
543.8755714286
  0
LINE
  5
300
100
AcDbEntity
  8
0
100
AcDbLine
 62
7
  6
CONTINUOUS
 10
424.9125847873
 20
544.7755714286
 11
408.4125714286
 21
544.7755714286
  0
LINE
  5
301
100
AcDbEntity
  8
0
100
AcDbLine
 62
7
  6
CONTINUOUS
 10
408.4125714286
 20
545.8755714286
 11
426.412518257
 21
545.8755714286
  0
LINE
  5
302
100
AcDbEntity
  8
0
100
AcDbLine
 62
7
  6
CONTINUOUS
 10
426.412518257
 20
550.4755714286
 11
408.4125714286
 21
550.4755714286
  0
LINE
  5
303
100
AcDbEntity
  8
0
100
AcDbLine
 62
7
  6
CONTINUOUS
 10
408.4125714286
 20
551.5755714286
 11
424.9125847873
 21
551.5755714286
  0
LINE
  5
304
100
AcDbEntity
  8
0
100
AcDbLine
 62
7
  6
CONTINUOUS
 10
408.4126786326
 20
552.4755714286
 11
420.020524322
 21
552.4755714286
  0
LINE
  5
305
100
AcDbEntity
  8
0
100
AcDbLine
 62
7
  6
CONTINUOUS
 10
410.3125714286
 20
554.4755714286
 11
408.5125714286
 21
554.4755714286
  0
LINE
  5
306
100
AcDbEntity
  8
0
100
AcDbLine
 62
7
  6
CONTINUOUS
 10
410.9522067741
 20
554.4755714286
 11
413.7157388497
 21
554.4755714286
  0
LINE
  5
307
100
AcDbEntity
  8
0
100
AcDbLine
 62
7
  6
CONTINUOUS
 10
413.7157388497
 20
559.4755714286
 11
408.5125714286
 21
559.4755714286
  0
LINE
  5
308
100
AcDbEntity
  8
0
100
AcDbLine
 62
7
  6
CONTINUOUS
 10
420.020524322
 20
561.4755714286
 11
408.4126786326
 21
561.4755714286
  0
LINE
  5
309
100
AcDbEntity
  8
0
100
AcDbLine
 62
7
  6
CONTINUOUS
 10
424.9125847873
 20
562.3755714286
 11
408.4125714286
 21
562.3755714286
  0
LINE
  5
30A
100
AcDbEntity
  8
0
100
AcDbLine
 62
7
  6
CONTINUOUS
 10
408.8361420826
 20
87.2755714286
 11
408.8323295033
 21
89.1422390192
  0
LINE
  5
30B
100
AcDbEntity
  8
0
100
AcDbLine
 62
7
  6
CONTINUOUS
 10
408.4126786326
 20
101.8755714286
 11
408.4125714286
 21
105.8755714286
  0
LINE
  5
30C
100
AcDbEntity
  8
0
100
AcDbLine
 62
7
  6
CONTINUOUS
 10
408.4126786326
 20
119.4755714286
 11
408.4125714286
 21
123.4755714286
  0
LINE
  5
30D
100
AcDbEntity
  8
0
100
AcDbLine
 62
7
  6
CONTINUOUS
 10
408.4126786326
 20
137.0755714286
 11
408.4125714286
 21
141.0755714286
  0
LINE
  5
30E
100
AcDbEntity
  8
0
100
AcDbLine
 62
7
  6
CONTINUOUS
 10
408.4126786326
 20
154.6755714286
 11
408.4125714286
 21
158.6755714286
  0
LINE
  5
30F
100
AcDbEntity
  8
0
100
AcDbLine
 62
7
  6
CONTINUOUS
 10
408.4126786326
 20
172.2755714286
 11
408.4125714286
 21
176.2755714286
  0
LINE
  5
310
100
AcDbEntity
  8
0
100
AcDbLine
 62
7
  6
CONTINUOUS
 10
408.4126786326
 20
189.8755714286
 11
408.4125714286
 21
193.8755714286
  0
LINE
  5
311
100
AcDbEntity
  8
0
100
AcDbLine
 62
7
  6
CONTINUOUS
 10
408.4126786326
 20
207.4755714286
 11
408.4125714286
 21
211.4755714286
  0
LINE
  5
312
100
AcDbEntity
  8
0
100
AcDbLine
 62
7
  6
CONTINUOUS
 10
408.4126786326
 20
225.0755714286
 11
408.4125714286
 21
229.0755714286
  0
LINE
  5
313
100
AcDbEntity
  8
0
100
AcDbLine
 62
7
  6
CONTINUOUS
 10
408.4126786326
 20
242.6755714286
 11
408.4125714286
 21
246.6755714286
  0
LINE
  5
314
100
AcDbEntity
  8
0
100
AcDbLine
 62
7
  6
CONTINUOUS
 10
408.4126786326
 20
260.2755714286
 11
408.4125714286
 21
264.2755714286
  0
LINE
  5
315
100
AcDbEntity
  8
0
100
AcDbLine
 62
7
  6
CONTINUOUS
 10
408.4126786326
 20
277.8755714286
 11
408.4125714286
 21
281.8755714286
  0
LINE
  5
316
100
AcDbEntity
  8
0
100
AcDbLine
 62
7
  6
CONTINUOUS
 10
408.4126786326
 20
295.4755714286
 11
408.4125714286
 21
299.4755714286
  0
LINE
  5
317
100
AcDbEntity
  8
0
100
AcDbLine
 62
7
  6
CONTINUOUS
 10
408.4126786326
 20
313.0755714286
 11
408.4125714286
 21
317.0755714286
  0
LINE
  5
318
100
AcDbEntity
  8
0
100
AcDbLine
 62
7
  6
CONTINUOUS
 10
408.4126786326
 20
330.6755714286
 11
408.4125714286
 21
334.6755714286
  0
LINE
  5
319
100
AcDbEntity
  8
0
100
AcDbLine
 62
7
  6
CONTINUOUS
 10
408.4126786326
 20
348.2755714286
 11
408.4125714286
 21
352.2755714286
  0
LINE
  5
31A
100
AcDbEntity
  8
0
100
AcDbLine
 62
7
  6
CONTINUOUS
 10
408.4126786326
 20
365.8755714286
 11
408.4125714286
 21
369.8755714286
  0
LINE
  5
31B
100
AcDbEntity
  8
0
100
AcDbLine
 62
7
  6
CONTINUOUS
 10
408.4126786326
 20
383.4755714286
 11
408.4125714286
 21
387.4755714286
  0
LINE
  5
31C
100
AcDbEntity
  8
0
100
AcDbLine
 62
7
  6
CONTINUOUS
 10
408.4126786326
 20
401.0755714286
 11
408.4125714286
 21
405.0755714286
  0
LINE
  5
31D
100
AcDbEntity
  8
0
100
AcDbLine
 62
7
  6
CONTINUOUS
 10
408.4126786326
 20
418.6755714286
 11
408.4125714286
 21
422.6755714286
  0
LINE
  5
31E
100
AcDbEntity
  8
0
100
AcDbLine
 62
7
  6
CONTINUOUS
 10
408.4126786326
 20
436.2755714286
 11
408.4125714286
 21
440.2755714286
  0
LINE
  5
31F
100
AcDbEntity
  8
0
100
AcDbLine
 62
7
  6
CONTINUOUS
 10
408.4126786326
 20
453.8755714286
 11
408.4125714286
 21
457.8755714286
  0
LINE
  5
320
100
AcDbEntity
  8
0
100
AcDbLine
 62
7
  6
CONTINUOUS
 10
408.4126786326
 20
471.4755714286
 11
408.4125714286
 21
475.4755714286
  0
LINE
  5
321
100
AcDbEntity
  8
0
100
AcDbLine
 62
7
  6
CONTINUOUS
 10
408.4126786326
 20
489.0755714286
 11
408.4125714286
 21
493.0755714286
  0
LINE
  5
322
100
AcDbEntity
  8
0
100
AcDbLine
 62
7
  6
CONTINUOUS
 10
408.4126786326
 20
506.6755714286
 11
408.4125714286
 21
510.6755714286
  0
LINE
  5
323
100
AcDbEntity
  8
0
100
AcDbLine
 62
7
  6
CONTINUOUS
 10
408.4126786326
 20
524.2755714286
 11
408.4125714286
 21
528.2755714286
  0
LINE
  5
324
100
AcDbEntity
  8
0
100
AcDbLine
 62
7
  6
CONTINUOUS
 10
408.4126786326
 20
541.8755714286
 11
408.4125714286
 21
545.8755714286
  0
LINE
  5
325
100
AcDbEntity
  8
0
100
AcDbLine
 62
7
  6
CONTINUOUS
 10
408.4126786326
 20
559.4755714286
 11
408.4125714286
 21
563.4755714286
  0
LINE
  5
326
100
AcDbEntity
  8
0
100
AcDbLine
 62
7
  6
CONTINUOUS
 10
408.4125714286
 20
568.0755714286
 11
408.4126786326
 21
572.0755714286
  0
LINE
  5
327
100
AcDbEntity
  8
0
100
AcDbLine
 62
7
  6
CONTINUOUS
 10
408.4126786326
 20
577.0755714286
 11
408.4125714286
 21
581.0755714286
  0
LINE
  5
328
100
AcDbEntity
  8
0
100
AcDbLine
 62
7
  6
CONTINUOUS
 10
408.4125714286
 20
585.6755714286
 11
408.4126786326
 21
589.6755714286
  0
LINE
  5
329
100
AcDbEntity
  8
0
100
AcDbLine
 62
7
  6
CONTINUOUS
 10
408.4126786326
 20
594.6755714286
 11
408.4125714286
 21
598.6755714286
  0
LINE
  5
32A
100
AcDbEntity
  8
0
100
AcDbLine
 62
7
  6
CONTINUOUS
 10
408.4125714286
 20
603.2755714286
 11
408.4126786326
 21
607.2755714286
  0
LINE
  5
32B
100
AcDbEntity
  8
0
100
AcDbLine
 62
7
  6
CONTINUOUS
 10
408.4126786326
 20
612.2755714286
 11
408.4125714286
 21
616.2755714286
  0
LINE
  5
32C
100
AcDbEntity
  8
0
100
AcDbLine
 62
7
  6
CONTINUOUS
 10
408.4125714286
 20
620.8755714286
 11
408.4126786326
 21
624.8755714286
  0
LINE
  5
32D
100
AcDbEntity
  8
0
100
AcDbLine
 62
7
  6
CONTINUOUS
 10
408.4125714286
 20
638.4755714286
 11
408.4126786326
 21
642.4755714286
  0
LINE
  5
32E
100
AcDbEntity
  8
0
100
AcDbLine
 62
7
  6
CONTINUOUS
 10
408.4125714286
 20
656.0755714286
 11
408.4126786326
 21
660.0755714286
  0
LINE
  5
32F
100
AcDbEntity
  8
0
100
AcDbLine
 62
7
  6
CONTINUOUS
 10
408.4125714286
 20
673.6755714286
 11
408.4126786326
 21
677.6755714286
  0
LINE
  5
330
100
AcDbEntity
  8
0
100
AcDbLine
 62
7
  6
CONTINUOUS
 10
408.4125714286
 20
691.2755714286
 11
408.4126786326
 21
695.2755714286
  0
LINE
  5
331
100
AcDbEntity
  8
0
100
AcDbLine
 62
7
  6
CONTINUOUS
 10
408.4125714286
 20
708.8755714286
 11
408.4126786326
 21
712.8755714286
  0
LINE
  5
332
100
AcDbEntity
  8
0
100
AcDbLine
 62
7
  6
CONTINUOUS
 10
408.4125714286
 20
726.4755714286
 11
408.4126786326
 21
730.4755714286
  0
LINE
  5
333
100
AcDbEntity
  8
0
100
AcDbLine
 62
7
  6
CONTINUOUS
 10
408.4125714286
 20
744.0755714286
 11
408.4126786326
 21
748.0755714286
  0
LINE
  5
334
100
AcDbEntity
  8
0
100
AcDbLine
 62
7
  6
CONTINUOUS
 10
408.4125714286
 20
761.6755714286
 11
408.4126786326
 21
765.6755714286
  0
LINE
  5
335
100
AcDbEntity
  8
0
100
AcDbLine
 62
7
  6
CONTINUOUS
 10
408.4125714286
 20
779.2755714286
 11
408.4126786326
 21
783.2755714286
  0
LINE
  5
336
100
AcDbEntity
  8
0
100
AcDbLine
 62
7
  6
CONTINUOUS
 10
408.4125714286
 20
796.8755714286
 11
408.4126786326
 21
800.8755714286
  0
LINE
  5
337
100
AcDbEntity
  8
0
100
AcDbLine
 62
7
  6
CONTINUOUS
 10
408.4125714286
 20
814.4755714286
 11
408.4126786326
 21
818.4755714286
  0
LINE
  5
338
100
AcDbEntity
  8
0
100
AcDbLine
 62
7
  6
CONTINUOUS
 10
408.4125714286
 20
832.0755714286
 11
408.4126786326
 21
836.0755714286
  0
LINE
  5
339
100
AcDbEntity
  8
0
100
AcDbLine
 62
7
  6
CONTINUOUS
 10
408.4125714286
 20
849.6755714286
 11
408.4126786326
 21
853.6755714286
  0
LINE
  5
33A
100
AcDbEntity
  8
0
100
AcDbLine
 62
7
  6
CONTINUOUS
 10
408.4125714286
 20
867.2755714286
 11
408.4126786326
 21
871.2755714286
  0
LINE
  5
33B
100
AcDbEntity
  8
0
100
AcDbLine
 62
7
  6
CONTINUOUS
 10
408.4125714286
 20
884.8755714286
 11
408.4126786326
 21
888.8755714286
  0
LINE
  5
33C
100
AcDbEntity
  8
0
100
AcDbLine
 62
7
  6
CONTINUOUS
 10
408.4125714286
 20
902.4755714286
 11
408.4126786326
 21
906.4755714286
  0
LINE
  5
33D
100
AcDbEntity
  8
0
100
AcDbLine
 62
7
  6
CONTINUOUS
 10
408.4125714286
 20
920.0755714286
 11
408.4126786326
 21
924.0755714286
  0
LINE
  5
33E
100
AcDbEntity
  8
0
100
AcDbLine
 62
7
  6
CONTINUOUS
 10
408.4125714286
 20
937.6755714286
 11
408.4126786326
 21
941.6755714286
  0
LINE
  5
33F
100
AcDbEntity
  8
0
100
AcDbLine
 62
7
  6
CONTINUOUS
 10
408.4125714286
 20
955.2755714286
 11
408.4126786326
 21
959.2755714286
  0
LINE
  5
340
100
AcDbEntity
  8
0
100
AcDbLine
 62
7
  6
CONTINUOUS
 10
408.4125714286
 20
972.8755714286
 11
408.4126786326
 21
976.8755714286
  0
LINE
  5
341
100
AcDbEntity
  8
0
100
AcDbLine
 62
7
  6
CONTINUOUS
 10
408.4125714286
 20
990.4755714286
 11
408.4126786326
 21
994.4755714286
  0
LINE
  5
342
100
AcDbEntity
  8
0
100
AcDbLine
 62
7
  6
CONTINUOUS
 10
408.4125714286
 20
1008.0755714286
 11
408.4126786326
 21
1012.0755714286
  0
LINE
  5
343
100
AcDbEntity
  8
0
100
AcDbLine
 62
7
  6
CONTINUOUS
 10
408.4125714286
 20
1025.6755714286
 11
408.4126786326
 21
1029.6755714286
  0
LINE
  5
344
100
AcDbEntity
  8
0
100
AcDbLine
 62
7
  6
CONTINUOUS
 10
408.4125714286
 20
1043.2755714286
 11
408.4126786326
 21
1047.2755714286
  0
LINE
  5
345
100
AcDbEntity
  8
0
100
AcDbLine
 62
7
  6
CONTINUOUS
 10
408.4125714286
 20
1060.8755714286
 11
408.4126786326
 21
1064.8755714286
  0
LINE
  5
346
100
AcDbEntity
  8
0
100
AcDbLine
 62
7
  6
CONTINUOUS
 10
408.4125714286
 20
1078.4755714286
 11
408.4126786326
 21
1082.4755714286
  0
LINE
  5
347
100
AcDbEntity
  8
0
100
AcDbLine
 62
7
  6
CONTINUOUS
 10
408.4125714286
 20
550.4755714286
 11
408.4126786326
 21
554.4755714286
  0
LINE
  5
348
100
AcDbEntity
  8
0
100
AcDbLine
 62
7
  6
CONTINUOUS
 10
408.4126786326
 20
629.8755714286
 11
408.4125714286
 21
633.8755714286
  0
LINE
  5
349
100
AcDbEntity
  8
0
100
AcDbLine
 62
7
  6
CONTINUOUS
 10
408.4125714286
 20
532.8755714286
 11
408.4126786326
 21
536.8755714286
  0
LINE
  5
34A
100
AcDbEntity
  8
0
100
AcDbLine
 62
7
  6
CONTINUOUS
 10
408.4126786326
 20
647.4755714286
 11
408.4125714286
 21
651.4755714286
  0
LINE
  5
34B
100
AcDbEntity
  8
0
100
AcDbLine
 62
7
  6
CONTINUOUS
 10
408.4125714286
 20
515.2755714286
 11
408.4126786326
 21
519.2755714286
  0
LINE
  5
34C
100
AcDbEntity
  8
0
100
AcDbLine
 62
7
  6
CONTINUOUS
 10
408.4126786326
 20
665.0755714286
 11
408.4125714286
 21
669.0755714286
  0
LINE
  5
34D
100
AcDbEntity
  8
0
100
AcDbLine
 62
7
  6
CONTINUOUS
 10
408.4125714286
 20
497.6755714286
 11
408.4126786326
 21
501.6755714286
  0
LINE
  5
34E
100
AcDbEntity
  8
0
100
AcDbLine
 62
7
  6
CONTINUOUS
 10
408.4126786326
 20
682.6755714286
 11
408.4125714286
 21
686.6755714286
  0
LINE
  5
34F
100
AcDbEntity
  8
0
100
AcDbLine
 62
7
  6
CONTINUOUS
 10
408.4125714286
 20
480.0755714286
 11
408.4126786326
 21
484.0755714286
  0
LINE
  5
350
100
AcDbEntity
  8
0
100
AcDbLine
 62
7
  6
CONTINUOUS
 10
408.4126786326
 20
700.2755714286
 11
408.4125714286
 21
704.2755714286
  0
LINE
  5
351
100
AcDbEntity
  8
0
100
AcDbLine
 62
7
  6
CONTINUOUS
 10
408.4125714286
 20
462.4755714286
 11
408.4126786326
 21
466.4755714286
  0
LINE
  5
352
100
AcDbEntity
  8
0
100
AcDbLine
 62
7
  6
CONTINUOUS
 10
408.4126786326
 20
717.8755714286
 11
408.4125714286
 21
721.8755714286
  0
LINE
  5
353
100
AcDbEntity
  8
0
100
AcDbLine
 62
7
  6
CONTINUOUS
 10
408.4125714286
 20
444.8755714286
 11
408.4126786326
 21
448.8755714286
  0
LINE
  5
354
100
AcDbEntity
  8
0
100
AcDbLine
 62
7
  6
CONTINUOUS
 10
408.4126786326
 20
735.4755714286
 11
408.4125714286
 21
739.4755714286
  0
LINE
  5
355
100
AcDbEntity
  8
0
100
AcDbLine
 62
7
  6
CONTINUOUS
 10
408.4125714286
 20
427.2755714286
 11
408.4126786326
 21
431.2755714286
  0
LINE
  5
356
100
AcDbEntity
  8
0
100
AcDbLine
 62
7
  6
CONTINUOUS
 10
408.4126786326
 20
753.0755714286
 11
408.4125714286
 21
757.0755714286
  0
LINE
  5
357
100
AcDbEntity
  8
0
100
AcDbLine
 62
7
  6
CONTINUOUS
 10
408.4125714286
 20
409.6755714286
 11
408.4126786326
 21
413.6755714286
  0
LINE
  5
358
100
AcDbEntity
  8
0
100
AcDbLine
 62
7
  6
CONTINUOUS
 10
408.4126786326
 20
770.6755714286
 11
408.4125714286
 21
774.6755714286
  0
LINE
  5
359
100
AcDbEntity
  8
0
100
AcDbLine
 62
7
  6
CONTINUOUS
 10
408.4125714286
 20
392.0755714286
 11
408.4126786326
 21
396.0755714286
  0
LINE
  5
35A
100
AcDbEntity
  8
0
100
AcDbLine
 62
7
  6
CONTINUOUS
 10
408.4126786326
 20
788.2755714286
 11
408.4125714286
 21
792.2755714286
  0
LINE
  5
35B
100
AcDbEntity
  8
0
100
AcDbLine
 62
7
  6
CONTINUOUS
 10
408.4125714286
 20
374.4755714286
 11
408.4126786326
 21
378.4755714286
  0
LINE
  5
35C
100
AcDbEntity
  8
0
100
AcDbLine
 62
7
  6
CONTINUOUS
 10
408.4126786326
 20
805.8755714286
 11
408.4125714286
 21
809.8755714286
  0
LINE
  5
35D
100
AcDbEntity
  8
0
100
AcDbLine
 62
7
  6
CONTINUOUS
 10
408.4125714286
 20
356.8755714286
 11
408.4126786326
 21
360.8755714286
  0
LINE
  5
35E
100
AcDbEntity
  8
0
100
AcDbLine
 62
7
  6
CONTINUOUS
 10
408.4126786326
 20
823.4755714286
 11
408.4125714286
 21
827.4755714286
  0
LINE
  5
35F
100
AcDbEntity
  8
0
100
AcDbLine
 62
7
  6
CONTINUOUS
 10
408.4125714286
 20
339.2755714286
 11
408.4126786326
 21
343.2755714286
  0
LINE
  5
360
100
AcDbEntity
  8
0
100
AcDbLine
 62
7
  6
CONTINUOUS
 10
408.4126786326
 20
841.0755714286
 11
408.4125714286
 21
845.0755714286
  0
LINE
  5
361
100
AcDbEntity
  8
0
100
AcDbLine
 62
7
  6
CONTINUOUS
 10
408.4125714286
 20
321.6755714286
 11
408.4126786326
 21
325.6755714286
  0
LINE
  5
362
100
AcDbEntity
  8
0
100
AcDbLine
 62
7
  6
CONTINUOUS
 10
408.4126786326
 20
858.6755714286
 11
408.4125714286
 21
862.6755714286
  0
LINE
  5
363
100
AcDbEntity
  8
0
100
AcDbLine
 62
7
  6
CONTINUOUS
 10
408.4125714286
 20
304.0755714286
 11
408.4126786326
 21
308.0755714286
  0
LINE
  5
364
100
AcDbEntity
  8
0
100
AcDbLine
 62
7
  6
CONTINUOUS
 10
408.4126786326
 20
876.2755714286
 11
408.4125714286
 21
880.2755714286
  0
LINE
  5
365
100
AcDbEntity
  8
0
100
AcDbLine
 62
7
  6
CONTINUOUS
 10
408.4125714286
 20
286.4755714286
 11
408.4126786326
 21
290.4755714286
  0
LINE
  5
366
100
AcDbEntity
  8
0
100
AcDbLine
 62
7
  6
CONTINUOUS
 10
408.4126786326
 20
893.8755714286
 11
408.4125714286
 21
897.8755714286
  0
LINE
  5
367
100
AcDbEntity
  8
0
100
AcDbLine
 62
7
  6
CONTINUOUS
 10
408.4125714286
 20
268.8755714286
 11
408.4126786326
 21
272.8755714286
  0
LINE
  5
368
100
AcDbEntity
  8
0
100
AcDbLine
 62
7
  6
CONTINUOUS
 10
408.4126786326
 20
911.4755714286
 11
408.4125714286
 21
915.4755714286
  0
LINE
  5
369
100
AcDbEntity
  8
0
100
AcDbLine
 62
7
  6
CONTINUOUS
 10
408.4125714286
 20
251.2755714286
 11
408.4126786326
 21
255.2755714286
  0
LINE
  5
36A
100
AcDbEntity
  8
0
100
AcDbLine
 62
7
  6
CONTINUOUS
 10
408.4126786326
 20
929.0755714286
 11
408.4125714286
 21
933.0755714286
  0
LINE
  5
36B
100
AcDbEntity
  8
0
100
AcDbLine
 62
7
  6
CONTINUOUS
 10
408.4125714286
 20
233.6755714286
 11
408.4126786326
 21
237.6755714286
  0
LINE
  5
36C
100
AcDbEntity
  8
0
100
AcDbLine
 62
7
  6
CONTINUOUS
 10
408.4126786326
 20
946.6755714286
 11
408.4125714286
 21
950.6755714286
  0
LINE
  5
36D
100
AcDbEntity
  8
0
100
AcDbLine
 62
7
  6
CONTINUOUS
 10
408.4125714286
 20
216.0755714286
 11
408.4126786326
 21
220.0755714286
  0
LINE
  5
36E
100
AcDbEntity
  8
0
100
AcDbLine
 62
7
  6
CONTINUOUS
 10
408.4126786326
 20
964.2755714286
 11
408.4125714286
 21
968.2755714286
  0
LINE
  5
36F
100
AcDbEntity
  8
0
100
AcDbLine
 62
7
  6
CONTINUOUS
 10
408.4125714286
 20
198.4755714286
 11
408.4126786326
 21
202.4755714286
  0
LINE
  5
370
100
AcDbEntity
  8
0
100
AcDbLine
 62
7
  6
CONTINUOUS
 10
408.4126786326
 20
981.8755714286
 11
408.4125714286
 21
985.8755714286
  0
LINE
  5
371
100
AcDbEntity
  8
0
100
AcDbLine
 62
7
  6
CONTINUOUS
 10
408.4125714286
 20
180.8755714286
 11
408.4126786326
 21
184.8755714286
  0
LINE
  5
372
100
AcDbEntity
  8
0
100
AcDbLine
 62
7
  6
CONTINUOUS
 10
408.4126786326
 20
999.4755714286
 11
408.4125714286
 21
1003.4755714286
  0
LINE
  5
373
100
AcDbEntity
  8
0
100
AcDbLine
 62
7
  6
CONTINUOUS
 10
408.4125714286
 20
163.2755714286
 11
408.4126786326
 21
167.2755714286
  0
LINE
  5
374
100
AcDbEntity
  8
0
100
AcDbLine
 62
7
  6
CONTINUOUS
 10
408.4126786326
 20
1017.0755714286
 11
408.4125714286
 21
1021.0755714286
  0
LINE
  5
375
100
AcDbEntity
  8
0
100
AcDbLine
 62
7
  6
CONTINUOUS
 10
408.4125714286
 20
145.6755714286
 11
408.4126786326
 21
149.6755714286
  0
LINE
  5
376
100
AcDbEntity
  8
0
100
AcDbLine
 62
7
  6
CONTINUOUS
 10
408.4126786326
 20
1034.6755714286
 11
408.4125714286
 21
1038.6755714286
  0
LINE
  5
377
100
AcDbEntity
  8
0
100
AcDbLine
 62
7
  6
CONTINUOUS
 10
408.4125714286
 20
128.0755714286
 11
408.4126786326
 21
132.0755714286
  0
LINE
  5
378
100
AcDbEntity
  8
0
100
AcDbLine
 62
7
  6
CONTINUOUS
 10
408.4126786326
 20
1052.2755714286
 11
408.4125714286
 21
1056.2755714286
  0
LINE
  5
379
100
AcDbEntity
  8
0
100
AcDbLine
 62
7
  6
CONTINUOUS
 10
408.4125714286
 20
110.4755714286
 11
408.4126786326
 21
114.4755714286
  0
LINE
  5
37A
100
AcDbEntity
  8
0
100
AcDbLine
 62
7
  6
CONTINUOUS
 10
408.4126786326
 20
1069.8755714286
 11
408.4125714286
 21
1073.8755714286
  0
LINE
  5
37B
100
AcDbEntity
  8
0
100
AcDbLine
 62
7
  6
CONTINUOUS
 10
408.4125714286
 20
92.8755714286
 11
408.4126786326
 21
96.8755714286
  0
LINE
  5
37C
100
AcDbEntity
  8
0
100
AcDbLine
 62
7
  6
CONTINUOUS
 10
408.4126786326
 20
1087.4755714286
 11
408.4125714286
 21
1091.4755714286
  0
LINE
  5
37D
100
AcDbEntity
  8
0
100
AcDbLine
 62
7
  6
CONTINUOUS
 10
408.5125714286
 20
87.2755714286
 11
408.5125714286
 21
92.8755714286
  0
LINE
  5
37E
100
AcDbEntity
  8
0
100
AcDbLine
 62
7
  6
CONTINUOUS
 10
408.5125714286
 20
96.8755714286
 11
408.5125714286
 21
101.8755714286
  0
LINE
  5
37F
100
AcDbEntity
  8
0
100
AcDbLine
 62
7
  6
CONTINUOUS
 10
408.5125714286
 20
105.8755714286
 11
408.5125714286
 21
110.4755714286
  0
LINE
  5
380
100
AcDbEntity
  8
0
100
AcDbLine
 62
7
  6
CONTINUOUS
 10
408.5125714286
 20
114.4755714286
 11
408.5125714286
 21
119.4755714286
  0
LINE
  5
381
100
AcDbEntity
  8
0
100
AcDbLine
 62
7
  6
CONTINUOUS
 10
408.5125714286
 20
123.4755714286
 11
408.5125714286
 21
128.0755714286
  0
LINE
  5
382
100
AcDbEntity
  8
0
100
AcDbLine
 62
7
  6
CONTINUOUS
 10
408.5125714286
 20
132.0755714286
 11
408.5125714286
 21
137.0755714286
  0
LINE
  5
383
100
AcDbEntity
  8
0
100
AcDbLine
 62
7
  6
CONTINUOUS
 10
408.5125714286
 20
141.0755714286
 11
408.5125714286
 21
145.6755714286
  0
LINE
  5
384
100
AcDbEntity
  8
0
100
AcDbLine
 62
7
  6
CONTINUOUS
 10
408.5125714286
 20
149.6755714286
 11
408.5125714286
 21
154.6755714286
  0
LINE
  5
385
100
AcDbEntity
  8
0
100
AcDbLine
 62
7
  6
CONTINUOUS
 10
408.5125714286
 20
158.6755714286
 11
408.5125714286
 21
163.2755714286
  0
LINE
  5
386
100
AcDbEntity
  8
0
100
AcDbLine
 62
7
  6
CONTINUOUS
 10
408.5125714286
 20
167.2755714286
 11
408.5125714286
 21
172.2755714286
  0
LINE
  5
387
100
AcDbEntity
  8
0
100
AcDbLine
 62
7
  6
CONTINUOUS
 10
408.5125714286
 20
176.2755714286
 11
408.5125714286
 21
180.8755714286
  0
LINE
  5
388
100
AcDbEntity
  8
0
100
AcDbLine
 62
7
  6
CONTINUOUS
 10
408.5125714286
 20
184.8755714286
 11
408.5125714286
 21
189.8755714286
  0
LINE
  5
389
100
AcDbEntity
  8
0
100
AcDbLine
 62
7
  6
CONTINUOUS
 10
408.5125714286
 20
193.8755714286
 11
408.5125714286
 21
198.4755714286
  0
LINE
  5
38A
100
AcDbEntity
  8
0
100
AcDbLine
 62
7
  6
CONTINUOUS
 10
408.5125714286
 20
202.4755714286
 11
408.5125714286
 21
207.4755714286
  0
LINE
  5
38B
100
AcDbEntity
  8
0
100
AcDbLine
 62
7
  6
CONTINUOUS
 10
408.5125714286
 20
211.4755714286
 11
408.5125714286
 21
216.0755714286
  0
LINE
  5
38C
100
AcDbEntity
  8
0
100
AcDbLine
 62
7
  6
CONTINUOUS
 10
408.5125714286
 20
220.0755714286
 11
408.5125714286
 21
225.0755714286
  0
LINE
  5
38D
100
AcDbEntity
  8
0
100
AcDbLine
 62
7
  6
CONTINUOUS
 10
408.5125714286
 20
229.0755714286
 11
408.5125714286
 21
233.6755714286
  0
LINE
  5
38E
100
AcDbEntity
  8
0
100
AcDbLine
 62
7
  6
CONTINUOUS
 10
408.5125714286
 20
237.6755714286
 11
408.5125714286
 21
242.6755714286
  0
LINE
  5
38F
100
AcDbEntity
  8
0
100
AcDbLine
 62
7
  6
CONTINUOUS
 10
408.5125714286
 20
246.6755714286
 11
408.5125714286
 21
251.2755714286
  0
LINE
  5
390
100
AcDbEntity
  8
0
100
AcDbLine
 62
7
  6
CONTINUOUS
 10
408.5125714286
 20
255.2755714286
 11
408.5125714286
 21
260.2755714286
  0
LINE
  5
391
100
AcDbEntity
  8
0
100
AcDbLine
 62
7
  6
CONTINUOUS
 10
408.5125714286
 20
264.2755714286
 11
408.5125714286
 21
268.8755714286
  0
LINE
  5
392
100
AcDbEntity
  8
0
100
AcDbLine
 62
7
  6
CONTINUOUS
 10
408.5125714286
 20
272.8755714286
 11
408.5125714286
 21
277.8755714286
  0
LINE
  5
393
100
AcDbEntity
  8
0
100
AcDbLine
 62
7
  6
CONTINUOUS
 10
408.5125714286
 20
281.8755714286
 11
408.5125714286
 21
286.4755714286
  0
LINE
  5
394
100
AcDbEntity
  8
0
100
AcDbLine
 62
7
  6
CONTINUOUS
 10
408.5125714286
 20
290.4755714286
 11
408.5125714286
 21
295.4755714286
  0
LINE
  5
395
100
AcDbEntity
  8
0
100
AcDbLine
 62
7
  6
CONTINUOUS
 10
408.5125714286
 20
299.4755714286
 11
408.5125714286
 21
304.0755714286
  0
LINE
  5
396
100
AcDbEntity
  8
0
100
AcDbLine
 62
7
  6
CONTINUOUS
 10
408.5125714286
 20
308.0755714286
 11
408.5125714286
 21
313.0755714286
  0
LINE
  5
397
100
AcDbEntity
  8
0
100
AcDbLine
 62
7
  6
CONTINUOUS
 10
408.5125714286
 20
317.0755714286
 11
408.5125714286
 21
321.6755714286
  0
LINE
  5
398
100
AcDbEntity
  8
0
100
AcDbLine
 62
7
  6
CONTINUOUS
 10
408.5125714286
 20
325.6755714286
 11
408.5125714286
 21
330.6755714286
  0
LINE
  5
399
100
AcDbEntity
  8
0
100
AcDbLine
 62
7
  6
CONTINUOUS
 10
408.5125714286
 20
334.6755714286
 11
408.5125714286
 21
339.2755714286
  0
LINE
  5
39A
100
AcDbEntity
  8
0
100
AcDbLine
 62
7
  6
CONTINUOUS
 10
408.5125714286
 20
343.2755714286
 11
408.5125714286
 21
348.2755714286
  0
LINE
  5
39B
100
AcDbEntity
  8
0
100
AcDbLine
 62
7
  6
CONTINUOUS
 10
408.5125714286
 20
352.2755714286
 11
408.5125714286
 21
356.8755714286
  0
LINE
  5
39C
100
AcDbEntity
  8
0
100
AcDbLine
 62
7
  6
CONTINUOUS
 10
408.5125714286
 20
360.8755714286
 11
408.5125714286
 21
365.8755714286
  0
LINE
  5
39D
100
AcDbEntity
  8
0
100
AcDbLine
 62
7
  6
CONTINUOUS
 10
408.5125714286
 20
369.8755714286
 11
408.5125714286
 21
374.4755714286
  0
LINE
  5
39E
100
AcDbEntity
  8
0
100
AcDbLine
 62
7
  6
CONTINUOUS
 10
408.5125714286
 20
378.4755714286
 11
408.5125714286
 21
383.4755714286
  0
LINE
  5
39F
100
AcDbEntity
  8
0
100
AcDbLine
 62
7
  6
CONTINUOUS
 10
408.5125714286
 20
387.4755714286
 11
408.5125714286
 21
392.0755714286
  0
LINE
  5
3A0
100
AcDbEntity
  8
0
100
AcDbLine
 62
7
  6
CONTINUOUS
 10
408.5125714286
 20
396.0755714286
 11
408.5125714286
 21
401.0755714286
  0
LINE
  5
3A1
100
AcDbEntity
  8
0
100
AcDbLine
 62
7
  6
CONTINUOUS
 10
408.5125714286
 20
405.0755714286
 11
408.5125714286
 21
409.6755714286
  0
LINE
  5
3A2
100
AcDbEntity
  8
0
100
AcDbLine
 62
7
  6
CONTINUOUS
 10
408.5125714286
 20
413.6755714286
 11
408.5125714286
 21
418.6755714286
  0
LINE
  5
3A3
100
AcDbEntity
  8
0
100
AcDbLine
 62
7
  6
CONTINUOUS
 10
408.5125714286
 20
422.6755714286
 11
408.5125714286
 21
427.2755714286
  0
LINE
  5
3A4
100
AcDbEntity
  8
0
100
AcDbLine
 62
7
  6
CONTINUOUS
 10
408.5125714286
 20
431.2755714286
 11
408.5125714286
 21
436.2755714286
  0
LINE
  5
3A5
100
AcDbEntity
  8
0
100
AcDbLine
 62
7
  6
CONTINUOUS
 10
408.5125714286
 20
440.2755714286
 11
408.5125714286
 21
444.8755714286
  0
LINE
  5
3A6
100
AcDbEntity
  8
0
100
AcDbLine
 62
7
  6
CONTINUOUS
 10
408.5125714286
 20
448.8755714286
 11
408.5125714286
 21
453.8755714286
  0
LINE
  5
3A7
100
AcDbEntity
  8
0
100
AcDbLine
 62
7
  6
CONTINUOUS
 10
408.5125714286
 20
457.8755714286
 11
408.5125714286
 21
462.4755714286
  0
LINE
  5
3A8
100
AcDbEntity
  8
0
100
AcDbLine
 62
7
  6
CONTINUOUS
 10
408.5125714286
 20
466.4755714286
 11
408.5125714286
 21
471.4755714286
  0
LINE
  5
3A9
100
AcDbEntity
  8
0
100
AcDbLine
 62
7
  6
CONTINUOUS
 10
408.5125714286
 20
475.4755714286
 11
408.5125714286
 21
480.0755714286
  0
LINE
  5
3AA
100
AcDbEntity
  8
0
100
AcDbLine
 62
7
  6
CONTINUOUS
 10
408.5125714286
 20
484.0755714286
 11
408.5125714286
 21
489.0755714286
  0
LINE
  5
3AB
100
AcDbEntity
  8
0
100
AcDbLine
 62
7
  6
CONTINUOUS
 10
408.5125714286
 20
493.0755714286
 11
408.5125714286
 21
497.6755714286
  0
LINE
  5
3AC
100
AcDbEntity
  8
0
100
AcDbLine
 62
7
  6
CONTINUOUS
 10
408.5125714286
 20
501.6755714286
 11
408.5125714286
 21
506.6755714286
  0
LINE
  5
3AD
100
AcDbEntity
  8
0
100
AcDbLine
 62
7
  6
CONTINUOUS
 10
408.5125714286
 20
510.6755714286
 11
408.5125714286
 21
515.2755714286
  0
LINE
  5
3AE
100
AcDbEntity
  8
0
100
AcDbLine
 62
7
  6
CONTINUOUS
 10
408.5125714286
 20
519.2755714286
 11
408.5125714286
 21
524.2755714286
  0
LINE
  5
3AF
100
AcDbEntity
  8
0
100
AcDbLine
 62
7
  6
CONTINUOUS
 10
408.5125714286
 20
528.2755714286
 11
408.5125714286
 21
532.8755714286
  0
LINE
  5
3B0
100
AcDbEntity
  8
0
100
AcDbLine
 62
7
  6
CONTINUOUS
 10
408.5125714286
 20
536.8755714286
 11
408.5125714286
 21
541.8755714286
  0
LINE
  5
3B1
100
AcDbEntity
  8
0
100
AcDbLine
 62
7
  6
CONTINUOUS
 10
408.5125714286
 20
545.8755714286
 11
408.5125714286
 21
550.4755714286
  0
LINE
  5
3B2
100
AcDbEntity
  8
0
100
AcDbLine
 62
7
  6
CONTINUOUS
 10
408.5125714286
 20
554.4755714286
 11
408.5125714286
 21
559.4755714286
  0
LINE
  5
3B3
100
AcDbEntity
  8
0
100
AcDbLine
 62
7
  6
CONTINUOUS
 10
408.5125714286
 20
563.4755714286
 11
408.5125714286
 21
568.0755714286
  0
LINE
  5
3B4
100
AcDbEntity
  8
0
100
AcDbLine
 62
7
  6
CONTINUOUS
 10
408.5125714286
 20
572.0755714286
 11
408.5125714286
 21
577.0755714286
  0
LINE
  5
3B5
100
AcDbEntity
  8
0
100
AcDbLine
 62
7
  6
CONTINUOUS
 10
408.5125714286
 20
581.0755714286
 11
408.5125714286
 21
585.6755714286
  0
LINE
  5
3B6
100
AcDbEntity
  8
0
100
AcDbLine
 62
7
  6
CONTINUOUS
 10
408.5125714286
 20
589.6755714286
 11
408.5125714286
 21
594.6755714286
  0
LINE
  5
3B7
100
AcDbEntity
  8
0
100
AcDbLine
 62
7
  6
CONTINUOUS
 10
408.5125714286
 20
598.6755714286
 11
408.5125714286
 21
603.2755714286
  0
LINE
  5
3B8
100
AcDbEntity
  8
0
100
AcDbLine
 62
7
  6
CONTINUOUS
 10
408.5125714286
 20
607.2755714286
 11
408.5125714286
 21
612.2755714286
  0
LINE
  5
3B9
100
AcDbEntity
  8
0
100
AcDbLine
 62
7
  6
CONTINUOUS
 10
408.5125714286
 20
616.2755714286
 11
408.5125714286
 21
620.8755714286
  0
LINE
  5
3BA
100
AcDbEntity
  8
0
100
AcDbLine
 62
7
  6
CONTINUOUS
 10
408.5125714286
 20
624.8755714286
 11
408.5125714286
 21
629.8755714286
  0
LINE
  5
3BB
100
AcDbEntity
  8
0
100
AcDbLine
 62
7
  6
CONTINUOUS
 10
408.5125714286
 20
633.8755714286
 11
408.5125714286
 21
638.4755714286
  0
LINE
  5
3BC
100
AcDbEntity
  8
0
100
AcDbLine
 62
7
  6
CONTINUOUS
 10
408.5125714286
 20
642.4755714286
 11
408.5125714286
 21
647.4755714286
  0
LINE
  5
3BD
100
AcDbEntity
  8
0
100
AcDbLine
 62
7
  6
CONTINUOUS
 10
408.5125714286
 20
651.4755714286
 11
408.5125714286
 21
656.0755714286
  0
LINE
  5
3BE
100
AcDbEntity
  8
0
100
AcDbLine
 62
7
  6
CONTINUOUS
 10
408.5125714286
 20
660.0755714286
 11
408.5125714286
 21
665.0755714286
  0
LINE
  5
3BF
100
AcDbEntity
  8
0
100
AcDbLine
 62
7
  6
CONTINUOUS
 10
408.5125714286
 20
669.0755714286
 11
408.5125714286
 21
673.6755714286
  0
LINE
  5
3C0
100
AcDbEntity
  8
0
100
AcDbLine
 62
7
  6
CONTINUOUS
 10
408.5125714286
 20
677.6755714286
 11
408.5125714286
 21
682.6755714286
  0
LINE
  5
3C1
100
AcDbEntity
  8
0
100
AcDbLine
 62
7
  6
CONTINUOUS
 10
408.5125714286
 20
686.6755714286
 11
408.5125714286
 21
691.2755714286
  0
LINE
  5
3C2
100
AcDbEntity
  8
0
100
AcDbLine
 62
7
  6
CONTINUOUS
 10
408.5125714286
 20
695.2755714286
 11
408.5125714286
 21
700.2755714286
  0
LINE
  5
3C3
100
AcDbEntity
  8
0
100
AcDbLine
 62
7
  6
CONTINUOUS
 10
408.5125714286
 20
704.2755714286
 11
408.5125714286
 21
708.8755714286
  0
LINE
  5
3C4
100
AcDbEntity
  8
0
100
AcDbLine
 62
7
  6
CONTINUOUS
 10
408.5125714286
 20
712.8755714286
 11
408.5125714286
 21
717.8755714286
  0
LINE
  5
3C5
100
AcDbEntity
  8
0
100
AcDbLine
 62
7
  6
CONTINUOUS
 10
408.5125714286
 20
721.8755714286
 11
408.5125714286
 21
726.4755714286
  0
LINE
  5
3C6
100
AcDbEntity
  8
0
100
AcDbLine
 62
7
  6
CONTINUOUS
 10
408.5125714286
 20
730.4755714286
 11
408.5125714286
 21
735.4755714286
  0
LINE
  5
3C7
100
AcDbEntity
  8
0
100
AcDbLine
 62
7
  6
CONTINUOUS
 10
408.5125714286
 20
739.4755714286
 11
408.5125714286
 21
744.0755714286
  0
LINE
  5
3C8
100
AcDbEntity
  8
0
100
AcDbLine
 62
7
  6
CONTINUOUS
 10
408.5125714286
 20
748.0755714286
 11
408.5125714286
 21
753.0755714286
  0
LINE
  5
3C9
100
AcDbEntity
  8
0
100
AcDbLine
 62
7
  6
CONTINUOUS
 10
408.5125714286
 20
757.0755714286
 11
408.5125714286
 21
761.6755714286
  0
LINE
  5
3CA
100
AcDbEntity
  8
0
100
AcDbLine
 62
7
  6
CONTINUOUS
 10
408.5125714286
 20
765.6755714286
 11
408.5125714286
 21
770.6755714286
  0
LINE
  5
3CB
100
AcDbEntity
  8
0
100
AcDbLine
 62
7
  6
CONTINUOUS
 10
408.5125714286
 20
774.6755714286
 11
408.5125714286
 21
779.2755714286
  0
LINE
  5
3CC
100
AcDbEntity
  8
0
100
AcDbLine
 62
7
  6
CONTINUOUS
 10
408.5125714286
 20
783.2755714286
 11
408.5125714286
 21
788.2755714286
  0
LINE
  5
3CD
100
AcDbEntity
  8
0
100
AcDbLine
 62
7
  6
CONTINUOUS
 10
408.5125714286
 20
792.2755714286
 11
408.5125714286
 21
796.8755714286
  0
LINE
  5
3CE
100
AcDbEntity
  8
0
100
AcDbLine
 62
7
  6
CONTINUOUS
 10
408.5125714286
 20
800.8755714286
 11
408.5125714286
 21
805.8755714286
  0
LINE
  5
3CF
100
AcDbEntity
  8
0
100
AcDbLine
 62
7
  6
CONTINUOUS
 10
408.5125714286
 20
809.8755714286
 11
408.5125714286
 21
814.4755714286
  0
LINE
  5
3D0
100
AcDbEntity
  8
0
100
AcDbLine
 62
7
  6
CONTINUOUS
 10
408.5125714286
 20
818.4755714286
 11
408.5125714286
 21
823.4755714286
  0
LINE
  5
3D1
100
AcDbEntity
  8
0
100
AcDbLine
 62
7
  6
CONTINUOUS
 10
408.5125714286
 20
827.4755714286
 11
408.5125714286
 21
832.0755714286
  0
LINE
  5
3D2
100
AcDbEntity
  8
0
100
AcDbLine
 62
7
  6
CONTINUOUS
 10
408.5125714286
 20
836.0755714286
 11
408.5125714286
 21
841.0755714286
  0
LINE
  5
3D3
100
AcDbEntity
  8
0
100
AcDbLine
 62
7
  6
CONTINUOUS
 10
408.5125714286
 20
845.0755714286
 11
408.5125714286
 21
849.6755714286
  0
LINE
  5
3D4
100
AcDbEntity
  8
0
100
AcDbLine
 62
7
  6
CONTINUOUS
 10
408.5125714286
 20
853.6755714286
 11
408.5125714286
 21
858.6755714286
  0
LINE
  5
3D5
100
AcDbEntity
  8
0
100
AcDbLine
 62
7
  6
CONTINUOUS
 10
408.5125714286
 20
862.6755714286
 11
408.5125714286
 21
867.2755714286
  0
LINE
  5
3D6
100
AcDbEntity
  8
0
100
AcDbLine
 62
7
  6
CONTINUOUS
 10
408.5125714286
 20
871.2755714286
 11
408.5125714286
 21
876.2755714286
  0
LINE
  5
3D7
100
AcDbEntity
  8
0
100
AcDbLine
 62
7
  6
CONTINUOUS
 10
408.5125714286
 20
880.2755714286
 11
408.5125714286
 21
884.8755714286
  0
LINE
  5
3D8
100
AcDbEntity
  8
0
100
AcDbLine
 62
7
  6
CONTINUOUS
 10
408.5125714286
 20
888.8755714286
 11
408.5125714286
 21
893.8755714286
  0
LINE
  5
3D9
100
AcDbEntity
  8
0
100
AcDbLine
 62
7
  6
CONTINUOUS
 10
408.5125714286
 20
897.8755714286
 11
408.5125714286
 21
902.4755714286
  0
LINE
  5
3DA
100
AcDbEntity
  8
0
100
AcDbLine
 62
7
  6
CONTINUOUS
 10
408.5125714286
 20
906.4755714286
 11
408.5125714286
 21
911.4755714286
  0
LINE
  5
3DB
100
AcDbEntity
  8
0
100
AcDbLine
 62
7
  6
CONTINUOUS
 10
408.5125714286
 20
915.4755714286
 11
408.5125714286
 21
920.0755714286
  0
LINE
  5
3DC
100
AcDbEntity
  8
0
100
AcDbLine
 62
7
  6
CONTINUOUS
 10
408.5125714286
 20
924.0755714286
 11
408.5125714286
 21
929.0755714286
  0
LINE
  5
3DD
100
AcDbEntity
  8
0
100
AcDbLine
 62
7
  6
CONTINUOUS
 10
408.5125714286
 20
933.0755714286
 11
408.5125714286
 21
937.6755714286
  0
LINE
  5
3DE
100
AcDbEntity
  8
0
100
AcDbLine
 62
7
  6
CONTINUOUS
 10
408.5125714286
 20
941.6755714286
 11
408.5125714286
 21
946.6755714286
  0
LINE
  5
3DF
100
AcDbEntity
  8
0
100
AcDbLine
 62
7
  6
CONTINUOUS
 10
408.5125714286
 20
950.6755714286
 11
408.5125714286
 21
955.2755714286
  0
LINE
  5
3E0
100
AcDbEntity
  8
0
100
AcDbLine
 62
7
  6
CONTINUOUS
 10
408.5125714286
 20
959.2755714286
 11
408.5125714286
 21
964.2755714286
  0
LINE
  5
3E1
100
AcDbEntity
  8
0
100
AcDbLine
 62
7
  6
CONTINUOUS
 10
408.5125714286
 20
968.2755714286
 11
408.5125714286
 21
972.8755714286
  0
LINE
  5
3E2
100
AcDbEntity
  8
0
100
AcDbLine
 62
7
  6
CONTINUOUS
 10
408.5125714286
 20
976.8755714286
 11
408.5125714286
 21
981.8755714286
  0
LINE
  5
3E3
100
AcDbEntity
  8
0
100
AcDbLine
 62
7
  6
CONTINUOUS
 10
408.5125714286
 20
985.8755714286
 11
408.5125714286
 21
990.4755714286
  0
LINE
  5
3E4
100
AcDbEntity
  8
0
100
AcDbLine
 62
7
  6
CONTINUOUS
 10
408.5125714286
 20
994.4755714286
 11
408.5125714286
 21
999.4755714286
  0
LINE
  5
3E5
100
AcDbEntity
  8
0
100
AcDbLine
 62
7
  6
CONTINUOUS
 10
408.5125714286
 20
1003.4755714286
 11
408.5125714286
 21
1008.0755714286
  0
LINE
  5
3E6
100
AcDbEntity
  8
0
100
AcDbLine
 62
7
  6
CONTINUOUS
 10
408.5125714286
 20
1012.0755714286
 11
408.5125714286
 21
1017.0755714286
  0
LINE
  5
3E7
100
AcDbEntity
  8
0
100
AcDbLine
 62
7
  6
CONTINUOUS
 10
408.5125714286
 20
1021.0755714286
 11
408.5125714286
 21
1025.6755714286
  0
LINE
  5
3E8
100
AcDbEntity
  8
0
100
AcDbLine
 62
7
  6
CONTINUOUS
 10
408.5125714286
 20
1029.6755714286
 11
408.5125714286
 21
1034.6755714286
  0
LINE
  5
3E9
100
AcDbEntity
  8
0
100
AcDbLine
 62
7
  6
CONTINUOUS
 10
408.5125714286
 20
1038.6755714286
 11
408.5125714286
 21
1043.2755714286
  0
LINE
  5
3EA
100
AcDbEntity
  8
0
100
AcDbLine
 62
7
  6
CONTINUOUS
 10
408.5125714286
 20
1047.2755714286
 11
408.5125714286
 21
1052.2755714286
  0
LINE
  5
3EB
100
AcDbEntity
  8
0
100
AcDbLine
 62
7
  6
CONTINUOUS
 10
408.5125714286
 20
1056.2755714286
 11
408.5125714286
 21
1060.8755714286
  0
LINE
  5
3EC
100
AcDbEntity
  8
0
100
AcDbLine
 62
7
  6
CONTINUOUS
 10
408.5125714286
 20
1064.8755714286
 11
408.5125714286
 21
1069.8755714286
  0
LINE
  5
3ED
100
AcDbEntity
  8
0
100
AcDbLine
 62
7
  6
CONTINUOUS
 10
408.5125714286
 20
1073.8755714286
 11
408.5125714286
 21
1078.4755714286
  0
LINE
  5
3EE
100
AcDbEntity
  8
0
100
AcDbLine
 62
7
  6
CONTINUOUS
 10
408.5125714286
 20
1082.4755714286
 11
408.5125714286
 21
1087.4755714286
  0
LINE
  5
3EF
100
AcDbEntity
  8
0
100
AcDbLine
 62
7
  6
CONTINUOUS
 10
408.5125714286
 20
1091.4755714286
 11
408.5125714286
 21
1097.0755714286
  0
LINE
  5
3F0
100
AcDbEntity
  8
0
100
AcDbLine
 62
7
  6
CONTINUOUS
 10
408.8214118797
 20
1078.4755714286
 11
408.8214118797
 21
1073.8755714286
  0
LINE
  5
3F1
100
AcDbEntity
  8
0
100
AcDbLine
 62
7
  6
CONTINUOUS
 10
408.8214118797
 20
1060.8755714286
 11
408.8214118797
 21
1056.2755714286
  0
LINE
  5
3F2
100
AcDbEntity
  8
0
100
AcDbLine
 62
7
  6
CONTINUOUS
 10
408.8214118797
 20
1043.2755714286
 11
408.8214118797
 21
1038.6755714286
  0
LINE
  5
3F3
100
AcDbEntity
  8
0
100
AcDbLine
 62
7
  6
CONTINUOUS
 10
408.8214118797
 20
1025.6755714286
 11
408.8214118797
 21
1021.0755714286
  0
LINE
  5
3F4
100
AcDbEntity
  8
0
100
AcDbLine
 62
7
  6
CONTINUOUS
 10
408.8214118797
 20
1008.0755714286
 11
408.8214118797
 21
1003.4755714286
  0
LINE
  5
3F5
100
AcDbEntity
  8
0
100
AcDbLine
 62
7
  6
CONTINUOUS
 10
408.8214118797
 20
990.4755714286
 11
408.8214118797
 21
985.8755714286
  0
LINE
  5
3F6
100
AcDbEntity
  8
0
100
AcDbLine
 62
7
  6
CONTINUOUS
 10
408.8214118797
 20
972.8755714286
 11
408.8214118797
 21
968.2755714286
  0
LINE
  5
3F7
100
AcDbEntity
  8
0
100
AcDbLine
 62
7
  6
CONTINUOUS
 10
408.8214118797
 20
955.2755714286
 11
408.8214118797
 21
950.6755714286
  0
LINE
  5
3F8
100
AcDbEntity
  8
0
100
AcDbLine
 62
7
  6
CONTINUOUS
 10
408.8214118797
 20
937.6755714286
 11
408.8214118797
 21
933.0755714286
  0
LINE
  5
3F9
100
AcDbEntity
  8
0
100
AcDbLine
 62
7
  6
CONTINUOUS
 10
408.8214118797
 20
920.0755714286
 11
408.8214118797
 21
915.4755714286
  0
LINE
  5
3FA
100
AcDbEntity
  8
0
100
AcDbLine
 62
7
  6
CONTINUOUS
 10
408.8214118797
 20
902.4755714286
 11
408.8214118797
 21
897.8755714286
  0
LINE
  5
3FB
100
AcDbEntity
  8
0
100
AcDbLine
 62
7
  6
CONTINUOUS
 10
408.8214118797
 20
884.8755714286
 11
408.8214118797
 21
880.2755714286
  0
LINE
  5
3FC
100
AcDbEntity
  8
0
100
AcDbLine
 62
7
  6
CONTINUOUS
 10
408.8214118797
 20
867.2755714286
 11
408.8214118797
 21
862.6755714286
  0
LINE
  5
3FD
100
AcDbEntity
  8
0
100
AcDbLine
 62
7
  6
CONTINUOUS
 10
408.8214118797
 20
849.6755714286
 11
408.8214118797
 21
845.0755714286
  0
LINE
  5
3FE
100
AcDbEntity
  8
0
100
AcDbLine
 62
7
  6
CONTINUOUS
 10
408.8214118797
 20
832.0755714286
 11
408.8214118797
 21
827.4755714286
  0
LINE
  5
3FF
100
AcDbEntity
  8
0
100
AcDbLine
 62
7
  6
CONTINUOUS
 10
408.8214118797
 20
814.4755714286
 11
408.8214118797
 21
809.8755714286
  0
LINE
  5
400
100
AcDbEntity
  8
0
100
AcDbLine
 62
7
  6
CONTINUOUS
 10
408.8214118797
 20
796.8755714286
 11
408.8214118797
 21
792.2755714286
  0
LINE
  5
401
100
AcDbEntity
  8
0
100
AcDbLine
 62
7
  6
CONTINUOUS
 10
408.8214118797
 20
779.2755714286
 11
408.8214118797
 21
774.6755714286
  0
LINE
  5
402
100
AcDbEntity
  8
0
100
AcDbLine
 62
7
  6
CONTINUOUS
 10
408.8214118797
 20
761.6755714286
 11
408.8214118797
 21
757.0755714286
  0
LINE
  5
403
100
AcDbEntity
  8
0
100
AcDbLine
 62
7
  6
CONTINUOUS
 10
408.8214118797
 20
744.0755714286
 11
408.8214118797
 21
739.4755714286
  0
LINE
  5
404
100
AcDbEntity
  8
0
100
AcDbLine
 62
7
  6
CONTINUOUS
 10
408.8214118797
 20
726.4755714286
 11
408.8214118797
 21
721.8755714286
  0
LINE
  5
405
100
AcDbEntity
  8
0
100
AcDbLine
 62
7
  6
CONTINUOUS
 10
408.8214118797
 20
708.8755714286
 11
408.8214118797
 21
704.2755714286
  0
LINE
  5
406
100
AcDbEntity
  8
0
100
AcDbLine
 62
7
  6
CONTINUOUS
 10
408.8214118797
 20
691.2755714286
 11
408.8214118797
 21
686.6755714286
  0
LINE
  5
407
100
AcDbEntity
  8
0
100
AcDbLine
 62
7
  6
CONTINUOUS
 10
408.8214118797
 20
673.6755714286
 11
408.8214118797
 21
669.0755714286
  0
LINE
  5
408
100
AcDbEntity
  8
0
100
AcDbLine
 62
7
  6
CONTINUOUS
 10
408.8214118797
 20
656.0755714286
 11
408.8214118797
 21
651.4755714286
  0
LINE
  5
409
100
AcDbEntity
  8
0
100
AcDbLine
 62
7
  6
CONTINUOUS
 10
408.8214118797
 20
638.4755714286
 11
408.8214118797
 21
633.8755714286
  0
LINE
  5
40A
100
AcDbEntity
  8
0
100
AcDbLine
 62
7
  6
CONTINUOUS
 10
408.8214118797
 20
620.8755714286
 11
408.8214118797
 21
616.2755714286
  0
LINE
  5
40B
100
AcDbEntity
  8
0
100
AcDbLine
 62
7
  6
CONTINUOUS
 10
408.8214118797
 20
603.2755714286
 11
408.8214118797
 21
598.6755714286
  0
LINE
  5
40C
100
AcDbEntity
  8
0
100
AcDbLine
 62
7
  6
CONTINUOUS
 10
408.8214118797
 20
585.6755714286
 11
408.8214118797
 21
581.0755714286
  0
LINE
  5
40D
100
AcDbEntity
  8
0
100
AcDbLine
 62
7
  6
CONTINUOUS
 10
408.8214118797
 20
568.0755714286
 11
408.8214118797
 21
563.4755714286
  0
LINE
  5
40E
100
AcDbEntity
  8
0
100
AcDbLine
 62
7
  6
CONTINUOUS
 10
408.8214118797
 20
550.4755714286
 11
408.8214118797
 21
545.8755714286
  0
LINE
  5
40F
100
AcDbEntity
  8
0
100
AcDbLine
 62
7
  6
CONTINUOUS
 10
408.8214118797
 20
532.8755714286
 11
408.8214118797
 21
528.2755714286
  0
LINE
  5
410
100
AcDbEntity
  8
0
100
AcDbLine
 62
7
  6
CONTINUOUS
 10
408.8214118797
 20
515.2755714286
 11
408.8214118797
 21
510.6755714286
  0
LINE
  5
411
100
AcDbEntity
  8
0
100
AcDbLine
 62
7
  6
CONTINUOUS
 10
408.8214118797
 20
497.6755714286
 11
408.8214118797
 21
493.0755714286
  0
LINE
  5
412
100
AcDbEntity
  8
0
100
AcDbLine
 62
7
  6
CONTINUOUS
 10
408.8214118797
 20
480.0755714286
 11
408.8214118797
 21
475.4755714286
  0
LINE
  5
413
100
AcDbEntity
  8
0
100
AcDbLine
 62
7
  6
CONTINUOUS
 10
408.8214118797
 20
462.4755714286
 11
408.8214118797
 21
457.8755714286
  0
LINE
  5
414
100
AcDbEntity
  8
0
100
AcDbLine
 62
7
  6
CONTINUOUS
 10
408.8214118797
 20
444.8755714286
 11
408.8214118797
 21
440.2755714286
  0
LINE
  5
415
100
AcDbEntity
  8
0
100
AcDbLine
 62
7
  6
CONTINUOUS
 10
408.8214118797
 20
427.2755714286
 11
408.8214118797
 21
422.6755714286
  0
LINE
  5
416
100
AcDbEntity
  8
0
100
AcDbLine
 62
7
  6
CONTINUOUS
 10
408.8214118797
 20
409.6755714286
 11
408.8214118797
 21
405.0755714286
  0
LINE
  5
417
100
AcDbEntity
  8
0
100
AcDbLine
 62
7
  6
CONTINUOUS
 10
408.8214118797
 20
392.0755714286
 11
408.8214118797
 21
387.4755714286
  0
LINE
  5
418
100
AcDbEntity
  8
0
100
AcDbLine
 62
7
  6
CONTINUOUS
 10
408.8214118797
 20
374.4755714286
 11
408.8214118797
 21
369.8755714286
  0
LINE
  5
419
100
AcDbEntity
  8
0
100
AcDbLine
 62
7
  6
CONTINUOUS
 10
408.8214118797
 20
356.8755714286
 11
408.8214118797
 21
352.2755714286
  0
LINE
  5
41A
100
AcDbEntity
  8
0
100
AcDbLine
 62
7
  6
CONTINUOUS
 10
408.8214118797
 20
339.2755714286
 11
408.8214118797
 21
334.6755714286
  0
LINE
  5
41B
100
AcDbEntity
  8
0
100
AcDbLine
 62
7
  6
CONTINUOUS
 10
408.8214118797
 20
321.6755714286
 11
408.8214118797
 21
317.0755714286
  0
LINE
  5
41C
100
AcDbEntity
  8
0
100
AcDbLine
 62
7
  6
CONTINUOUS
 10
408.8214118797
 20
304.0755714286
 11
408.8214118797
 21
299.4755714286
  0
LINE
  5
41D
100
AcDbEntity
  8
0
100
AcDbLine
 62
7
  6
CONTINUOUS
 10
408.8214118797
 20
286.4755714286
 11
408.8214118797
 21
281.8755714286
  0
LINE
  5
41E
100
AcDbEntity
  8
0
100
AcDbLine
 62
7
  6
CONTINUOUS
 10
408.8214118797
 20
268.8755714286
 11
408.8214118797
 21
264.2755714286
  0
LINE
  5
41F
100
AcDbEntity
  8
0
100
AcDbLine
 62
7
  6
CONTINUOUS
 10
408.8214118797
 20
251.2755714286
 11
408.8214118797
 21
246.6755714286
  0
LINE
  5
420
100
AcDbEntity
  8
0
100
AcDbLine
 62
7
  6
CONTINUOUS
 10
408.8214118797
 20
233.6755714286
 11
408.8214118797
 21
229.0755714286
  0
LINE
  5
421
100
AcDbEntity
  8
0
100
AcDbLine
 62
7
  6
CONTINUOUS
 10
408.8214118797
 20
216.0755714286
 11
408.8214118797
 21
211.4755714286
  0
LINE
  5
422
100
AcDbEntity
  8
0
100
AcDbLine
 62
7
  6
CONTINUOUS
 10
408.8214118797
 20
198.4755714286
 11
408.8214118797
 21
193.8755714286
  0
LINE
  5
423
100
AcDbEntity
  8
0
100
AcDbLine
 62
7
  6
CONTINUOUS
 10
408.8214118797
 20
180.8755714286
 11
408.8214118797
 21
176.2755714286
  0
LINE
  5
424
100
AcDbEntity
  8
0
100
AcDbLine
 62
7
  6
CONTINUOUS
 10
408.8214118797
 20
163.2755714286
 11
408.8214118797
 21
158.6755714286
  0
LINE
  5
425
100
AcDbEntity
  8
0
100
AcDbLine
 62
7
  6
CONTINUOUS
 10
408.8214118797
 20
145.6755714286
 11
408.8214118797
 21
141.0755714286
  0
LINE
  5
426
100
AcDbEntity
  8
0
100
AcDbLine
 62
7
  6
CONTINUOUS
 10
408.8214118797
 20
128.0755714286
 11
408.8214118797
 21
123.4755714286
  0
LINE
  5
427
100
AcDbEntity
  8
0
100
AcDbLine
 62
7
  6
CONTINUOUS
 10
408.8214118797
 20
110.4755714286
 11
408.8214118797
 21
105.8755714286
  0
LINE
  5
428
100
AcDbEntity
  8
0
100
AcDbLine
 62
7
  6
CONTINUOUS
 10
410.3125714286
 20
96.8755714286
 11
410.3125714286
 21
101.8755714286
  0
LINE
  5
429
100
AcDbEntity
  8
0
100
AcDbLine
 62
7
  6
CONTINUOUS
 10
410.3125714286
 20
114.4755714286
 11
410.3125714286
 21
119.4755714286
  0
LINE
  5
42A
100
AcDbEntity
  8
0
100
AcDbLine
 62
7
  6
CONTINUOUS
 10
410.3125714286
 20
132.0755714286
 11
410.3125714286
 21
137.0755714286
  0
LINE
  5
42B
100
AcDbEntity
  8
0
100
AcDbLine
 62
7
  6
CONTINUOUS
 10
410.3125714286
 20
149.6755714286
 11
410.3125714286
 21
154.6755714286
  0
LINE
  5
42C
100
AcDbEntity
  8
0
100
AcDbLine
 62
7
  6
CONTINUOUS
 10
410.3125714286
 20
167.2755714286
 11
410.3125714286
 21
172.2755714286
  0
LINE
  5
42D
100
AcDbEntity
  8
0
100
AcDbLine
 62
7
  6
CONTINUOUS
 10
410.3125714286
 20
184.8755714286
 11
410.3125714286
 21
189.8755714286
  0
LINE
  5
42E
100
AcDbEntity
  8
0
100
AcDbLine
 62
7
  6
CONTINUOUS
 10
410.3125714286
 20
202.4755714286
 11
410.3125714286
 21
207.4755714286
  0
LINE
  5
42F
100
AcDbEntity
  8
0
100
AcDbLine
 62
7
  6
CONTINUOUS
 10
410.3125714286
 20
220.0755714286
 11
410.3125714286
 21
225.0755714286
  0
LINE
  5
430
100
AcDbEntity
  8
0
100
AcDbLine
 62
7
  6
CONTINUOUS
 10
410.3125714286
 20
237.6755714286
 11
410.3125714286
 21
242.6755714286
  0
LINE
  5
431
100
AcDbEntity
  8
0
100
AcDbLine
 62
7
  6
CONTINUOUS
 10
410.3125714286
 20
255.2755714286
 11
410.3125714286
 21
260.2755714286
  0
LINE
  5
432
100
AcDbEntity
  8
0
100
AcDbLine
 62
7
  6
CONTINUOUS
 10
410.3125714286
 20
272.8755714286
 11
410.3125714286
 21
277.8755714286
  0
LINE
  5
433
100
AcDbEntity
  8
0
100
AcDbLine
 62
7
  6
CONTINUOUS
 10
410.3125714286
 20
290.4755714286
 11
410.3125714286
 21
295.4755714286
  0
LINE
  5
434
100
AcDbEntity
  8
0
100
AcDbLine
 62
7
  6
CONTINUOUS
 10
410.3125714286
 20
308.0755714286
 11
410.3125714286
 21
313.0755714286
  0
LINE
  5
435
100
AcDbEntity
  8
0
100
AcDbLine
 62
7
  6
CONTINUOUS
 10
410.3125714286
 20
325.6755714286
 11
410.3125714286
 21
330.6755714286
  0
LINE
  5
436
100
AcDbEntity
  8
0
100
AcDbLine
 62
7
  6
CONTINUOUS
 10
410.3125714286
 20
343.2755714286
 11
410.3125714286
 21
348.2755714286
  0
LINE
  5
437
100
AcDbEntity
  8
0
100
AcDbLine
 62
7
  6
CONTINUOUS
 10
410.3125714286
 20
360.8755714286
 11
410.3125714286
 21
365.8755714286
  0
LINE
  5
438
100
AcDbEntity
  8
0
100
AcDbLine
 62
7
  6
CONTINUOUS
 10
410.3125714286
 20
378.4755714286
 11
410.3125714286
 21
383.4755714286
  0
LINE
  5
439
100
AcDbEntity
  8
0
100
AcDbLine
 62
7
  6
CONTINUOUS
 10
410.3125714286
 20
396.0755714286
 11
410.3125714286
 21
401.0755714286
  0
LINE
  5
43A
100
AcDbEntity
  8
0
100
AcDbLine
 62
7
  6
CONTINUOUS
 10
410.3125714286
 20
413.6755714286
 11
410.3125714286
 21
418.6755714286
  0
LINE
  5
43B
100
AcDbEntity
  8
0
100
AcDbLine
 62
7
  6
CONTINUOUS
 10
410.3125714286
 20
431.2755714286
 11
410.3125714286
 21
436.2755714286
  0
LINE
  5
43C
100
AcDbEntity
  8
0
100
AcDbLine
 62
7
  6
CONTINUOUS
 10
410.3125714286
 20
448.8755714286
 11
410.3125714286
 21
453.8755714286
  0
LINE
  5
43D
100
AcDbEntity
  8
0
100
AcDbLine
 62
7
  6
CONTINUOUS
 10
410.3125714286
 20
466.4755714286
 11
410.3125714286
 21
471.4755714286
  0
LINE
  5
43E
100
AcDbEntity
  8
0
100
AcDbLine
 62
7
  6
CONTINUOUS
 10
410.3125714286
 20
484.0755714286
 11
410.3125714286
 21
489.0755714286
  0
LINE
  5
43F
100
AcDbEntity
  8
0
100
AcDbLine
 62
7
  6
CONTINUOUS
 10
410.3125714286
 20
501.6755714286
 11
410.3125714286
 21
506.6755714286
  0
LINE
  5
440
100
AcDbEntity
  8
0
100
AcDbLine
 62
7
  6
CONTINUOUS
 10
410.3125714286
 20
519.2755714286
 11
410.3125714286
 21
524.2755714286
  0
LINE
  5
441
100
AcDbEntity
  8
0
100
AcDbLine
 62
7
  6
CONTINUOUS
 10
410.3125714286
 20
536.8755714286
 11
410.3125714286
 21
541.8755714286
  0
LINE
  5
442
100
AcDbEntity
  8
0
100
AcDbLine
 62
7
  6
CONTINUOUS
 10
410.3125714286
 20
554.4755714286
 11
410.3125714286
 21
559.4755714286
  0
LINE
  5
443
100
AcDbEntity
  8
0
100
AcDbLine
 62
7
  6
CONTINUOUS
 10
410.3125714286
 20
572.0755714286
 11
410.3125714286
 21
577.0755714286
  0
LINE
  5
444
100
AcDbEntity
  8
0
100
AcDbLine
 62
7
  6
CONTINUOUS
 10
410.3125714286
 20
589.6755714286
 11
410.3125714286
 21
594.6755714286
  0
LINE
  5
445
100
AcDbEntity
  8
0
100
AcDbLine
 62
7
  6
CONTINUOUS
 10
410.3125714286
 20
607.2755714286
 11
410.3125714286
 21
612.2755714286
  0
LINE
  5
446
100
AcDbEntity
  8
0
100
AcDbLine
 62
7
  6
CONTINUOUS
 10
410.3125714286
 20
624.8755714286
 11
410.3125714286
 21
629.8755714286
  0
LINE
  5
447
100
AcDbEntity
  8
0
100
AcDbLine
 62
7
  6
CONTINUOUS
 10
410.3125714286
 20
642.4755714286
 11
410.3125714286
 21
647.4755714286
  0
LINE
  5
448
100
AcDbEntity
  8
0
100
AcDbLine
 62
7
  6
CONTINUOUS
 10
410.3125714286
 20
660.0755714286
 11
410.3125714286
 21
665.0755714286
  0
LINE
  5
449
100
AcDbEntity
  8
0
100
AcDbLine
 62
7
  6
CONTINUOUS
 10
410.3125714286
 20
677.6755714286
 11
410.3125714286
 21
682.6755714286
  0
LINE
  5
44A
100
AcDbEntity
  8
0
100
AcDbLine
 62
7
  6
CONTINUOUS
 10
410.3125714286
 20
695.2755714286
 11
410.3125714286
 21
700.2755714286
  0
LINE
  5
44B
100
AcDbEntity
  8
0
100
AcDbLine
 62
7
  6
CONTINUOUS
 10
410.3125714286
 20
712.8755714286
 11
410.3125714286
 21
717.8755714286
  0
LINE
  5
44C
100
AcDbEntity
  8
0
100
AcDbLine
 62
7
  6
CONTINUOUS
 10
410.3125714286
 20
730.4755714286
 11
410.3125714286
 21
735.4755714286
  0
LINE
  5
44D
100
AcDbEntity
  8
0
100
AcDbLine
 62
7
  6
CONTINUOUS
 10
410.3125714286
 20
748.0755714286
 11
410.3125714286
 21
753.0755714286
  0
LINE
  5
44E
100
AcDbEntity
  8
0
100
AcDbLine
 62
7
  6
CONTINUOUS
 10
410.3125714286
 20
765.6755714286
 11
410.3125714286
 21
770.6755714286
  0
LINE
  5
44F
100
AcDbEntity
  8
0
100
AcDbLine
 62
7
  6
CONTINUOUS
 10
410.3125714286
 20
783.2755714286
 11
410.3125714286
 21
788.2755714286
  0
LINE
  5
450
100
AcDbEntity
  8
0
100
AcDbLine
 62
7
  6
CONTINUOUS
 10
410.3125714286
 20
800.8755714286
 11
410.3125714286
 21
805.8755714286
  0
LINE
  5
451
100
AcDbEntity
  8
0
100
AcDbLine
 62
7
  6
CONTINUOUS
 10
410.3125714286
 20
818.4755714286
 11
410.3125714286
 21
823.4755714286
  0
LINE
  5
452
100
AcDbEntity
  8
0
100
AcDbLine
 62
7
  6
CONTINUOUS
 10
410.3125714286
 20
836.0755714286
 11
410.3125714286
 21
841.0755714286
  0
LINE
  5
453
100
AcDbEntity
  8
0
100
AcDbLine
 62
7
  6
CONTINUOUS
 10
410.3125714286
 20
853.6755714286
 11
410.3125714286
 21
858.6755714286
  0
LINE
  5
454
100
AcDbEntity
  8
0
100
AcDbLine
 62
7
  6
CONTINUOUS
 10
410.3125714286
 20
871.2755714286
 11
410.3125714286
 21
876.2755714286
  0
LINE
  5
455
100
AcDbEntity
  8
0
100
AcDbLine
 62
7
  6
CONTINUOUS
 10
410.3125714286
 20
888.8755714286
 11
410.3125714286
 21
893.8755714286
  0
LINE
  5
456
100
AcDbEntity
  8
0
100
AcDbLine
 62
7
  6
CONTINUOUS
 10
410.3125714286
 20
906.4755714286
 11
410.3125714286
 21
911.4755714286
  0
LINE
  5
457
100
AcDbEntity
  8
0
100
AcDbLine
 62
7
  6
CONTINUOUS
 10
410.3125714286
 20
924.0755714286
 11
410.3125714286
 21
929.0755714286
  0
LINE
  5
458
100
AcDbEntity
  8
0
100
AcDbLine
 62
7
  6
CONTINUOUS
 10
410.3125714286
 20
941.6755714286
 11
410.3125714286
 21
946.6755714286
  0
LINE
  5
459
100
AcDbEntity
  8
0
100
AcDbLine
 62
7
  6
CONTINUOUS
 10
410.3125714286
 20
959.2755714286
 11
410.3125714286
 21
964.2755714286
  0
LINE
  5
45A
100
AcDbEntity
  8
0
100
AcDbLine
 62
7
  6
CONTINUOUS
 10
410.3125714286
 20
976.8755714286
 11
410.3125714286
 21
981.8755714286
  0
LINE
  5
45B
100
AcDbEntity
  8
0
100
AcDbLine
 62
7
  6
CONTINUOUS
 10
410.3125714286
 20
994.4755714286
 11
410.3125714286
 21
999.4755714286
  0
LINE
  5
45C
100
AcDbEntity
  8
0
100
AcDbLine
 62
7
  6
CONTINUOUS
 10
410.3125714286
 20
1012.0755714286
 11
410.3125714286
 21
1017.0755714286
  0
LINE
  5
45D
100
AcDbEntity
  8
0
100
AcDbLine
 62
7
  6
CONTINUOUS
 10
410.3125714286
 20
1029.6755714286
 11
410.3125714286
 21
1034.6755714286
  0
LINE
  5
45E
100
AcDbEntity
  8
0
100
AcDbLine
 62
7
  6
CONTINUOUS
 10
410.3125714286
 20
1047.2755714286
 11
410.3125714286
 21
1052.2755714286
  0
LINE
  5
45F
100
AcDbEntity
  8
0
100
AcDbLine
 62
7
  6
CONTINUOUS
 10
410.3125714286
 20
1064.8755714286
 11
410.3125714286
 21
1069.8755714286
  0
LINE
  5
460
100
AcDbEntity
  8
0
100
AcDbLine
 62
7
  6
CONTINUOUS
 10
410.3125714286
 20
1082.4755714286
 11
410.3125714286
 21
1087.4755714286
  0
LINE
  5
461
100
AcDbEntity
  8
0
100
AcDbLine
 62
7
  6
CONTINUOUS
 10
410.952206774
 20
1087.4755714286
 11
410.952206774
 21
1082.4755714286
  0
LINE
  5
462
100
AcDbEntity
  8
0
100
AcDbLine
 62
7
  6
CONTINUOUS
 10
410.952206774
 20
1069.8755714286
 11
410.952206774
 21
1064.8755714286
  0
LINE
  5
463
100
AcDbEntity
  8
0
100
AcDbLine
 62
7
  6
CONTINUOUS
 10
410.952206774
 20
1052.2755714286
 11
410.952206774
 21
1047.2755714286
  0
LINE
  5
464
100
AcDbEntity
  8
0
100
AcDbLine
 62
7
  6
CONTINUOUS
 10
410.952206774
 20
1034.6755714286
 11
410.952206774
 21
1029.6755714286
  0
LINE
  5
465
100
AcDbEntity
  8
0
100
AcDbLine
 62
7
  6
CONTINUOUS
 10
410.952206774
 20
1017.0755714286
 11
410.952206774
 21
1012.0755714286
  0
LINE
  5
466
100
AcDbEntity
  8
0
100
AcDbLine
 62
7
  6
CONTINUOUS
 10
410.952206774
 20
999.4755714286
 11
410.952206774
 21
994.4755714286
  0
LINE
  5
467
100
AcDbEntity
  8
0
100
AcDbLine
 62
7
  6
CONTINUOUS
 10
410.952206774
 20
981.8755714286
 11
410.952206774
 21
976.8755714286
  0
LINE
  5
468
100
AcDbEntity
  8
0
100
AcDbLine
 62
7
  6
CONTINUOUS
 10
410.952206774
 20
964.2755714286
 11
410.952206774
 21
959.2755714286
  0
LINE
  5
469
100
AcDbEntity
  8
0
100
AcDbLine
 62
7
  6
CONTINUOUS
 10
410.952206774
 20
946.6755714286
 11
410.952206774
 21
941.6755714286
  0
LINE
  5
46A
100
AcDbEntity
  8
0
100
AcDbLine
 62
7
  6
CONTINUOUS
 10
410.952206774
 20
929.0755714286
 11
410.952206774
 21
924.0755714286
  0
LINE
  5
46B
100
AcDbEntity
  8
0
100
AcDbLine
 62
7
  6
CONTINUOUS
 10
410.952206774
 20
911.4755714286
 11
410.952206774
 21
906.4755714286
  0
LINE
  5
46C
100
AcDbEntity
  8
0
100
AcDbLine
 62
7
  6
CONTINUOUS
 10
410.952206774
 20
893.8755714286
 11
410.952206774
 21
888.8755714286
  0
LINE
  5
46D
100
AcDbEntity
  8
0
100
AcDbLine
 62
7
  6
CONTINUOUS
 10
410.952206774
 20
876.2755714286
 11
410.952206774
 21
871.2755714286
  0
LINE
  5
46E
100
AcDbEntity
  8
0
100
AcDbLine
 62
7
  6
CONTINUOUS
 10
410.952206774
 20
858.6755714286
 11
410.952206774
 21
853.6755714286
  0
LINE
  5
46F
100
AcDbEntity
  8
0
100
AcDbLine
 62
7
  6
CONTINUOUS
 10
410.952206774
 20
841.0755714286
 11
410.952206774
 21
836.0755714286
  0
LINE
  5
470
100
AcDbEntity
  8
0
100
AcDbLine
 62
7
  6
CONTINUOUS
 10
410.952206774
 20
823.4755714286
 11
410.952206774
 21
818.4755714286
  0
LINE
  5
471
100
AcDbEntity
  8
0
100
AcDbLine
 62
7
  6
CONTINUOUS
 10
410.952206774
 20
805.8755714286
 11
410.952206774
 21
800.8755714286
  0
LINE
  5
472
100
AcDbEntity
  8
0
100
AcDbLine
 62
7
  6
CONTINUOUS
 10
410.952206774
 20
788.2755714286
 11
410.952206774
 21
783.2755714286
  0
LINE
  5
473
100
AcDbEntity
  8
0
100
AcDbLine
 62
7
  6
CONTINUOUS
 10
410.952206774
 20
770.6755714286
 11
410.952206774
 21
765.6755714286
  0
LINE
  5
474
100
AcDbEntity
  8
0
100
AcDbLine
 62
7
  6
CONTINUOUS
 10
410.952206774
 20
753.0755714286
 11
410.952206774
 21
748.0755714286
  0
LINE
  5
475
100
AcDbEntity
  8
0
100
AcDbLine
 62
7
  6
CONTINUOUS
 10
410.952206774
 20
735.4755714286
 11
410.952206774
 21
730.4755714286
  0
LINE
  5
476
100
AcDbEntity
  8
0
100
AcDbLine
 62
7
  6
CONTINUOUS
 10
410.952206774
 20
717.8755714286
 11
410.952206774
 21
712.8755714286
  0
LINE
  5
477
100
AcDbEntity
  8
0
100
AcDbLine
 62
7
  6
CONTINUOUS
 10
410.952206774
 20
700.2755714286
 11
410.952206774
 21
695.2755714286
  0
LINE
  5
478
100
AcDbEntity
  8
0
100
AcDbLine
 62
7
  6
CONTINUOUS
 10
410.952206774
 20
682.6755714286
 11
410.952206774
 21
677.6755714286
  0
LINE
  5
479
100
AcDbEntity
  8
0
100
AcDbLine
 62
7
  6
CONTINUOUS
 10
410.952206774
 20
665.0755714286
 11
410.952206774
 21
660.0755714286
  0
LINE
  5
47A
100
AcDbEntity
  8
0
100
AcDbLine
 62
7
  6
CONTINUOUS
 10
410.952206774
 20
647.4755714286
 11
410.952206774
 21
642.4755714286
  0
LINE
  5
47B
100
AcDbEntity
  8
0
100
AcDbLine
 62
7
  6
CONTINUOUS
 10
410.952206774
 20
629.8755714286
 11
410.952206774
 21
624.8755714286
  0
LINE
  5
47C
100
AcDbEntity
  8
0
100
AcDbLine
 62
7
  6
CONTINUOUS
 10
410.952206774
 20
612.2755714286
 11
410.952206774
 21
607.2755714286
  0
LINE
  5
47D
100
AcDbEntity
  8
0
100
AcDbLine
 62
7
  6
CONTINUOUS
 10
410.952206774
 20
594.6755714286
 11
410.952206774
 21
589.6755714286
  0
LINE
  5
47E
100
AcDbEntity
  8
0
100
AcDbLine
 62
7
  6
CONTINUOUS
 10
410.952206774
 20
577.0755714286
 11
410.952206774
 21
572.0755714286
  0
LINE
  5
47F
100
AcDbEntity
  8
0
100
AcDbLine
 62
7
  6
CONTINUOUS
 10
410.952206774
 20
559.4755714286
 11
410.952206774
 21
554.4755714286
  0
LINE
  5
480
100
AcDbEntity
  8
0
100
AcDbLine
 62
7
  6
CONTINUOUS
 10
410.952206774
 20
541.8755714286
 11
410.952206774
 21
536.8755714286
  0
LINE
  5
481
100
AcDbEntity
  8
0
100
AcDbLine
 62
7
  6
CONTINUOUS
 10
410.952206774
 20
524.2755714286
 11
410.952206774
 21
519.2755714286
  0
LINE
  5
482
100
AcDbEntity
  8
0
100
AcDbLine
 62
7
  6
CONTINUOUS
 10
410.952206774
 20
506.6755714286
 11
410.952206774
 21
501.6755714286
  0
LINE
  5
483
100
AcDbEntity
  8
0
100
AcDbLine
 62
7
  6
CONTINUOUS
 10
410.952206774
 20
489.0755714286
 11
410.952206774
 21
484.0755714286
  0
LINE
  5
484
100
AcDbEntity
  8
0
100
AcDbLine
 62
7
  6
CONTINUOUS
 10
410.952206774
 20
471.4755714286
 11
410.952206774
 21
466.4755714286
  0
LINE
  5
485
100
AcDbEntity
  8
0
100
AcDbLine
 62
7
  6
CONTINUOUS
 10
410.952206774
 20
453.8755714286
 11
410.952206774
 21
448.8755714286
  0
LINE
  5
486
100
AcDbEntity
  8
0
100
AcDbLine
 62
7
  6
CONTINUOUS
 10
410.952206774
 20
436.2755714286
 11
410.952206774
 21
431.2755714286
  0
LINE
  5
487
100
AcDbEntity
  8
0
100
AcDbLine
 62
7
  6
CONTINUOUS
 10
410.952206774
 20
418.6755714286
 11
410.952206774
 21
413.6755714286
  0
LINE
  5
488
100
AcDbEntity
  8
0
100
AcDbLine
 62
7
  6
CONTINUOUS
 10
410.952206774
 20
401.0755714286
 11
410.952206774
 21
396.0755714286
  0
LINE
  5
489
100
AcDbEntity
  8
0
100
AcDbLine
 62
7
  6
CONTINUOUS
 10
410.952206774
 20
383.4755714286
 11
410.952206774
 21
378.4755714286
  0
LINE
  5
48A
100
AcDbEntity
  8
0
100
AcDbLine
 62
7
  6
CONTINUOUS
 10
410.952206774
 20
365.8755714286
 11
410.952206774
 21
360.8755714286
  0
LINE
  5
48B
100
AcDbEntity
  8
0
100
AcDbLine
 62
7
  6
CONTINUOUS
 10
410.952206774
 20
348.2755714286
 11
410.952206774
 21
343.2755714286
  0
LINE
  5
48C
100
AcDbEntity
  8
0
100
AcDbLine
 62
7
  6
CONTINUOUS
 10
410.952206774
 20
330.6755714286
 11
410.952206774
 21
325.6755714286
  0
LINE
  5
48D
100
AcDbEntity
  8
0
100
AcDbLine
 62
7
  6
CONTINUOUS
 10
410.952206774
 20
313.0755714286
 11
410.952206774
 21
308.0755714286
  0
LINE
  5
48E
100
AcDbEntity
  8
0
100
AcDbLine
 62
7
  6
CONTINUOUS
 10
410.952206774
 20
295.4755714286
 11
410.952206774
 21
290.4755714286
  0
LINE
  5
48F
100
AcDbEntity
  8
0
100
AcDbLine
 62
7
  6
CONTINUOUS
 10
410.952206774
 20
277.8755714286
 11
410.952206774
 21
272.8755714286
  0
LINE
  5
490
100
AcDbEntity
  8
0
100
AcDbLine
 62
7
  6
CONTINUOUS
 10
410.952206774
 20
260.2755714286
 11
410.952206774
 21
255.2755714286
  0
LINE
  5
491
100
AcDbEntity
  8
0
100
AcDbLine
 62
7
  6
CONTINUOUS
 10
410.952206774
 20
242.6755714286
 11
410.952206774
 21
237.6755714286
  0
LINE
  5
492
100
AcDbEntity
  8
0
100
AcDbLine
 62
7
  6
CONTINUOUS
 10
410.952206774
 20
225.0755714286
 11
410.952206774
 21
220.0755714286
  0
LINE
  5
493
100
AcDbEntity
  8
0
100
AcDbLine
 62
7
  6
CONTINUOUS
 10
410.952206774
 20
207.4755714286
 11
410.952206774
 21
202.4755714286
  0
LINE
  5
494
100
AcDbEntity
  8
0
100
AcDbLine
 62
7
  6
CONTINUOUS
 10
410.952206774
 20
189.8755714286
 11
410.952206774
 21
184.8755714286
  0
LINE
  5
495
100
AcDbEntity
  8
0
100
AcDbLine
 62
7
  6
CONTINUOUS
 10
410.952206774
 20
172.2755714286
 11
410.952206774
 21
167.2755714286
  0
LINE
  5
496
100
AcDbEntity
  8
0
100
AcDbLine
 62
7
  6
CONTINUOUS
 10
410.952206774
 20
154.6755714286
 11
410.952206774
 21
149.6755714286
  0
LINE
  5
497
100
AcDbEntity
  8
0
100
AcDbLine
 62
7
  6
CONTINUOUS
 10
410.952206774
 20
137.0755714286
 11
410.952206774
 21
132.0755714286
  0
LINE
  5
498
100
AcDbEntity
  8
0
100
AcDbLine
 62
7
  6
CONTINUOUS
 10
410.952206774
 20
119.4755714286
 11
410.952206774
 21
114.4755714286
  0
LINE
  5
499
100
AcDbEntity
  8
0
100
AcDbLine
 62
7
  6
CONTINUOUS
 10
410.952206774
 20
101.8755714286
 11
410.952206774
 21
96.8755714286
  0
LINE
  5
49A
100
AcDbEntity
  8
0
100
AcDbLine
 62
7
  6
CONTINUOUS
 10
413.7157388497
 20
1087.4755714286
 11
413.7157388497
 21
1082.4755714286
  0
LINE
  5
49B
100
AcDbEntity
  8
0
100
AcDbLine
 62
7
  6
CONTINUOUS
 10
413.7157388497
 20
1069.8755714286
 11
413.7157388497
 21
1064.8755714286
  0
LINE
  5
49C
100
AcDbEntity
  8
0
100
AcDbLine
 62
7
  6
CONTINUOUS
 10
413.7157388497
 20
1052.2755714286
 11
413.7157388497
 21
1047.2755714286
  0
LINE
  5
49D
100
AcDbEntity
  8
0
100
AcDbLine
 62
7
  6
CONTINUOUS
 10
413.7157388497
 20
1034.6755714286
 11
413.7157388497
 21
1029.6755714286
  0
LINE
  5
49E
100
AcDbEntity
  8
0
100
AcDbLine
 62
7
  6
CONTINUOUS
 10
413.7157388497
 20
1017.0755714286
 11
413.7157388497
 21
1012.0755714286
  0
LINE
  5
49F
100
AcDbEntity
  8
0
100
AcDbLine
 62
7
  6
CONTINUOUS
 10
413.7157388497
 20
999.4755714286
 11
413.7157388497
 21
994.4755714286
  0
LINE
  5
4A0
100
AcDbEntity
  8
0
100
AcDbLine
 62
7
  6
CONTINUOUS
 10
413.7157388497
 20
981.8755714286
 11
413.7157388497
 21
976.8755714286
  0
LINE
  5
4A1
100
AcDbEntity
  8
0
100
AcDbLine
 62
7
  6
CONTINUOUS
 10
413.7157388497
 20
964.2755714286
 11
413.7157388497
 21
959.2755714286
  0
LINE
  5
4A2
100
AcDbEntity
  8
0
100
AcDbLine
 62
7
  6
CONTINUOUS
 10
413.7157388497
 20
946.6755714286
 11
413.7157388497
 21
941.6755714286
  0
LINE
  5
4A3
100
AcDbEntity
  8
0
100
AcDbLine
 62
7
  6
CONTINUOUS
 10
413.7157388497
 20
929.0755714286
 11
413.7157388497
 21
924.0755714286
  0
LINE
  5
4A4
100
AcDbEntity
  8
0
100
AcDbLine
 62
7
  6
CONTINUOUS
 10
413.7157388497
 20
911.4755714286
 11
413.7157388497
 21
906.4755714286
  0
LINE
  5
4A5
100
AcDbEntity
  8
0
100
AcDbLine
 62
7
  6
CONTINUOUS
 10
413.7157388497
 20
893.8755714286
 11
413.7157388497
 21
888.8755714286
  0
LINE
  5
4A6
100
AcDbEntity
  8
0
100
AcDbLine
 62
7
  6
CONTINUOUS
 10
413.7157388497
 20
876.2755714286
 11
413.7157388497
 21
871.2755714286
  0
LINE
  5
4A7
100
AcDbEntity
  8
0
100
AcDbLine
 62
7
  6
CONTINUOUS
 10
413.7157388497
 20
858.6755714286
 11
413.7157388497
 21
853.6755714286
  0
LINE
  5
4A8
100
AcDbEntity
  8
0
100
AcDbLine
 62
7
  6
CONTINUOUS
 10
413.7157388497
 20
841.0755714286
 11
413.7157388497
 21
836.0755714286
  0
LINE
  5
4A9
100
AcDbEntity
  8
0
100
AcDbLine
 62
7
  6
CONTINUOUS
 10
413.7157388497
 20
823.4755714286
 11
413.7157388497
 21
818.4755714286
  0
LINE
  5
4AA
100
AcDbEntity
  8
0
100
AcDbLine
 62
7
  6
CONTINUOUS
 10
413.7157388497
 20
805.8755714286
 11
413.7157388497
 21
800.8755714286
  0
LINE
  5
4AB
100
AcDbEntity
  8
0
100
AcDbLine
 62
7
  6
CONTINUOUS
 10
413.7157388497
 20
788.2755714286
 11
413.7157388497
 21
783.2755714286
  0
LINE
  5
4AC
100
AcDbEntity
  8
0
100
AcDbLine
 62
7
  6
CONTINUOUS
 10
413.7157388497
 20
770.6755714286
 11
413.7157388497
 21
765.6755714286
  0
LINE
  5
4AD
100
AcDbEntity
  8
0
100
AcDbLine
 62
7
  6
CONTINUOUS
 10
413.7157388497
 20
753.0755714286
 11
413.7157388497
 21
748.0755714286
  0
LINE
  5
4AE
100
AcDbEntity
  8
0
100
AcDbLine
 62
7
  6
CONTINUOUS
 10
413.7157388497
 20
735.4755714286
 11
413.7157388497
 21
730.4755714286
  0
LINE
  5
4AF
100
AcDbEntity
  8
0
100
AcDbLine
 62
7
  6
CONTINUOUS
 10
413.7157388497
 20
717.8755714286
 11
413.7157388497
 21
712.8755714286
  0
LINE
  5
4B0
100
AcDbEntity
  8
0
100
AcDbLine
 62
7
  6
CONTINUOUS
 10
413.7157388497
 20
700.2755714286
 11
413.7157388497
 21
695.2755714286
  0
LINE
  5
4B1
100
AcDbEntity
  8
0
100
AcDbLine
 62
7
  6
CONTINUOUS
 10
413.7157388497
 20
682.6755714286
 11
413.7157388497
 21
677.6755714286
  0
LINE
  5
4B2
100
AcDbEntity
  8
0
100
AcDbLine
 62
7
  6
CONTINUOUS
 10
413.7157388497
 20
665.0755714286
 11
413.7157388497
 21
660.0755714286
  0
LINE
  5
4B3
100
AcDbEntity
  8
0
100
AcDbLine
 62
7
  6
CONTINUOUS
 10
413.7157388497
 20
647.4755714286
 11
413.7157388497
 21
642.4755714286
  0
LINE
  5
4B4
100
AcDbEntity
  8
0
100
AcDbLine
 62
7
  6
CONTINUOUS
 10
413.7157388497
 20
629.8755714286
 11
413.7157388497
 21
624.8755714286
  0
LINE
  5
4B5
100
AcDbEntity
  8
0
100
AcDbLine
 62
7
  6
CONTINUOUS
 10
413.7157388497
 20
612.2755714286
 11
413.7157388497
 21
607.2755714286
  0
LINE
  5
4B6
100
AcDbEntity
  8
0
100
AcDbLine
 62
7
  6
CONTINUOUS
 10
413.7157388497
 20
594.6755714286
 11
413.7157388497
 21
589.6755714286
  0
LINE
  5
4B7
100
AcDbEntity
  8
0
100
AcDbLine
 62
7
  6
CONTINUOUS
 10
413.7157388497
 20
577.0755714286
 11
413.7157388497
 21
572.0755714286
  0
LINE
  5
4B8
100
AcDbEntity
  8
0
100
AcDbLine
 62
7
  6
CONTINUOUS
 10
413.7157388497
 20
559.4755714286
 11
413.7157388497
 21
554.4755714286
  0
LINE
  5
4B9
100
AcDbEntity
  8
0
100
AcDbLine
 62
7
  6
CONTINUOUS
 10
413.7157388497
 20
541.8755714286
 11
413.7157388497
 21
536.8755714286
  0
LINE
  5
4BA
100
AcDbEntity
  8
0
100
AcDbLine
 62
7
  6
CONTINUOUS
 10
413.7157388497
 20
524.2755714286
 11
413.7157388497
 21
519.2755714286
  0
LINE
  5
4BB
100
AcDbEntity
  8
0
100
AcDbLine
 62
7
  6
CONTINUOUS
 10
413.7157388497
 20
506.6755714286
 11
413.7157388497
 21
501.6755714286
  0
LINE
  5
4BC
100
AcDbEntity
  8
0
100
AcDbLine
 62
7
  6
CONTINUOUS
 10
413.7157388497
 20
489.0755714286
 11
413.7157388497
 21
484.0755714286
  0
LINE
  5
4BD
100
AcDbEntity
  8
0
100
AcDbLine
 62
7
  6
CONTINUOUS
 10
413.7157388497
 20
471.4755714286
 11
413.7157388497
 21
466.4755714286
  0
LINE
  5
4BE
100
AcDbEntity
  8
0
100
AcDbLine
 62
7
  6
CONTINUOUS
 10
413.7157388497
 20
453.8755714286
 11
413.7157388497
 21
448.8755714286
  0
LINE
  5
4BF
100
AcDbEntity
  8
0
100
AcDbLine
 62
7
  6
CONTINUOUS
 10
413.7157388497
 20
436.2755714286
 11
413.7157388497
 21
431.2755714286
  0
LINE
  5
4C0
100
AcDbEntity
  8
0
100
AcDbLine
 62
7
  6
CONTINUOUS
 10
413.7157388497
 20
418.6755714286
 11
413.7157388497
 21
413.6755714286
  0
LINE
  5
4C1
100
AcDbEntity
  8
0
100
AcDbLine
 62
7
  6
CONTINUOUS
 10
413.7157388497
 20
401.0755714286
 11
413.7157388497
 21
396.0755714286
  0
LINE
  5
4C2
100
AcDbEntity
  8
0
100
AcDbLine
 62
7
  6
CONTINUOUS
 10
413.7157388497
 20
383.4755714286
 11
413.7157388497
 21
378.4755714286
  0
LINE
  5
4C3
100
AcDbEntity
  8
0
100
AcDbLine
 62
7
  6
CONTINUOUS
 10
413.7157388497
 20
365.8755714286
 11
413.7157388497
 21
360.8755714286
  0
LINE
  5
4C4
100
AcDbEntity
  8
0
100
AcDbLine
 62
7
  6
CONTINUOUS
 10
413.7157388497
 20
348.2755714286
 11
413.7157388497
 21
343.2755714286
  0
LINE
  5
4C5
100
AcDbEntity
  8
0
100
AcDbLine
 62
7
  6
CONTINUOUS
 10
413.7157388497
 20
330.6755714286
 11
413.7157388497
 21
325.6755714286
  0
LINE
  5
4C6
100
AcDbEntity
  8
0
100
AcDbLine
 62
7
  6
CONTINUOUS
 10
413.7157388497
 20
313.0755714286
 11
413.7157388497
 21
308.0755714286
  0
LINE
  5
4C7
100
AcDbEntity
  8
0
100
AcDbLine
 62
7
  6
CONTINUOUS
 10
413.7157388497
 20
295.4755714286
 11
413.7157388497
 21
290.4755714286
  0
LINE
  5
4C8
100
AcDbEntity
  8
0
100
AcDbLine
 62
7
  6
CONTINUOUS
 10
413.7157388497
 20
277.8755714286
 11
413.7157388497
 21
272.8755714286
  0
LINE
  5
4C9
100
AcDbEntity
  8
0
100
AcDbLine
 62
7
  6
CONTINUOUS
 10
413.7157388497
 20
260.2755714286
 11
413.7157388497
 21
255.2755714286
  0
LINE
  5
4CA
100
AcDbEntity
  8
0
100
AcDbLine
 62
7
  6
CONTINUOUS
 10
413.7157388497
 20
242.6755714286
 11
413.7157388497
 21
237.6755714286
  0
LINE
  5
4CB
100
AcDbEntity
  8
0
100
AcDbLine
 62
7
  6
CONTINUOUS
 10
413.7157388497
 20
225.0755714286
 11
413.7157388497
 21
220.0755714286
  0
LINE
  5
4CC
100
AcDbEntity
  8
0
100
AcDbLine
 62
7
  6
CONTINUOUS
 10
413.7157388497
 20
207.4755714286
 11
413.7157388497
 21
202.4755714286
  0
LINE
  5
4CD
100
AcDbEntity
  8
0
100
AcDbLine
 62
7
  6
CONTINUOUS
 10
413.7157388497
 20
189.8755714286
 11
413.7157388497
 21
184.8755714286
  0
LINE
  5
4CE
100
AcDbEntity
  8
0
100
AcDbLine
 62
7
  6
CONTINUOUS
 10
413.7157388497
 20
172.2755714286
 11
413.7157388497
 21
167.2755714286
  0
LINE
  5
4CF
100
AcDbEntity
  8
0
100
AcDbLine
 62
7
  6
CONTINUOUS
 10
413.7157388497
 20
154.6755714286
 11
413.7157388497
 21
149.6755714286
  0
LINE
  5
4D0
100
AcDbEntity
  8
0
100
AcDbLine
 62
7
  6
CONTINUOUS
 10
413.7157388497
 20
137.0755714286
 11
413.7157388497
 21
132.0755714286
  0
LINE
  5
4D1
100
AcDbEntity
  8
0
100
AcDbLine
 62
7
  6
CONTINUOUS
 10
413.7157388497
 20
119.4755714286
 11
413.7157388497
 21
114.4755714286
  0
LINE
  5
4D2
100
AcDbEntity
  8
0
100
AcDbLine
 62
7
  6
CONTINUOUS
 10
413.7157388497
 20
101.8755714286
 11
413.7157388497
 21
96.8755714286
  0
LINE
  5
4D3
100
AcDbEntity
  8
0
100
AcDbLine
 62
7
  6
CONTINUOUS
 10
417.6625714286
 20
94.8755714286
 11
417.6625714286
 21
103.8755714286
  0
LINE
  5
4D4
100
AcDbEntity
  8
0
100
AcDbLine
 62
7
  6
CONTINUOUS
 10
417.6625714286
 20
112.4755714286
 11
417.6625714286
 21
121.4755714286
  0
LINE
  5
4D5
100
AcDbEntity
  8
0
100
AcDbLine
 62
7
  6
CONTINUOUS
 10
417.6625714286
 20
130.0755714286
 11
417.6625714286
 21
139.0755714286
  0
LINE
  5
4D6
100
AcDbEntity
  8
0
100
AcDbLine
 62
7
  6
CONTINUOUS
 10
417.6625714286
 20
147.6755714286
 11
417.6625714286
 21
156.6755714286
  0
LINE
  5
4D7
100
AcDbEntity
  8
0
100
AcDbLine
 62
7
  6
CONTINUOUS
 10
417.6625714286
 20
165.2755714286
 11
417.6625714286
 21
174.2755714286
  0
LINE
  5
4D8
100
AcDbEntity
  8
0
100
AcDbLine
 62
7
  6
CONTINUOUS
 10
417.6625714286
 20
182.8755714286
 11
417.6625714286
 21
191.8755714286
  0
LINE
  5
4D9
100
AcDbEntity
  8
0
100
AcDbLine
 62
7
  6
CONTINUOUS
 10
417.6625714286
 20
200.4755714286
 11
417.6625714286
 21
209.4755714286
  0
LINE
  5
4DA
100
AcDbEntity
  8
0
100
AcDbLine
 62
7
  6
CONTINUOUS
 10
417.6625714286
 20
218.0755714286
 11
417.6625714286
 21
227.0755714286
  0
LINE
  5
4DB
100
AcDbEntity
  8
0
100
AcDbLine
 62
7
  6
CONTINUOUS
 10
417.6625714286
 20
235.6755714286
 11
417.6625714286
 21
244.6755714286
  0
LINE
  5
4DC
100
AcDbEntity
  8
0
100
AcDbLine
 62
7
  6
CONTINUOUS
 10
417.6625714286
 20
253.2755714286
 11
417.6625714286
 21
262.2755714286
  0
LINE
  5
4DD
100
AcDbEntity
  8
0
100
AcDbLine
 62
7
  6
CONTINUOUS
 10
417.6625714286
 20
270.8755714286
 11
417.6625714286
 21
279.8755714286
  0
LINE
  5
4DE
100
AcDbEntity
  8
0
100
AcDbLine
 62
7
  6
CONTINUOUS
 10
417.6625714286
 20
288.4755714286
 11
417.6625714286
 21
297.4755714286
  0
LINE
  5
4DF
100
AcDbEntity
  8
0
100
AcDbLine
 62
7
  6
CONTINUOUS
 10
417.6625714286
 20
306.0755714286
 11
417.6625714286
 21
315.0755714286
  0
LINE
  5
4E0
100
AcDbEntity
  8
0
100
AcDbLine
 62
7
  6
CONTINUOUS
 10
417.6625714286
 20
323.6755714286
 11
417.6625714286
 21
332.6755714286
  0
LINE
  5
4E1
100
AcDbEntity
  8
0
100
AcDbLine
 62
7
  6
CONTINUOUS
 10
417.6625714286
 20
341.2755714286
 11
417.6625714286
 21
350.2755714286
  0
LINE
  5
4E2
100
AcDbEntity
  8
0
100
AcDbLine
 62
7
  6
CONTINUOUS
 10
417.6625714286
 20
358.8755714286
 11
417.6625714286
 21
367.8755714286
  0
LINE
  5
4E3
100
AcDbEntity
  8
0
100
AcDbLine
 62
7
  6
CONTINUOUS
 10
417.6625714286
 20
376.4755714286
 11
417.6625714286
 21
385.4755714286
  0
LINE
  5
4E4
100
AcDbEntity
  8
0
100
AcDbLine
 62
7
  6
CONTINUOUS
 10
417.6625714286
 20
394.0755714286
 11
417.6625714286
 21
403.0755714286
  0
LINE
  5
4E5
100
AcDbEntity
  8
0
100
AcDbLine
 62
7
  6
CONTINUOUS
 10
417.6625714286
 20
411.6755714286
 11
417.6625714286
 21
420.6755714286
  0
LINE
  5
4E6
100
AcDbEntity
  8
0
100
AcDbLine
 62
7
  6
CONTINUOUS
 10
417.6625714286
 20
429.2755714286
 11
417.6625714286
 21
438.2755714286
  0
LINE
  5
4E7
100
AcDbEntity
  8
0
100
AcDbLine
 62
7
  6
CONTINUOUS
 10
417.6625714286
 20
446.8755714286
 11
417.6625714286
 21
455.8755714286
  0
LINE
  5
4E8
100
AcDbEntity
  8
0
100
AcDbLine
 62
7
  6
CONTINUOUS
 10
417.6625714286
 20
464.4755714286
 11
417.6625714286
 21
473.4755714286
  0
LINE
  5
4E9
100
AcDbEntity
  8
0
100
AcDbLine
 62
7
  6
CONTINUOUS
 10
417.6625714286
 20
482.0755714286
 11
417.6625714286
 21
491.0755714286
  0
LINE
  5
4EA
100
AcDbEntity
  8
0
100
AcDbLine
 62
7
  6
CONTINUOUS
 10
417.6625714286
 20
499.6755714286
 11
417.6625714286
 21
508.6755714286
  0
LINE
  5
4EB
100
AcDbEntity
  8
0
100
AcDbLine
 62
7
  6
CONTINUOUS
 10
417.6625714286
 20
517.2755714286
 11
417.6625714286
 21
526.2755714286
  0
LINE
  5
4EC
100
AcDbEntity
  8
0
100
AcDbLine
 62
7
  6
CONTINUOUS
 10
417.6625714286
 20
534.8755714286
 11
417.6625714286
 21
543.8755714286
  0
LINE
  5
4ED
100
AcDbEntity
  8
0
100
AcDbLine
 62
7
  6
CONTINUOUS
 10
417.6625714286
 20
552.4755714286
 11
417.6625714286
 21
561.4755714286
  0
LINE
  5
4EE
100
AcDbEntity
  8
0
100
AcDbLine
 62
7
  6
CONTINUOUS
 10
417.6625714286
 20
570.0755714286
 11
417.6625714286
 21
579.0755714286
  0
LINE
  5
4EF
100
AcDbEntity
  8
0
100
AcDbLine
 62
7
  6
CONTINUOUS
 10
417.6625714286
 20
587.6755714286
 11
417.6625714286
 21
596.6755714286
  0
LINE
  5
4F0
100
AcDbEntity
  8
0
100
AcDbLine
 62
7
  6
CONTINUOUS
 10
417.6625714286
 20
605.2755714286
 11
417.6625714286
 21
614.2755714286
  0
LINE
  5
4F1
100
AcDbEntity
  8
0
100
AcDbLine
 62
7
  6
CONTINUOUS
 10
417.6625714286
 20
622.8755714286
 11
417.6625714286
 21
631.8755714286
  0
LINE
  5
4F2
100
AcDbEntity
  8
0
100
AcDbLine
 62
7
  6
CONTINUOUS
 10
417.6625714286
 20
640.4755714286
 11
417.6625714286
 21
649.4755714286
  0
LINE
  5
4F3
100
AcDbEntity
  8
0
100
AcDbLine
 62
7
  6
CONTINUOUS
 10
417.6625714286
 20
658.0755714286
 11
417.6625714286
 21
667.0755714286
  0
LINE
  5
4F4
100
AcDbEntity
  8
0
100
AcDbLine
 62
7
  6
CONTINUOUS
 10
417.6625714286
 20
675.6755714286
 11
417.6625714286
 21
684.6755714286
  0
LINE
  5
4F5
100
AcDbEntity
  8
0
100
AcDbLine
 62
7
  6
CONTINUOUS
 10
417.6625714286
 20
693.2755714286
 11
417.6625714286
 21
702.2755714286
  0
LINE
  5
4F6
100
AcDbEntity
  8
0
100
AcDbLine
 62
7
  6
CONTINUOUS
 10
417.6625714286
 20
710.8755714286
 11
417.6625714286
 21
719.8755714286
  0
LINE
  5
4F7
100
AcDbEntity
  8
0
100
AcDbLine
 62
7
  6
CONTINUOUS
 10
417.6625714286
 20
728.4755714286
 11
417.6625714286
 21
737.4755714286
  0
LINE
  5
4F8
100
AcDbEntity
  8
0
100
AcDbLine
 62
7
  6
CONTINUOUS
 10
417.6625714286
 20
746.0755714286
 11
417.6625714286
 21
755.0755714286
  0
LINE
  5
4F9
100
AcDbEntity
  8
0
100
AcDbLine
 62
7
  6
CONTINUOUS
 10
417.6625714286
 20
763.6755714286
 11
417.6625714286
 21
772.6755714286
  0
LINE
  5
4FA
100
AcDbEntity
  8
0
100
AcDbLine
 62
7
  6
CONTINUOUS
 10
417.6625714286
 20
781.2755714286
 11
417.6625714286
 21
790.2755714286
  0
LINE
  5
4FB
100
AcDbEntity
  8
0
100
AcDbLine
 62
7
  6
CONTINUOUS
 10
417.6625714286
 20
798.8755714286
 11
417.6625714286
 21
807.8755714286
  0
LINE
  5
4FC
100
AcDbEntity
  8
0
100
AcDbLine
 62
7
  6
CONTINUOUS
 10
417.6625714286
 20
816.4755714286
 11
417.6625714286
 21
825.4755714286
  0
LINE
  5
4FD
100
AcDbEntity
  8
0
100
AcDbLine
 62
7
  6
CONTINUOUS
 10
417.6625714286
 20
834.0755714286
 11
417.6625714286
 21
843.0755714286
  0
LINE
  5
4FE
100
AcDbEntity
  8
0
100
AcDbLine
 62
7
  6
CONTINUOUS
 10
417.6625714286
 20
851.6755714286
 11
417.6625714286
 21
860.6755714286
  0
LINE
  5
4FF
100
AcDbEntity
  8
0
100
AcDbLine
 62
7
  6
CONTINUOUS
 10
417.6625714286
 20
869.2755714286
 11
417.6625714286
 21
878.2755714286
  0
LINE
  5
500
100
AcDbEntity
  8
0
100
AcDbLine
 62
7
  6
CONTINUOUS
 10
417.6625714286
 20
886.8755714286
 11
417.6625714286
 21
895.8755714286
  0
LINE
  5
501
100
AcDbEntity
  8
0
100
AcDbLine
 62
7
  6
CONTINUOUS
 10
417.6625714286
 20
904.4755714286
 11
417.6625714286
 21
913.4755714286
  0
LINE
  5
502
100
AcDbEntity
  8
0
100
AcDbLine
 62
7
  6
CONTINUOUS
 10
417.6625714286
 20
922.0755714286
 11
417.6625714286
 21
931.0755714286
  0
LINE
  5
503
100
AcDbEntity
  8
0
100
AcDbLine
 62
7
  6
CONTINUOUS
 10
417.6625714286
 20
939.6755714286
 11
417.6625714286
 21
948.6755714286
  0
LINE
  5
504
100
AcDbEntity
  8
0
100
AcDbLine
 62
7
  6
CONTINUOUS
 10
417.6625714286
 20
957.2755714286
 11
417.6625714286
 21
966.2755714286
  0
LINE
  5
505
100
AcDbEntity
  8
0
100
AcDbLine
 62
7
  6
CONTINUOUS
 10
417.6625714286
 20
974.8755714286
 11
417.6625714286
 21
983.8755714286
  0
LINE
  5
506
100
AcDbEntity
  8
0
100
AcDbLine
 62
7
  6
CONTINUOUS
 10
417.6625714286
 20
992.4755714286
 11
417.6625714286
 21
1001.4755714286
  0
LINE
  5
507
100
AcDbEntity
  8
0
100
AcDbLine
 62
7
  6
CONTINUOUS
 10
417.6625714286
 20
1010.0755714286
 11
417.6625714286
 21
1019.0755714286
  0
LINE
  5
508
100
AcDbEntity
  8
0
100
AcDbLine
 62
7
  6
CONTINUOUS
 10
417.6625714286
 20
1027.6755714286
 11
417.6625714286
 21
1036.6755714286
  0
LINE
  5
509
100
AcDbEntity
  8
0
100
AcDbLine
 62
7
  6
CONTINUOUS
 10
417.6625714286
 20
1045.2755714286
 11
417.6625714286
 21
1054.2755714286
  0
LINE
  5
50A
100
AcDbEntity
  8
0
100
AcDbLine
 62
7
  6
CONTINUOUS
 10
417.6625714286
 20
1062.8755714286
 11
417.6625714286
 21
1071.8755714286
  0
LINE
  5
50B
100
AcDbEntity
  8
0
100
AcDbLine
 62
7
  6
CONTINUOUS
 10
417.6625714286
 20
1080.4755714286
 11
417.6625714286
 21
1089.4755714286
  0
LINE
  5
50C
100
AcDbEntity
  8
0
100
AcDbLine
 62
7
  6
CONTINUOUS
 10
420.020524322
 20
1089.4755714286
 11
420.020524322
 21
1080.4755714286
  0
LINE
  5
50D
100
AcDbEntity
  8
0
100
AcDbLine
 62
7
  6
CONTINUOUS
 10
420.020524322
 20
1071.8755714286
 11
420.020524322
 21
1062.8755714286
  0
LINE
  5
50E
100
AcDbEntity
  8
0
100
AcDbLine
 62
7
  6
CONTINUOUS
 10
420.020524322
 20
1054.2755714286
 11
420.020524322
 21
1045.2755714286
  0
LINE
  5
50F
100
AcDbEntity
  8
0
100
AcDbLine
 62
7
  6
CONTINUOUS
 10
420.020524322
 20
1036.6755714286
 11
420.020524322
 21
1027.6755714286
  0
LINE
  5
510
100
AcDbEntity
  8
0
100
AcDbLine
 62
7
  6
CONTINUOUS
 10
420.020524322
 20
1019.0755714286
 11
420.020524322
 21
1010.0755714286
  0
LINE
  5
511
100
AcDbEntity
  8
0
100
AcDbLine
 62
7
  6
CONTINUOUS
 10
420.020524322
 20
1001.4755714286
 11
420.020524322
 21
992.4755714286
  0
LINE
  5
512
100
AcDbEntity
  8
0
100
AcDbLine
 62
7
  6
CONTINUOUS
 10
420.020524322
 20
983.8755714286
 11
420.020524322
 21
974.8755714286
  0
LINE
  5
513
100
AcDbEntity
  8
0
100
AcDbLine
 62
7
  6
CONTINUOUS
 10
420.020524322
 20
966.2755714286
 11
420.020524322
 21
957.2755714286
  0
LINE
  5
514
100
AcDbEntity
  8
0
100
AcDbLine
 62
7
  6
CONTINUOUS
 10
420.020524322
 20
948.6755714286
 11
420.020524322
 21
939.6755714286
  0
LINE
  5
515
100
AcDbEntity
  8
0
100
AcDbLine
 62
7
  6
CONTINUOUS
 10
420.020524322
 20
931.0755714286
 11
420.020524322
 21
922.0755714286
  0
LINE
  5
516
100
AcDbEntity
  8
0
100
AcDbLine
 62
7
  6
CONTINUOUS
 10
420.020524322
 20
913.4755714286
 11
420.020524322
 21
904.4755714286
  0
LINE
  5
517
100
AcDbEntity
  8
0
100
AcDbLine
 62
7
  6
CONTINUOUS
 10
420.020524322
 20
895.8755714286
 11
420.020524322
 21
886.8755714286
  0
LINE
  5
518
100
AcDbEntity
  8
0
100
AcDbLine
 62
7
  6
CONTINUOUS
 10
420.020524322
 20
878.2755714286
 11
420.020524322
 21
869.2755714286
  0
LINE
  5
519
100
AcDbEntity
  8
0
100
AcDbLine
 62
7
  6
CONTINUOUS
 10
420.020524322
 20
860.6755714286
 11
420.020524322
 21
851.6755714286
  0
LINE
  5
51A
100
AcDbEntity
  8
0
100
AcDbLine
 62
7
  6
CONTINUOUS
 10
420.020524322
 20
843.0755714286
 11
420.020524322
 21
834.0755714286
  0
LINE
  5
51B
100
AcDbEntity
  8
0
100
AcDbLine
 62
7
  6
CONTINUOUS
 10
420.020524322
 20
825.4755714286
 11
420.020524322
 21
816.4755714286
  0
LINE
  5
51C
100
AcDbEntity
  8
0
100
AcDbLine
 62
7
  6
CONTINUOUS
 10
420.020524322
 20
807.8755714286
 11
420.020524322
 21
798.8755714286
  0
LINE
  5
51D
100
AcDbEntity
  8
0
100
AcDbLine
 62
7
  6
CONTINUOUS
 10
420.020524322
 20
790.2755714286
 11
420.020524322
 21
781.2755714286
  0
LINE
  5
51E
100
AcDbEntity
  8
0
100
AcDbLine
 62
7
  6
CONTINUOUS
 10
420.020524322
 20
772.6755714286
 11
420.020524322
 21
763.6755714286
  0
LINE
  5
51F
100
AcDbEntity
  8
0
100
AcDbLine
 62
7
  6
CONTINUOUS
 10
420.020524322
 20
755.0755714286
 11
420.020524322
 21
746.0755714286
  0
LINE
  5
520
100
AcDbEntity
  8
0
100
AcDbLine
 62
7
  6
CONTINUOUS
 10
420.020524322
 20
737.4755714286
 11
420.020524322
 21
728.4755714286
  0
LINE
  5
521
100
AcDbEntity
  8
0
100
AcDbLine
 62
7
  6
CONTINUOUS
 10
420.020524322
 20
719.8755714286
 11
420.020524322
 21
710.8755714286
  0
LINE
  5
522
100
AcDbEntity
  8
0
100
AcDbLine
 62
7
  6
CONTINUOUS
 10
420.020524322
 20
702.2755714286
 11
420.020524322
 21
693.2755714286
  0
LINE
  5
523
100
AcDbEntity
  8
0
100
AcDbLine
 62
7
  6
CONTINUOUS
 10
420.020524322
 20
684.6755714286
 11
420.020524322
 21
675.6755714286
  0
LINE
  5
524
100
AcDbEntity
  8
0
100
AcDbLine
 62
7
  6
CONTINUOUS
 10
420.020524322
 20
667.0755714286
 11
420.020524322
 21
658.0755714286
  0
LINE
  5
525
100
AcDbEntity
  8
0
100
AcDbLine
 62
7
  6
CONTINUOUS
 10
420.020524322
 20
649.4755714286
 11
420.020524322
 21
640.4755714286
  0
LINE
  5
526
100
AcDbEntity
  8
0
100
AcDbLine
 62
7
  6
CONTINUOUS
 10
420.020524322
 20
631.8755714286
 11
420.020524322
 21
622.8755714286
  0
LINE
  5
527
100
AcDbEntity
  8
0
100
AcDbLine
 62
7
  6
CONTINUOUS
 10
420.020524322
 20
614.2755714286
 11
420.020524322
 21
605.2755714286
  0
LINE
  5
528
100
AcDbEntity
  8
0
100
AcDbLine
 62
7
  6
CONTINUOUS
 10
420.020524322
 20
596.6755714286
 11
420.020524322
 21
587.6755714286
  0
LINE
  5
529
100
AcDbEntity
  8
0
100
AcDbLine
 62
7
  6
CONTINUOUS
 10
420.020524322
 20
579.0755714286
 11
420.020524322
 21
570.0755714286
  0
LINE
  5
52A
100
AcDbEntity
  8
0
100
AcDbLine
 62
7
  6
CONTINUOUS
 10
420.020524322
 20
561.4755714286
 11
420.020524322
 21
552.4755714286
  0
LINE
  5
52B
100
AcDbEntity
  8
0
100
AcDbLine
 62
7
  6
CONTINUOUS
 10
420.020524322
 20
543.8755714286
 11
420.020524322
 21
534.8755714286
  0
LINE
  5
52C
100
AcDbEntity
  8
0
100
AcDbLine
 62
7
  6
CONTINUOUS
 10
420.020524322
 20
526.2755714286
 11
420.020524322
 21
517.2755714286
  0
LINE
  5
52D
100
AcDbEntity
  8
0
100
AcDbLine
 62
7
  6
CONTINUOUS
 10
420.020524322
 20
508.6755714286
 11
420.020524322
 21
499.6755714286
  0
LINE
  5
52E
100
AcDbEntity
  8
0
100
AcDbLine
 62
7
  6
CONTINUOUS
 10
420.020524322
 20
491.0755714286
 11
420.020524322
 21
482.0755714286
  0
LINE
  5
52F
100
AcDbEntity
  8
0
100
AcDbLine
 62
7
  6
CONTINUOUS
 10
420.020524322
 20
473.4755714286
 11
420.020524322
 21
464.4755714286
  0
LINE
  5
530
100
AcDbEntity
  8
0
100
AcDbLine
 62
7
  6
CONTINUOUS
 10
420.020524322
 20
455.8755714286
 11
420.020524322
 21
446.8755714286
  0
LINE
  5
531
100
AcDbEntity
  8
0
100
AcDbLine
 62
7
  6
CONTINUOUS
 10
420.020524322
 20
438.2755714286
 11
420.020524322
 21
429.2755714286
  0
LINE
  5
532
100
AcDbEntity
  8
0
100
AcDbLine
 62
7
  6
CONTINUOUS
 10
420.020524322
 20
420.6755714286
 11
420.020524322
 21
411.6755714286
  0
LINE
  5
533
100
AcDbEntity
  8
0
100
AcDbLine
 62
7
  6
CONTINUOUS
 10
420.020524322
 20
403.0755714286
 11
420.020524322
 21
394.0755714286
  0
LINE
  5
534
100
AcDbEntity
  8
0
100
AcDbLine
 62
7
  6
CONTINUOUS
 10
420.020524322
 20
385.4755714286
 11
420.020524322
 21
376.4755714286
  0
LINE
  5
535
100
AcDbEntity
  8
0
100
AcDbLine
 62
7
  6
CONTINUOUS
 10
420.020524322
 20
367.8755714286
 11
420.020524322
 21
358.8755714286
  0
LINE
  5
536
100
AcDbEntity
  8
0
100
AcDbLine
 62
7
  6
CONTINUOUS
 10
420.020524322
 20
350.2755714286
 11
420.020524322
 21
341.2755714286
  0
LINE
  5
537
100
AcDbEntity
  8
0
100
AcDbLine
 62
7
  6
CONTINUOUS
 10
420.020524322
 20
332.6755714286
 11
420.020524322
 21
323.6755714286
  0
LINE
  5
538
100
AcDbEntity
  8
0
100
AcDbLine
 62
7
  6
CONTINUOUS
 10
420.020524322
 20
315.0755714286
 11
420.020524322
 21
306.0755714286
  0
LINE
  5
539
100
AcDbEntity
  8
0
100
AcDbLine
 62
7
  6
CONTINUOUS
 10
420.020524322
 20
297.4755714286
 11
420.020524322
 21
288.4755714286
  0
LINE
  5
53A
100
AcDbEntity
  8
0
100
AcDbLine
 62
7
  6
CONTINUOUS
 10
420.020524322
 20
279.8755714286
 11
420.020524322
 21
270.8755714286
  0
LINE
  5
53B
100
AcDbEntity
  8
0
100
AcDbLine
 62
7
  6
CONTINUOUS
 10
420.020524322
 20
262.2755714286
 11
420.020524322
 21
253.2755714286
  0
LINE
  5
53C
100
AcDbEntity
  8
0
100
AcDbLine
 62
7
  6
CONTINUOUS
 10
420.020524322
 20
244.6755714286
 11
420.020524322
 21
235.6755714286
  0
LINE
  5
53D
100
AcDbEntity
  8
0
100
AcDbLine
 62
7
  6
CONTINUOUS
 10
420.020524322
 20
227.0755714286
 11
420.020524322
 21
218.0755714286
  0
LINE
  5
53E
100
AcDbEntity
  8
0
100
AcDbLine
 62
7
  6
CONTINUOUS
 10
420.020524322
 20
209.4755714286
 11
420.020524322
 21
200.4755714286
  0
LINE
  5
53F
100
AcDbEntity
  8
0
100
AcDbLine
 62
7
  6
CONTINUOUS
 10
420.020524322
 20
191.8755714286
 11
420.020524322
 21
182.8755714286
  0
LINE
  5
540
100
AcDbEntity
  8
0
100
AcDbLine
 62
7
  6
CONTINUOUS
 10
420.020524322
 20
174.2755714286
 11
420.020524322
 21
165.2755714286
  0
LINE
  5
541
100
AcDbEntity
  8
0
100
AcDbLine
 62
7
  6
CONTINUOUS
 10
420.020524322
 20
156.6755714286
 11
420.020524322
 21
147.6755714286
  0
LINE
  5
542
100
AcDbEntity
  8
0
100
AcDbLine
 62
7
  6
CONTINUOUS
 10
420.020524322
 20
139.0755714286
 11
420.020524322
 21
130.0755714286
  0
LINE
  5
543
100
AcDbEntity
  8
0
100
AcDbLine
 62
7
  6
CONTINUOUS
 10
420.020524322
 20
121.4755714286
 11
420.020524322
 21
112.4755714286
  0
LINE
  5
544
100
AcDbEntity
  8
0
100
AcDbLine
 62
7
  6
CONTINUOUS
 10
420.020524322
 20
103.8755714286
 11
420.020524322
 21
94.8755714286
  0
LINE
  5
545
100
AcDbEntity
  8
0
100
AcDbLine
 62
7
  6
CONTINUOUS
 10
408.8323295033
 20
1095.208903838
 11
408.8361420826
 21
1097.0755714286
  0
LINE
  5
546
100
AcDbEntity
  8
0
100
AcDbLine
 62
7
  6
CONTINUOUS
 10
408.4125714286
 20
563.4755714286
 11
426.412518257
 21
563.4755714286
  0
LINE
  5
547
100
AcDbEntity
  8
0
100
AcDbLine
 62
7
  6
CONTINUOUS
 10
426.412518257
 20
568.0755714286
 11
408.4125714286
 21
568.0755714286
  0
LINE
  5
548
100
AcDbEntity
  8
0
100
AcDbLine
 62
7
  6
CONTINUOUS
 10
408.4125714286
 20
569.1755714286
 11
424.9125847873
 21
569.1755714286
  0
LINE
  5
549
100
AcDbEntity
  8
0
100
AcDbLine
 62
7
  6
CONTINUOUS
 10
408.4126786326
 20
570.0755714286
 11
420.020524322
 21
570.0755714286
  0
LINE
  5
54A
100
AcDbEntity
  8
0
100
AcDbLine
 62
7
  6
CONTINUOUS
 10
410.3125714286
 20
572.0755714286
 11
408.5125714286
 21
572.0755714286
  0
LINE
  5
54B
100
AcDbEntity
  8
0
100
AcDbLine
 62
7
  6
CONTINUOUS
 10
410.9522067741
 20
572.0755714286
 11
413.7157388497
 21
572.0755714286
  0
LINE
  5
54C
100
AcDbEntity
  8
0
100
AcDbLine
 62
7
  6
CONTINUOUS
 10
413.7157388497
 20
577.0755714286
 11
408.5125714286
 21
577.0755714286
  0
LINE
  5
54D
100
AcDbEntity
  8
0
100
AcDbLine
 62
7
  6
CONTINUOUS
 10
420.020524322
 20
579.0755714286
 11
408.4126786326
 21
579.0755714286
  0
LINE
  5
54E
100
AcDbEntity
  8
0
100
AcDbLine
 62
7
  6
CONTINUOUS
 10
424.9125847873
 20
579.9755714286
 11
408.4125714286
 21
579.9755714286
  0
LINE
  5
54F
100
AcDbEntity
  8
0
100
AcDbLine
 62
7
  6
CONTINUOUS
 10
408.4125714286
 20
581.0755714286
 11
426.412518257
 21
581.0755714286
  0
LINE
  5
550
100
AcDbEntity
  8
0
100
AcDbLine
 62
7
  6
CONTINUOUS
 10
426.412518257
 20
585.6755714286
 11
408.4125714286
 21
585.6755714286
  0
LINE
  5
551
100
AcDbEntity
  8
0
100
AcDbLine
 62
7
  6
CONTINUOUS
 10
408.4125714286
 20
586.7755714286
 11
424.9125847873
 21
586.7755714286
  0
LINE
  5
552
100
AcDbEntity
  8
0
100
AcDbLine
 62
7
  6
CONTINUOUS
 10
408.4126786326
 20
587.6755714286
 11
420.020524322
 21
587.6755714286
  0
LINE
  5
553
100
AcDbEntity
  8
0
100
AcDbLine
 62
7
  6
CONTINUOUS
 10
410.3125714286
 20
589.6755714286
 11
408.5125714286
 21
589.6755714286
  0
LINE
  5
554
100
AcDbEntity
  8
0
100
AcDbLine
 62
7
  6
CONTINUOUS
 10
410.9522067741
 20
589.6755714286
 11
413.7157388497
 21
589.6755714286
  0
LINE
  5
555
100
AcDbEntity
  8
0
100
AcDbLine
 62
7
  6
CONTINUOUS
 10
413.7157388497
 20
594.6755714286
 11
408.5125714286
 21
594.6755714286
  0
LINE
  5
556
100
AcDbEntity
  8
0
100
AcDbLine
 62
7
  6
CONTINUOUS
 10
420.020524322
 20
596.6755714286
 11
408.4126786326
 21
596.6755714286
  0
LINE
  5
557
100
AcDbEntity
  8
0
100
AcDbLine
 62
7
  6
CONTINUOUS
 10
423.4125714286
 20
93.9755714286
 11
423.4125714286
 21
104.7755714286
  0
LINE
  5
558
100
AcDbEntity
  8
0
100
AcDbLine
 62
7
  6
CONTINUOUS
 10
423.4125714286
 20
111.5755714286
 11
423.4125714286
 21
122.3755714286
  0
LINE
  5
559
100
AcDbEntity
  8
0
100
AcDbLine
 62
7
  6
CONTINUOUS
 10
423.4125714286
 20
129.1755714286
 11
423.4125714286
 21
139.9755714286
  0
LINE
  5
55A
100
AcDbEntity
  8
0
100
AcDbLine
 62
7
  6
CONTINUOUS
 10
423.4125714286
 20
146.7755714286
 11
423.4125714286
 21
157.5755714286
  0
LINE
  5
55B
100
AcDbEntity
  8
0
100
AcDbLine
 62
7
  6
CONTINUOUS
 10
423.4125714286
 20
164.3755714286
 11
423.4125714286
 21
175.1755714286
  0
LINE
  5
55C
100
AcDbEntity
  8
0
100
AcDbLine
 62
7
  6
CONTINUOUS
 10
423.4125714286
 20
181.9755714286
 11
423.4125714286
 21
192.7755714286
  0
LINE
  5
55D
100
AcDbEntity
  8
0
100
AcDbLine
 62
7
  6
CONTINUOUS
 10
423.4125714286
 20
199.5755714286
 11
423.4125714286
 21
210.3755714286
  0
LINE
  5
55E
100
AcDbEntity
  8
0
100
AcDbLine
 62
7
  6
CONTINUOUS
 10
423.4125714286
 20
217.1755714286
 11
423.4125714286
 21
227.9755714286
  0
LINE
  5
55F
100
AcDbEntity
  8
0
100
AcDbLine
 62
7
  6
CONTINUOUS
 10
423.4125714286
 20
234.7755714286
 11
423.4125714286
 21
245.5755714286
  0
LINE
  5
560
100
AcDbEntity
  8
0
100
AcDbLine
 62
7
  6
CONTINUOUS
 10
423.4125714286
 20
252.3755714286
 11
423.4125714286
 21
263.1755714286
  0
LINE
  5
561
100
AcDbEntity
  8
0
100
AcDbLine
 62
7
  6
CONTINUOUS
 10
423.4125714286
 20
269.9755714286
 11
423.4125714286
 21
280.7755714286
  0
LINE
  5
562
100
AcDbEntity
  8
0
100
AcDbLine
 62
7
  6
CONTINUOUS
 10
423.4125714286
 20
287.5755714286
 11
423.4125714286
 21
298.3755714286
  0
LINE
  5
563
100
AcDbEntity
  8
0
100
AcDbLine
 62
7
  6
CONTINUOUS
 10
423.4125714286
 20
305.1755714286
 11
423.4125714286
 21
315.9755714286
  0
LINE
  5
564
100
AcDbEntity
  8
0
100
AcDbLine
 62
7
  6
CONTINUOUS
 10
423.4125714286
 20
322.7755714286
 11
423.4125714286
 21
333.5755714286
  0
LINE
  5
565
100
AcDbEntity
  8
0
100
AcDbLine
 62
7
  6
CONTINUOUS
 10
423.4125714286
 20
340.3755714286
 11
423.4125714286
 21
351.1755714286
  0
LINE
  5
566
100
AcDbEntity
  8
0
100
AcDbLine
 62
7
  6
CONTINUOUS
 10
423.4125714286
 20
357.9755714286
 11
423.4125714286
 21
368.7755714286
  0
LINE
  5
567
100
AcDbEntity
  8
0
100
AcDbLine
 62
7
  6
CONTINUOUS
 10
423.4125714286
 20
375.5755714286
 11
423.4125714286
 21
386.3755714286
  0
LINE
  5
568
100
AcDbEntity
  8
0
100
AcDbLine
 62
7
  6
CONTINUOUS
 10
423.4125714286
 20
393.1755714286
 11
423.4125714286
 21
403.9755714286
  0
LINE
  5
569
100
AcDbEntity
  8
0
100
AcDbLine
 62
7
  6
CONTINUOUS
 10
423.4125714286
 20
410.7755714286
 11
423.4125714286
 21
421.5755714286
  0
LINE
  5
56A
100
AcDbEntity
  8
0
100
AcDbLine
 62
7
  6
CONTINUOUS
 10
423.4125714286
 20
428.3755714286
 11
423.4125714286
 21
439.1755714286
  0
LINE
  5
56B
100
AcDbEntity
  8
0
100
AcDbLine
 62
7
  6
CONTINUOUS
 10
423.4125714286
 20
445.9755714286
 11
423.4125714286
 21
456.7755714286
  0
LINE
  5
56C
100
AcDbEntity
  8
0
100
AcDbLine
 62
7
  6
CONTINUOUS
 10
423.4125714286
 20
463.5755714286
 11
423.4125714286
 21
474.3755714286
  0
LINE
  5
56D
100
AcDbEntity
  8
0
100
AcDbLine
 62
7
  6
CONTINUOUS
 10
423.4125714286
 20
481.1755714286
 11
423.4125714286
 21
491.9755714286
  0
LINE
  5
56E
100
AcDbEntity
  8
0
100
AcDbLine
 62
7
  6
CONTINUOUS
 10
423.4125714286
 20
498.7755714286
 11
423.4125714286
 21
509.5755714286
  0
LINE
  5
56F
100
AcDbEntity
  8
0
100
AcDbLine
 62
7
  6
CONTINUOUS
 10
423.4125714286
 20
516.3755714286
 11
423.4125714286
 21
527.1755714286
  0
LINE
  5
570
100
AcDbEntity
  8
0
100
AcDbLine
 62
7
  6
CONTINUOUS
 10
423.4125714286
 20
533.9755714286
 11
423.4125714286
 21
544.7755714286
  0
LINE
  5
571
100
AcDbEntity
  8
0
100
AcDbLine
 62
7
  6
CONTINUOUS
 10
423.4125714286
 20
551.5755714286
 11
423.4125714286
 21
562.3755714286
  0
LINE
  5
572
100
AcDbEntity
  8
0
100
AcDbLine
 62
7
  6
CONTINUOUS
 10
423.4125714286
 20
569.1755714286
 11
423.4125714286
 21
579.9755714286
  0
LINE
  5
573
100
AcDbEntity
  8
0
100
AcDbLine
 62
7
  6
CONTINUOUS
 10
423.4125714286
 20
586.7755714286
 11
423.4125714286
 21
597.5755714286
  0
LINE
  5
574
100
AcDbEntity
  8
0
100
AcDbLine
 62
7
  6
CONTINUOUS
 10
423.4125714286
 20
604.3755714286
 11
423.4125714286
 21
615.1755714286
  0
LINE
  5
575
100
AcDbEntity
  8
0
100
AcDbLine
 62
7
  6
CONTINUOUS
 10
423.4125714286
 20
621.9755714286
 11
423.4125714286
 21
632.7755714286
  0
LINE
  5
576
100
AcDbEntity
  8
0
100
AcDbLine
 62
7
  6
CONTINUOUS
 10
423.4125714286
 20
639.5755714286
 11
423.4125714286
 21
650.3755714286
  0
LINE
  5
577
100
AcDbEntity
  8
0
100
AcDbLine
 62
7
  6
CONTINUOUS
 10
423.4125714286
 20
657.1755714286
 11
423.4125714286
 21
667.9755714286
  0
LINE
  5
578
100
AcDbEntity
  8
0
100
AcDbLine
 62
7
  6
CONTINUOUS
 10
423.4125714286
 20
674.7755714286
 11
423.4125714286
 21
685.5755714286
  0
LINE
  5
579
100
AcDbEntity
  8
0
100
AcDbLine
 62
7
  6
CONTINUOUS
 10
423.4125714286
 20
692.3755714286
 11
423.4125714286
 21
703.1755714286
  0
LINE
  5
57A
100
AcDbEntity
  8
0
100
AcDbLine
 62
7
  6
CONTINUOUS
 10
423.4125714286
 20
709.9755714286
 11
423.4125714286
 21
720.7755714286
  0
LINE
  5
57B
100
AcDbEntity
  8
0
100
AcDbLine
 62
7
  6
CONTINUOUS
 10
423.4125714286
 20
727.5755714286
 11
423.4125714286
 21
738.3755714286
  0
LINE
  5
57C
100
AcDbEntity
  8
0
100
AcDbLine
 62
7
  6
CONTINUOUS
 10
423.4125714286
 20
745.1755714286
 11
423.4125714286
 21
755.9755714286
  0
LINE
  5
57D
100
AcDbEntity
  8
0
100
AcDbLine
 62
7
  6
CONTINUOUS
 10
423.4125714286
 20
762.7755714286
 11
423.4125714286
 21
773.5755714286
  0
LINE
  5
57E
100
AcDbEntity
  8
0
100
AcDbLine
 62
7
  6
CONTINUOUS
 10
423.4125714286
 20
780.3755714286
 11
423.4125714286
 21
791.1755714286
  0
LINE
  5
57F
100
AcDbEntity
  8
0
100
AcDbLine
 62
7
  6
CONTINUOUS
 10
423.4125714286
 20
797.9755714286
 11
423.4125714286
 21
808.7755714286
  0
LINE
  5
580
100
AcDbEntity
  8
0
100
AcDbLine
 62
7
  6
CONTINUOUS
 10
423.4125714286
 20
815.5755714286
 11
423.4125714286
 21
826.3755714286
  0
LINE
  5
581
100
AcDbEntity
  8
0
100
AcDbLine
 62
7
  6
CONTINUOUS
 10
423.4125714286
 20
833.1755714286
 11
423.4125714286
 21
843.9755714286
  0
LINE
  5
582
100
AcDbEntity
  8
0
100
AcDbLine
 62
7
  6
CONTINUOUS
 10
423.4125714286
 20
850.7755714286
 11
423.4125714286
 21
861.5755714286
  0
LINE
  5
583
100
AcDbEntity
  8
0
100
AcDbLine
 62
7
  6
CONTINUOUS
 10
423.4125714286
 20
868.3755714286
 11
423.4125714286
 21
879.1755714286
  0
LINE
  5
584
100
AcDbEntity
  8
0
100
AcDbLine
 62
7
  6
CONTINUOUS
 10
423.4125714286
 20
885.9755714286
 11
423.4125714286
 21
896.7755714286
  0
LINE
  5
585
100
AcDbEntity
  8
0
100
AcDbLine
 62
7
  6
CONTINUOUS
 10
423.4125714286
 20
903.5755714286
 11
423.4125714286
 21
914.3755714286
  0
LINE
  5
586
100
AcDbEntity
  8
0
100
AcDbLine
 62
7
  6
CONTINUOUS
 10
423.4125714286
 20
921.1755714286
 11
423.4125714286
 21
931.9755714286
  0
LINE
  5
587
100
AcDbEntity
  8
0
100
AcDbLine
 62
7
  6
CONTINUOUS
 10
423.4125714286
 20
938.7755714286
 11
423.4125714286
 21
949.5755714286
  0
LINE
  5
588
100
AcDbEntity
  8
0
100
AcDbLine
 62
7
  6
CONTINUOUS
 10
423.4125714286
 20
956.3755714286
 11
423.4125714286
 21
967.1755714286
  0
LINE
  5
589
100
AcDbEntity
  8
0
100
AcDbLine
 62
7
  6
CONTINUOUS
 10
423.4125714286
 20
973.9755714286
 11
423.4125714286
 21
984.7755714286
  0
LINE
  5
58A
100
AcDbEntity
  8
0
100
AcDbLine
 62
7
  6
CONTINUOUS
 10
423.4125714286
 20
991.5755714286
 11
423.4125714286
 21
1002.3755714286
  0
LINE
  5
58B
100
AcDbEntity
  8
0
100
AcDbLine
 62
7
  6
CONTINUOUS
 10
423.4125714286
 20
1009.1755714286
 11
423.4125714286
 21
1019.9755714286
  0
LINE
  5
58C
100
AcDbEntity
  8
0
100
AcDbLine
 62
7
  6
CONTINUOUS
 10
423.4125714286
 20
1026.7755714286
 11
423.4125714286
 21
1037.5755714286
  0
LINE
  5
58D
100
AcDbEntity
  8
0
100
AcDbLine
 62
7
  6
CONTINUOUS
 10
423.4125714286
 20
1044.3755714286
 11
423.4125714286
 21
1055.1755714286
  0
LINE
  5
58E
100
AcDbEntity
  8
0
100
AcDbLine
 62
7
  6
CONTINUOUS
 10
423.4125714286
 20
1061.9755714286
 11
423.4125714286
 21
1072.7755714286
  0
LINE
  5
58F
100
AcDbEntity
  8
0
100
AcDbLine
 62
7
  6
CONTINUOUS
 10
423.4125714286
 20
1079.5755714286
 11
423.4125714286
 21
1090.3755714286
  0
LINE
  5
590
100
AcDbEntity
  8
0
100
AcDbLine
 62
7
  6
CONTINUOUS
 10
424.9125847873
 20
93.9755714286
 11
424.9125847873
 21
104.7755714286
  0
LINE
  5
591
100
AcDbEntity
  8
0
100
AcDbLine
 62
7
  6
CONTINUOUS
 10
424.9125847873
 20
111.5755714286
 11
424.9125847873
 21
122.3755714286
  0
LINE
  5
592
100
AcDbEntity
  8
0
100
AcDbLine
 62
7
  6
CONTINUOUS
 10
424.9125847873
 20
129.1755714286
 11
424.9125847873
 21
139.9755714286
  0
LINE
  5
593
100
AcDbEntity
  8
0
100
AcDbLine
 62
7
  6
CONTINUOUS
 10
424.9125847873
 20
146.7755714286
 11
424.9125847873
 21
157.5755714286
  0
LINE
  5
594
100
AcDbEntity
  8
0
100
AcDbLine
 62
7
  6
CONTINUOUS
 10
424.9125847873
 20
164.3755714286
 11
424.9125847873
 21
175.1755714286
  0
LINE
  5
595
100
AcDbEntity
  8
0
100
AcDbLine
 62
7
  6
CONTINUOUS
 10
424.9125847873
 20
181.9755714286
 11
424.9125847873
 21
192.7755714286
  0
LINE
  5
596
100
AcDbEntity
  8
0
100
AcDbLine
 62
7
  6
CONTINUOUS
 10
424.9125847873
 20
199.5755714286
 11
424.9125847873
 21
210.3755714286
  0
LINE
  5
597
100
AcDbEntity
  8
0
100
AcDbLine
 62
7
  6
CONTINUOUS
 10
424.9125847873
 20
217.1755714286
 11
424.9125847873
 21
227.9755714286
  0
LINE
  5
598
100
AcDbEntity
  8
0
100
AcDbLine
 62
7
  6
CONTINUOUS
 10
424.9125847873
 20
234.7755714286
 11
424.9125847873
 21
245.5755714286
  0
LINE
  5
599
100
AcDbEntity
  8
0
100
AcDbLine
 62
7
  6
CONTINUOUS
 10
424.9125847873
 20
252.3755714286
 11
424.9125847873
 21
263.1755714286
  0
LINE
  5
59A
100
AcDbEntity
  8
0
100
AcDbLine
 62
7
  6
CONTINUOUS
 10
424.9125847873
 20
269.9755714286
 11
424.9125847873
 21
280.7755714286
  0
LINE
  5
59B
100
AcDbEntity
  8
0
100
AcDbLine
 62
7
  6
CONTINUOUS
 10
424.9125847873
 20
287.5755714286
 11
424.9125847873
 21
298.3755714286
  0
LINE
  5
59C
100
AcDbEntity
  8
0
100
AcDbLine
 62
7
  6
CONTINUOUS
 10
424.9125847873
 20
305.1755714286
 11
424.9125847873
 21
315.9755714286
  0
LINE
  5
59D
100
AcDbEntity
  8
0
100
AcDbLine
 62
7
  6
CONTINUOUS
 10
424.9125847873
 20
322.7755714286
 11
424.9125847873
 21
333.5755714286
  0
LINE
  5
59E
100
AcDbEntity
  8
0
100
AcDbLine
 62
7
  6
CONTINUOUS
 10
424.9125847873
 20
340.3755714286
 11
424.9125847873
 21
351.1755714286
  0
LINE
  5
59F
100
AcDbEntity
  8
0
100
AcDbLine
 62
7
  6
CONTINUOUS
 10
424.9125847873
 20
357.9755714286
 11
424.9125847873
 21
368.7755714286
  0
LINE
  5
5A0
100
AcDbEntity
  8
0
100
AcDbLine
 62
7
  6
CONTINUOUS
 10
424.9125847873
 20
375.5755714286
 11
424.9125847873
 21
386.3755714286
  0
LINE
  5
5A1
100
AcDbEntity
  8
0
100
AcDbLine
 62
7
  6
CONTINUOUS
 10
424.9125847873
 20
393.1755714286
 11
424.9125847873
 21
403.9755714286
  0
LINE
  5
5A2
100
AcDbEntity
  8
0
100
AcDbLine
 62
7
  6
CONTINUOUS
 10
424.9125847873
 20
410.7755714286
 11
424.9125847873
 21
421.5755714286
  0
LINE
  5
5A3
100
AcDbEntity
  8
0
100
AcDbLine
 62
7
  6
CONTINUOUS
 10
424.9125847873
 20
428.3755714286
 11
424.9125847873
 21
439.1755714286
  0
LINE
  5
5A4
100
AcDbEntity
  8
0
100
AcDbLine
 62
7
  6
CONTINUOUS
 10
424.9125847873
 20
445.9755714286
 11
424.9125847873
 21
456.7755714286
  0
LINE
  5
5A5
100
AcDbEntity
  8
0
100
AcDbLine
 62
7
  6
CONTINUOUS
 10
424.9125847873
 20
463.5755714286
 11
424.9125847873
 21
474.3755714286
  0
LINE
  5
5A6
100
AcDbEntity
  8
0
100
AcDbLine
 62
7
  6
CONTINUOUS
 10
424.9125847873
 20
481.1755714286
 11
424.9125847873
 21
491.9755714286
  0
LINE
  5
5A7
100
AcDbEntity
  8
0
100
AcDbLine
 62
7
  6
CONTINUOUS
 10
424.9125847873
 20
498.7755714286
 11
424.9125847873
 21
509.5755714286
  0
LINE
  5
5A8
100
AcDbEntity
  8
0
100
AcDbLine
 62
7
  6
CONTINUOUS
 10
424.9125847873
 20
516.3755714286
 11
424.9125847873
 21
527.1755714286
  0
LINE
  5
5A9
100
AcDbEntity
  8
0
100
AcDbLine
 62
7
  6
CONTINUOUS
 10
424.9125847873
 20
533.9755714286
 11
424.9125847873
 21
544.7755714286
  0
LINE
  5
5AA
100
AcDbEntity
  8
0
100
AcDbLine
 62
7
  6
CONTINUOUS
 10
424.9125847873
 20
551.5755714286
 11
424.9125847873
 21
562.3755714286
  0
LINE
  5
5AB
100
AcDbEntity
  8
0
100
AcDbLine
 62
7
  6
CONTINUOUS
 10
424.9125847873
 20
569.1755714286
 11
424.9125847873
 21
579.9755714286
  0
LINE
  5
5AC
100
AcDbEntity
  8
0
100
AcDbLine
 62
7
  6
CONTINUOUS
 10
424.9125847873
 20
586.7755714286
 11
424.9125847873
 21
597.5755714286
  0
LINE
  5
5AD
100
AcDbEntity
  8
0
100
AcDbLine
 62
7
  6
CONTINUOUS
 10
424.9125847873
 20
604.3755714286
 11
424.9125847873
 21
615.1755714286
  0
LINE
  5
5AE
100
AcDbEntity
  8
0
100
AcDbLine
 62
7
  6
CONTINUOUS
 10
424.9125847873
 20
621.9755714286
 11
424.9125847873
 21
632.7755714286
  0
LINE
  5
5AF
100
AcDbEntity
  8
0
100
AcDbLine
 62
7
  6
CONTINUOUS
 10
424.9125847873
 20
639.5755714286
 11
424.9125847873
 21
650.3755714286
  0
LINE
  5
5B0
100
AcDbEntity
  8
0
100
AcDbLine
 62
7
  6
CONTINUOUS
 10
424.9125847873
 20
657.1755714286
 11
424.9125847873
 21
667.9755714286
  0
LINE
  5
5B1
100
AcDbEntity
  8
0
100
AcDbLine
 62
7
  6
CONTINUOUS
 10
424.9125847873
 20
674.7755714286
 11
424.9125847873
 21
685.5755714286
  0
LINE
  5
5B2
100
AcDbEntity
  8
0
100
AcDbLine
 62
7
  6
CONTINUOUS
 10
424.9125847873
 20
692.3755714286
 11
424.9125847873
 21
703.1755714286
  0
LINE
  5
5B3
100
AcDbEntity
  8
0
100
AcDbLine
 62
7
  6
CONTINUOUS
 10
424.9125847873
 20
709.9755714286
 11
424.9125847873
 21
720.7755714286
  0
LINE
  5
5B4
100
AcDbEntity
  8
0
100
AcDbLine
 62
7
  6
CONTINUOUS
 10
424.9125847873
 20
727.5755714286
 11
424.9125847873
 21
738.3755714286
  0
LINE
  5
5B5
100
AcDbEntity
  8
0
100
AcDbLine
 62
7
  6
CONTINUOUS
 10
424.9125847873
 20
745.1755714286
 11
424.9125847873
 21
755.9755714286
  0
LINE
  5
5B6
100
AcDbEntity
  8
0
100
AcDbLine
 62
7
  6
CONTINUOUS
 10
424.9125847873
 20
762.7755714286
 11
424.9125847873
 21
773.5755714286
  0
LINE
  5
5B7
100
AcDbEntity
  8
0
100
AcDbLine
 62
7
  6
CONTINUOUS
 10
424.9125847873
 20
780.3755714286
 11
424.9125847873
 21
791.1755714286
  0
LINE
  5
5B8
100
AcDbEntity
  8
0
100
AcDbLine
 62
7
  6
CONTINUOUS
 10
424.9125847873
 20
797.9755714286
 11
424.9125847873
 21
808.7755714286
  0
LINE
  5
5B9
100
AcDbEntity
  8
0
100
AcDbLine
 62
7
  6
CONTINUOUS
 10
424.9125847873
 20
815.5755714286
 11
424.9125847873
 21
826.3755714286
  0
LINE
  5
5BA
100
AcDbEntity
  8
0
100
AcDbLine
 62
7
  6
CONTINUOUS
 10
424.9125847873
 20
833.1755714286
 11
424.9125847873
 21
843.9755714286
  0
LINE
  5
5BB
100
AcDbEntity
  8
0
100
AcDbLine
 62
7
  6
CONTINUOUS
 10
424.9125847873
 20
850.7755714286
 11
424.9125847873
 21
861.5755714286
  0
LINE
  5
5BC
100
AcDbEntity
  8
0
100
AcDbLine
 62
7
  6
CONTINUOUS
 10
424.9125847873
 20
868.3755714286
 11
424.9125847873
 21
879.1755714286
  0
LINE
  5
5BD
100
AcDbEntity
  8
0
100
AcDbLine
 62
7
  6
CONTINUOUS
 10
424.9125847873
 20
885.9755714286
 11
424.9125847873
 21
896.7755714286
  0
LINE
  5
5BE
100
AcDbEntity
  8
0
100
AcDbLine
 62
7
  6
CONTINUOUS
 10
424.9125847873
 20
903.5755714286
 11
424.9125847873
 21
914.3755714286
  0
LINE
  5
5BF
100
AcDbEntity
  8
0
100
AcDbLine
 62
7
  6
CONTINUOUS
 10
424.9125847873
 20
921.1755714286
 11
424.9125847873
 21
931.9755714286
  0
LINE
  5
5C0
100
AcDbEntity
  8
0
100
AcDbLine
 62
7
  6
CONTINUOUS
 10
424.9125847873
 20
938.7755714286
 11
424.9125847873
 21
949.5755714286
  0
LINE
  5
5C1
100
AcDbEntity
  8
0
100
AcDbLine
 62
7
  6
CONTINUOUS
 10
424.9125847873
 20
956.3755714286
 11
424.9125847873
 21
967.1755714286
  0
LINE
  5
5C2
100
AcDbEntity
  8
0
100
AcDbLine
 62
7
  6
CONTINUOUS
 10
424.9125847873
 20
973.9755714286
 11
424.9125847873
 21
984.7755714286
  0
LINE
  5
5C3
100
AcDbEntity
  8
0
100
AcDbLine
 62
7
  6
CONTINUOUS
 10
424.9125847873
 20
991.5755714286
 11
424.9125847873
 21
1002.3755714286
  0
LINE
  5
5C4
100
AcDbEntity
  8
0
100
AcDbLine
 62
7
  6
CONTINUOUS
 10
424.9125847873
 20
1009.1755714286
 11
424.9125847873
 21
1019.9755714286
  0
LINE
  5
5C5
100
AcDbEntity
  8
0
100
AcDbLine
 62
7
  6
CONTINUOUS
 10
424.9125847873
 20
1026.7755714286
 11
424.9125847873
 21
1037.5755714286
  0
LINE
  5
5C6
100
AcDbEntity
  8
0
100
AcDbLine
 62
7
  6
CONTINUOUS
 10
424.9125847873
 20
1044.3755714286
 11
424.9125847873
 21
1055.1755714286
  0
LINE
  5
5C7
100
AcDbEntity
  8
0
100
AcDbLine
 62
7
  6
CONTINUOUS
 10
424.9125847873
 20
1061.9755714286
 11
424.9125847873
 21
1072.7755714286
  0
LINE
  5
5C8
100
AcDbEntity
  8
0
100
AcDbLine
 62
7
  6
CONTINUOUS
 10
424.9125847873
 20
1079.5755714286
 11
424.9125847873
 21
1090.3755714286
  0
LINE
  5
5C9
100
AcDbEntity
  8
0
100
AcDbLine
 62
7
  6
CONTINUOUS
 10
426.412518257
 20
1091.4755714286
 11
426.412518257
 21
1078.4755714286
  0
LINE
  5
5CA
100
AcDbEntity
  8
0
100
AcDbLine
 62
7
  6
CONTINUOUS
 10
426.412518257
 20
1073.8755714286
 11
426.412518257
 21
1060.8755714286
  0
LINE
  5
5CB
100
AcDbEntity
  8
0
100
AcDbLine
 62
7
  6
CONTINUOUS
 10
426.412518257
 20
1056.2755714286
 11
426.412518257
 21
1043.2755714286
  0
LINE
  5
5CC
100
AcDbEntity
  8
0
100
AcDbLine
 62
7
  6
CONTINUOUS
 10
426.412518257
 20
1038.6755714286
 11
426.412518257
 21
1025.6755714286
  0
LINE
  5
5CD
100
AcDbEntity
  8
0
100
AcDbLine
 62
7
  6
CONTINUOUS
 10
426.412518257
 20
1021.0755714286
 11
426.412518257
 21
1008.0755714286
  0
LINE
  5
5CE
100
AcDbEntity
  8
0
100
AcDbLine
 62
7
  6
CONTINUOUS
 10
426.412518257
 20
1003.4755714286
 11
426.412518257
 21
990.4755714286
  0
LINE
  5
5CF
100
AcDbEntity
  8
0
100
AcDbLine
 62
7
  6
CONTINUOUS
 10
426.412518257
 20
985.8755714286
 11
426.412518257
 21
972.8755714286
  0
LINE
  5
5D0
100
AcDbEntity
  8
0
100
AcDbLine
 62
7
  6
CONTINUOUS
 10
426.412518257
 20
968.2755714286
 11
426.412518257
 21
955.2755714286
  0
LINE
  5
5D1
100
AcDbEntity
  8
0
100
AcDbLine
 62
7
  6
CONTINUOUS
 10
426.412518257
 20
950.6755714286
 11
426.412518257
 21
937.6755714286
  0
LINE
  5
5D2
100
AcDbEntity
  8
0
100
AcDbLine
 62
7
  6
CONTINUOUS
 10
426.412518257
 20
933.0755714286
 11
426.412518257
 21
920.0755714286
  0
LINE
  5
5D3
100
AcDbEntity
  8
0
100
AcDbLine
 62
7
  6
CONTINUOUS
 10
426.412518257
 20
915.4755714286
 11
426.412518257
 21
902.4755714286
  0
LINE
  5
5D4
100
AcDbEntity
  8
0
100
AcDbLine
 62
7
  6
CONTINUOUS
 10
426.412518257
 20
897.8755714286
 11
426.412518257
 21
884.8755714286
  0
LINE
  5
5D5
100
AcDbEntity
  8
0
100
AcDbLine
 62
7
  6
CONTINUOUS
 10
426.412518257
 20
880.2755714286
 11
426.412518257
 21
867.2755714286
  0
LINE
  5
5D6
100
AcDbEntity
  8
0
100
AcDbLine
 62
7
  6
CONTINUOUS
 10
426.412518257
 20
862.6755714286
 11
426.412518257
 21
849.6755714286
  0
LINE
  5
5D7
100
AcDbEntity
  8
0
100
AcDbLine
 62
7
  6
CONTINUOUS
 10
426.412518257
 20
845.0755714286
 11
426.412518257
 21
832.0755714286
  0
LINE
  5
5D8
100
AcDbEntity
  8
0
100
AcDbLine
 62
7
  6
CONTINUOUS
 10
426.412518257
 20
827.4755714286
 11
426.412518257
 21
814.4755714286
  0
LINE
  5
5D9
100
AcDbEntity
  8
0
100
AcDbLine
 62
7
  6
CONTINUOUS
 10
426.412518257
 20
809.8755714286
 11
426.412518257
 21
796.8755714286
  0
LINE
  5
5DA
100
AcDbEntity
  8
0
100
AcDbLine
 62
7
  6
CONTINUOUS
 10
426.412518257
 20
792.2755714286
 11
426.412518257
 21
779.2755714286
  0
LINE
  5
5DB
100
AcDbEntity
  8
0
100
AcDbLine
 62
7
  6
CONTINUOUS
 10
426.412518257
 20
774.6755714286
 11
426.412518257
 21
761.6755714286
  0
LINE
  5
5DC
100
AcDbEntity
  8
0
100
AcDbLine
 62
7
  6
CONTINUOUS
 10
426.412518257
 20
757.0755714286
 11
426.412518257
 21
744.0755714286
  0
LINE
  5
5DD
100
AcDbEntity
  8
0
100
AcDbLine
 62
7
  6
CONTINUOUS
 10
426.412518257
 20
739.4755714286
 11
426.412518257
 21
726.4755714286
  0
LINE
  5
5DE
100
AcDbEntity
  8
0
100
AcDbLine
 62
7
  6
CONTINUOUS
 10
426.412518257
 20
721.8755714286
 11
426.412518257
 21
708.8755714286
  0
LINE
  5
5DF
100
AcDbEntity
  8
0
100
AcDbLine
 62
7
  6
CONTINUOUS
 10
426.412518257
 20
704.2755714286
 11
426.412518257
 21
691.2755714286
  0
LINE
  5
5E0
100
AcDbEntity
  8
0
100
AcDbLine
 62
7
  6
CONTINUOUS
 10
426.412518257
 20
686.6755714286
 11
426.412518257
 21
673.6755714286
  0
LINE
  5
5E1
100
AcDbEntity
  8
0
100
AcDbLine
 62
7
  6
CONTINUOUS
 10
426.412518257
 20
669.0755714286
 11
426.412518257
 21
656.0755714286
  0
LINE
  5
5E2
100
AcDbEntity
  8
0
100
AcDbLine
 62
7
  6
CONTINUOUS
 10
426.412518257
 20
651.4755714286
 11
426.412518257
 21
638.4755714286
  0
LINE
  5
5E3
100
AcDbEntity
  8
0
100
AcDbLine
 62
7
  6
CONTINUOUS
 10
426.412518257
 20
633.8755714286
 11
426.412518257
 21
620.8755714286
  0
LINE
  5
5E4
100
AcDbEntity
  8
0
100
AcDbLine
 62
7
  6
CONTINUOUS
 10
426.412518257
 20
616.2755714286
 11
426.412518257
 21
603.2755714286
  0
LINE
  5
5E5
100
AcDbEntity
  8
0
100
AcDbLine
 62
7
  6
CONTINUOUS
 10
426.412518257
 20
598.6755714286
 11
426.412518257
 21
585.6755714286
  0
LINE
  5
5E6
100
AcDbEntity
  8
0
100
AcDbLine
 62
7
  6
CONTINUOUS
 10
426.412518257
 20
581.0755714286
 11
426.412518257
 21
568.0755714286
  0
LINE
  5
5E7
100
AcDbEntity
  8
0
100
AcDbLine
 62
7
  6
CONTINUOUS
 10
426.412518257
 20
563.4755714286
 11
426.412518257
 21
550.4755714286
  0
LINE
  5
5E8
100
AcDbEntity
  8
0
100
AcDbLine
 62
7
  6
CONTINUOUS
 10
426.412518257
 20
545.8755714286
 11
426.412518257
 21
532.8755714286
  0
LINE
  5
5E9
100
AcDbEntity
  8
0
100
AcDbLine
 62
7
  6
CONTINUOUS
 10
426.412518257
 20
528.2755714286
 11
426.412518257
 21
515.2755714286
  0
LINE
  5
5EA
100
AcDbEntity
  8
0
100
AcDbLine
 62
7
  6
CONTINUOUS
 10
426.412518257
 20
510.6755714286
 11
426.412518257
 21
497.6755714286
  0
LINE
  5
5EB
100
AcDbEntity
  8
0
100
AcDbLine
 62
7
  6
CONTINUOUS
 10
426.412518257
 20
493.0755714286
 11
426.412518257
 21
480.0755714286
  0
LINE
  5
5EC
100
AcDbEntity
  8
0
100
AcDbLine
 62
7
  6
CONTINUOUS
 10
426.412518257
 20
475.4755714286
 11
426.412518257
 21
462.4755714286
  0
LINE
  5
5ED
100
AcDbEntity
  8
0
100
AcDbLine
 62
7
  6
CONTINUOUS
 10
426.412518257
 20
457.8755714286
 11
426.412518257
 21
444.8755714286
  0
LINE
  5
5EE
100
AcDbEntity
  8
0
100
AcDbLine
 62
7
  6
CONTINUOUS
 10
426.412518257
 20
440.2755714286
 11
426.412518257
 21
427.2755714286
  0
LINE
  5
5EF
100
AcDbEntity
  8
0
100
AcDbLine
 62
7
  6
CONTINUOUS
 10
426.412518257
 20
422.6755714286
 11
426.412518257
 21
409.6755714286
  0
LINE
  5
5F0
100
AcDbEntity
  8
0
100
AcDbLine
 62
7
  6
CONTINUOUS
 10
426.412518257
 20
405.0755714286
 11
426.412518257
 21
392.0755714286
  0
LINE
  5
5F1
100
AcDbEntity
  8
0
100
AcDbLine
 62
7
  6
CONTINUOUS
 10
426.412518257
 20
387.4755714286
 11
426.412518257
 21
374.4755714286
  0
LINE
  5
5F2
100
AcDbEntity
  8
0
100
AcDbLine
 62
7
  6
CONTINUOUS
 10
426.412518257
 20
369.8755714286
 11
426.412518257
 21
356.8755714286
  0
LINE
  5
5F3
100
AcDbEntity
  8
0
100
AcDbLine
 62
7
  6
CONTINUOUS
 10
426.412518257
 20
352.2755714286
 11
426.412518257
 21
339.2755714286
  0
LINE
  5
5F4
100
AcDbEntity
  8
0
100
AcDbLine
 62
7
  6
CONTINUOUS
 10
426.412518257
 20
334.6755714286
 11
426.412518257
 21
321.6755714286
  0
LINE
  5
5F5
100
AcDbEntity
  8
0
100
AcDbLine
 62
7
  6
CONTINUOUS
 10
426.412518257
 20
317.0755714286
 11
426.412518257
 21
304.0755714286
  0
LINE
  5
5F6
100
AcDbEntity
  8
0
100
AcDbLine
 62
7
  6
CONTINUOUS
 10
426.412518257
 20
299.4755714286
 11
426.412518257
 21
286.4755714286
  0
LINE
  5
5F7
100
AcDbEntity
  8
0
100
AcDbLine
 62
7
  6
CONTINUOUS
 10
426.412518257
 20
281.8755714286
 11
426.412518257
 21
268.8755714286
  0
LINE
  5
5F8
100
AcDbEntity
  8
0
100
AcDbLine
 62
7
  6
CONTINUOUS
 10
426.412518257
 20
264.2755714286
 11
426.412518257
 21
251.2755714286
  0
LINE
  5
5F9
100
AcDbEntity
  8
0
100
AcDbLine
 62
7
  6
CONTINUOUS
 10
426.412518257
 20
246.6755714286
 11
426.412518257
 21
233.6755714286
  0
LINE
  5
5FA
100
AcDbEntity
  8
0
100
AcDbLine
 62
7
  6
CONTINUOUS
 10
426.412518257
 20
229.0755714286
 11
426.412518257
 21
216.0755714286
  0
LINE
  5
5FB
100
AcDbEntity
  8
0
100
AcDbLine
 62
7
  6
CONTINUOUS
 10
426.412518257
 20
211.4755714286
 11
426.412518257
 21
198.4755714286
  0
LINE
  5
5FC
100
AcDbEntity
  8
0
100
AcDbLine
 62
7
  6
CONTINUOUS
 10
426.412518257
 20
193.8755714286
 11
426.412518257
 21
180.8755714286
  0
LINE
  5
5FD
100
AcDbEntity
  8
0
100
AcDbLine
 62
7
  6
CONTINUOUS
 10
426.412518257
 20
176.2755714286
 11
426.412518257
 21
163.2755714286
  0
LINE
  5
5FE
100
AcDbEntity
  8
0
100
AcDbLine
 62
7
  6
CONTINUOUS
 10
426.412518257
 20
158.6755714286
 11
426.412518257
 21
145.6755714286
  0
LINE
  5
5FF
100
AcDbEntity
  8
0
100
AcDbLine
 62
7
  6
CONTINUOUS
 10
426.412518257
 20
141.0755714286
 11
426.412518257
 21
128.0755714286
  0
LINE
  5
600
100
AcDbEntity
  8
0
100
AcDbLine
 62
7
  6
CONTINUOUS
 10
426.412518257
 20
123.4755714286
 11
426.412518257
 21
110.4755714286
  0
LINE
  5
601
100
AcDbEntity
  8
0
100
AcDbLine
 62
7
  6
CONTINUOUS
 10
426.412518257
 20
105.8755714286
 11
426.412518257
 21
92.8755714286
  0
LINE
  5
602
100
AcDbEntity
  8
0
100
AcDbLine
 62
7
  6
CONTINUOUS
 10
427.5129605665
 20
87.2755714286
 11
427.5129605665
 21
1097.0755714286
  0
LINE
  5
603
100
AcDbEntity
  8
0
100
AcDbLine
 62
7
  6
CONTINUOUS
 10
427.8125714286
 20
1097.0755714286
 11
427.8125714286
 21
87.2755714286
  0
LINE
  5
604
100
AcDbEntity
  8
0
100
AcDbLine
 62
7
  6
CONTINUOUS
 10
424.9125847873
 20
597.5755714286
 11
408.4125714286
 21
597.5755714286
  0
LINE
  5
605
100
AcDbEntity
  8
0
100
AcDbLine
 62
7
  6
CONTINUOUS
 10
408.4125714286
 20
598.6755714286
 11
426.412518257
 21
598.6755714286
  0
LINE
  5
606
100
AcDbEntity
  8
0
100
AcDbLine
 62
7
  6
CONTINUOUS
 10
426.412518257
 20
603.2755714286
 11
408.4125714286
 21
603.2755714286
  0
LINE
  5
607
100
AcDbEntity
  8
0
100
AcDbLine
 62
7
  6
CONTINUOUS
 10
408.4125714286
 20
604.3755714286
 11
424.9125847873
 21
604.3755714286
  0
LINE
  5
608
100
AcDbEntity
  8
0
100
AcDbLine
 62
7
  6
CONTINUOUS
 10
408.4126786326
 20
605.2755714286
 11
420.020524322
 21
605.2755714286
  0
LINE
  5
609
100
AcDbEntity
  8
0
100
AcDbLine
 62
7
  6
CONTINUOUS
 10
410.3125714286
 20
607.2755714286
 11
408.5125714286
 21
607.2755714286
  0
LINE
  5
60A
100
AcDbEntity
  8
0
100
AcDbLine
 62
7
  6
CONTINUOUS
 10
410.9522067741
 20
607.2755714286
 11
413.7157388497
 21
607.2755714286
  0
LINE
  5
60B
100
AcDbEntity
  8
0
100
AcDbLine
 62
7
  6
CONTINUOUS
 10
413.7157388497
 20
612.2755714286
 11
408.5125714286
 21
612.2755714286
  0
LINE
  5
60C
100
AcDbEntity
  8
0
100
AcDbLine
 62
7
  6
CONTINUOUS
 10
420.020524322
 20
614.2755714286
 11
408.4126786326
 21
614.2755714286
  0
LINE
  5
60D
100
AcDbEntity
  8
0
100
AcDbLine
 62
7
  6
CONTINUOUS
 10
424.9125847873
 20
615.1755714286
 11
408.4125714286
 21
615.1755714286
  0
LINE
  5
60E
100
AcDbEntity
  8
0
100
AcDbLine
 62
7
  6
CONTINUOUS
 10
408.4125714286
 20
616.2755714286
 11
426.412518257
 21
616.2755714286
  0
LINE
  5
60F
100
AcDbEntity
  8
0
100
AcDbLine
 62
7
  6
CONTINUOUS
 10
426.412518257
 20
620.8755714286
 11
408.4125714286
 21
620.8755714286
  0
LINE
  5
610
100
AcDbEntity
  8
0
100
AcDbLine
 62
7
  6
CONTINUOUS
 10
408.4125714286
 20
621.9755714286
 11
424.9125847873
 21
621.9755714286
  0
LINE
  5
611
100
AcDbEntity
  8
0
100
AcDbLine
 62
7
  6
CONTINUOUS
 10
408.4126786326
 20
622.8755714286
 11
420.020524322
 21
622.8755714286
  0
LINE
  5
612
100
AcDbEntity
  8
0
100
AcDbLine
 62
7
  6
CONTINUOUS
 10
410.3125714286
 20
624.8755714286
 11
408.5125714286
 21
624.8755714286
  0
LINE
  5
613
100
AcDbEntity
  8
0
100
AcDbLine
 62
7
  6
CONTINUOUS
 10
410.9522067741
 20
624.8755714286
 11
413.7157388497
 21
624.8755714286
  0
LINE
  5
614
100
AcDbEntity
  8
0
100
AcDbLine
 62
7
  6
CONTINUOUS
 10
413.7157388497
 20
629.8755714286
 11
408.5125714286
 21
629.8755714286
  0
LINE
  5
615
100
AcDbEntity
  8
0
100
AcDbLine
 62
7
  6
CONTINUOUS
 10
420.020524322
 20
631.8755714286
 11
408.4126786326
 21
631.8755714286
  0
LINE
  5
616
100
AcDbEntity
  8
0
100
AcDbLine
 62
7
  6
CONTINUOUS
 10
424.9125847873
 20
632.7755714286
 11
408.4125714286
 21
632.7755714286
  0
LINE
  5
617
100
AcDbEntity
  8
0
100
AcDbLine
 62
7
  6
CONTINUOUS
 10
408.4125714286
 20
633.8755714286
 11
426.412518257
 21
633.8755714286
  0
LINE
  5
618
100
AcDbEntity
  8
0
100
AcDbLine
 62
7
  6
CONTINUOUS
 10
426.412518257
 20
638.4755714286
 11
408.4125714286
 21
638.4755714286
  0
LINE
  5
619
100
AcDbEntity
  8
0
100
AcDbLine
 62
7
  6
CONTINUOUS
 10
408.4125714286
 20
639.5755714286
 11
424.9125847873
 21
639.5755714286
  0
LINE
  5
61A
100
AcDbEntity
  8
0
100
AcDbLine
 62
7
  6
CONTINUOUS
 10
408.4126786326
 20
640.4755714286
 11
420.020524322
 21
640.4755714286
  0
LINE
  5
61B
100
AcDbEntity
  8
0
100
AcDbLine
 62
7
  6
CONTINUOUS
 10
410.3125714286
 20
642.4755714286
 11
408.5125714286
 21
642.4755714286
  0
LINE
  5
61C
100
AcDbEntity
  8
0
100
AcDbLine
 62
7
  6
CONTINUOUS
 10
410.9522067741
 20
642.4755714286
 11
413.7157388497
 21
642.4755714286
  0
LINE
  5
61D
100
AcDbEntity
  8
0
100
AcDbLine
 62
7
  6
CONTINUOUS
 10
413.7157388497
 20
647.4755714286
 11
408.5125714286
 21
647.4755714286
  0
LINE
  5
61E
100
AcDbEntity
  8
0
100
AcDbLine
 62
7
  6
CONTINUOUS
 10
420.020524322
 20
649.4755714286
 11
408.4126786326
 21
649.4755714286
  0
LINE
  5
61F
100
AcDbEntity
  8
0
100
AcDbLine
 62
7
  6
CONTINUOUS
 10
424.9125847873
 20
650.3755714286
 11
408.4125714286
 21
650.3755714286
  0
LINE
  5
620
100
AcDbEntity
  8
0
100
AcDbLine
 62
7
  6
CONTINUOUS
 10
408.4125714286
 20
651.4755714286
 11
426.412518257
 21
651.4755714286
  0
LINE
  5
621
100
AcDbEntity
  8
0
100
AcDbLine
 62
7
  6
CONTINUOUS
 10
426.412518257
 20
656.0755714286
 11
408.4125714286
 21
656.0755714286
  0
LINE
  5
622
100
AcDbEntity
  8
0
100
AcDbLine
 62
7
  6
CONTINUOUS
 10
408.4125714286
 20
657.1755714286
 11
424.9125847873
 21
657.1755714286
  0
LINE
  5
623
100
AcDbEntity
  8
0
100
AcDbLine
 62
7
  6
CONTINUOUS
 10
408.4126786326
 20
658.0755714286
 11
420.020524322
 21
658.0755714286
  0
LINE
  5
624
100
AcDbEntity
  8
0
100
AcDbLine
 62
7
  6
CONTINUOUS
 10
410.3125714286
 20
660.0755714286
 11
408.5125714286
 21
660.0755714286
  0
LINE
  5
625
100
AcDbEntity
  8
0
100
AcDbLine
 62
7
  6
CONTINUOUS
 10
410.9522067741
 20
660.0755714286
 11
413.7157388497
 21
660.0755714286
  0
LINE
  5
626
100
AcDbEntity
  8
0
100
AcDbLine
 62
7
  6
CONTINUOUS
 10
413.7157388497
 20
665.0755714286
 11
408.5125714286
 21
665.0755714286
  0
LINE
  5
627
100
AcDbEntity
  8
0
100
AcDbLine
 62
7
  6
CONTINUOUS
 10
420.020524322
 20
667.0755714286
 11
408.4126786326
 21
667.0755714286
  0
LINE
  5
628
100
AcDbEntity
  8
0
100
AcDbLine
 62
7
  6
CONTINUOUS
 10
424.9125847873
 20
667.9755714286
 11
408.4125714286
 21
667.9755714286
  0
LINE
  5
629
100
AcDbEntity
  8
0
100
AcDbLine
 62
7
  6
CONTINUOUS
 10
408.4125714286
 20
669.0755714286
 11
426.412518257
 21
669.0755714286
  0
LINE
  5
62A
100
AcDbEntity
  8
0
100
AcDbLine
 62
7
  6
CONTINUOUS
 10
426.412518257
 20
673.6755714286
 11
408.4125714286
 21
673.6755714286
  0
LINE
  5
62B
100
AcDbEntity
  8
0
100
AcDbLine
 62
7
  6
CONTINUOUS
 10
408.4125714286
 20
674.7755714286
 11
424.9125847873
 21
674.7755714286
  0
LINE
  5
62C
100
AcDbEntity
  8
0
100
AcDbLine
 62
7
  6
CONTINUOUS
 10
408.4126786326
 20
675.6755714286
 11
420.020524322
 21
675.6755714286
  0
LINE
  5
62D
100
AcDbEntity
  8
0
100
AcDbLine
 62
7
  6
CONTINUOUS
 10
410.3125714286
 20
677.6755714286
 11
408.5125714286
 21
677.6755714286
  0
LINE
  5
62E
100
AcDbEntity
  8
0
100
AcDbLine
 62
7
  6
CONTINUOUS
 10
410.9522067741
 20
677.6755714286
 11
413.7157388497
 21
677.6755714286
  0
LINE
  5
62F
100
AcDbEntity
  8
0
100
AcDbLine
 62
7
  6
CONTINUOUS
 10
413.7157388497
 20
682.6755714286
 11
408.5125714286
 21
682.6755714286
  0
LINE
  5
630
100
AcDbEntity
  8
0
100
AcDbLine
 62
7
  6
CONTINUOUS
 10
420.020524322
 20
684.6755714286
 11
408.4126786326
 21
684.6755714286
  0
LINE
  5
631
100
AcDbEntity
  8
0
100
AcDbLine
 62
7
  6
CONTINUOUS
 10
424.9125847873
 20
685.5755714286
 11
408.4125714286
 21
685.5755714286
  0
LINE
  5
632
100
AcDbEntity
  8
0
100
AcDbLine
 62
7
  6
CONTINUOUS
 10
408.4125714286
 20
686.6755714286
 11
426.412518257
 21
686.6755714286
  0
LINE
  5
633
100
AcDbEntity
  8
0
100
AcDbLine
 62
7
  6
CONTINUOUS
 10
426.412518257
 20
691.2755714286
 11
408.4125714286
 21
691.2755714286
  0
LINE
  5
634
100
AcDbEntity
  8
0
100
AcDbLine
 62
7
  6
CONTINUOUS
 10
408.4125714286
 20
692.3755714286
 11
424.9125847873
 21
692.3755714286
  0
LINE
  5
635
100
AcDbEntity
  8
0
100
AcDbLine
 62
7
  6
CONTINUOUS
 10
408.4126786326
 20
693.2755714286
 11
420.020524322
 21
693.2755714286
  0
LINE
  5
636
100
AcDbEntity
  8
0
100
AcDbLine
 62
7
  6
CONTINUOUS
 10
410.3125714286
 20
695.2755714286
 11
408.5125714286
 21
695.2755714286
  0
LINE
  5
637
100
AcDbEntity
  8
0
100
AcDbLine
 62
7
  6
CONTINUOUS
 10
410.9522067741
 20
695.2755714286
 11
413.7157388497
 21
695.2755714286
  0
LINE
  5
638
100
AcDbEntity
  8
0
100
AcDbLine
 62
7
  6
CONTINUOUS
 10
413.7157388497
 20
700.2755714286
 11
408.5125714286
 21
700.2755714286
  0
LINE
  5
639
100
AcDbEntity
  8
0
100
AcDbLine
 62
7
  6
CONTINUOUS
 10
420.020524322
 20
702.2755714286
 11
408.4126786326
 21
702.2755714286
  0
LINE
  5
63A
100
AcDbEntity
  8
0
100
AcDbLine
 62
7
  6
CONTINUOUS
 10
424.9125847873
 20
703.1755714286
 11
408.4125714286
 21
703.1755714286
  0
LINE
  5
63B
100
AcDbEntity
  8
0
100
AcDbLine
 62
7
  6
CONTINUOUS
 10
408.4125714286
 20
704.2755714286
 11
426.412518257
 21
704.2755714286
  0
LINE
  5
63C
100
AcDbEntity
  8
0
100
AcDbLine
 62
7
  6
CONTINUOUS
 10
426.412518257
 20
708.8755714286
 11
408.4125714286
 21
708.8755714286
  0
LINE
  5
63D
100
AcDbEntity
  8
0
100
AcDbLine
 62
7
  6
CONTINUOUS
 10
408.4125714286
 20
709.9755714286
 11
424.9125847873
 21
709.9755714286
  0
LINE
  5
63E
100
AcDbEntity
  8
0
100
AcDbLine
 62
7
  6
CONTINUOUS
 10
408.4126786326
 20
710.8755714286
 11
420.020524322
 21
710.8755714286
  0
LINE
  5
63F
100
AcDbEntity
  8
0
100
AcDbLine
 62
7
  6
CONTINUOUS
 10
410.3125714286
 20
712.8755714286
 11
408.5125714286
 21
712.8755714286
  0
LINE
  5
640
100
AcDbEntity
  8
0
100
AcDbLine
 62
7
  6
CONTINUOUS
 10
410.9522067741
 20
712.8755714286
 11
413.7157388497
 21
712.8755714286
  0
LINE
  5
641
100
AcDbEntity
  8
0
100
AcDbLine
 62
7
  6
CONTINUOUS
 10
413.7157388497
 20
717.8755714286
 11
408.5125714286
 21
717.8755714286
  0
LINE
  5
642
100
AcDbEntity
  8
0
100
AcDbLine
 62
7
  6
CONTINUOUS
 10
420.020524322
 20
719.8755714286
 11
408.4126786326
 21
719.8755714286
  0
LINE
  5
643
100
AcDbEntity
  8
0
100
AcDbLine
 62
7
  6
CONTINUOUS
 10
424.9125847873
 20
720.7755714286
 11
408.4125714286
 21
720.7755714286
  0
LINE
  5
644
100
AcDbEntity
  8
0
100
AcDbLine
 62
7
  6
CONTINUOUS
 10
408.4125714286
 20
721.8755714286
 11
426.412518257
 21
721.8755714286
  0
LINE
  5
645
100
AcDbEntity
  8
0
100
AcDbLine
 62
7
  6
CONTINUOUS
 10
426.412518257
 20
726.4755714286
 11
408.4125714286
 21
726.4755714286
  0
LINE
  5
646
100
AcDbEntity
  8
0
100
AcDbLine
 62
7
  6
CONTINUOUS
 10
408.4125714286
 20
727.5755714286
 11
424.9125847873
 21
727.5755714286
  0
LINE
  5
647
100
AcDbEntity
  8
0
100
AcDbLine
 62
7
  6
CONTINUOUS
 10
408.4126786326
 20
728.4755714286
 11
420.020524322
 21
728.4755714286
  0
LINE
  5
648
100
AcDbEntity
  8
0
100
AcDbLine
 62
7
  6
CONTINUOUS
 10
410.3125714286
 20
730.4755714286
 11
408.5125714286
 21
730.4755714286
  0
LINE
  5
649
100
AcDbEntity
  8
0
100
AcDbLine
 62
7
  6
CONTINUOUS
 10
410.9522067741
 20
730.4755714286
 11
413.7157388497
 21
730.4755714286
  0
LINE
  5
64A
100
AcDbEntity
  8
0
100
AcDbLine
 62
7
  6
CONTINUOUS
 10
413.7157388497
 20
735.4755714286
 11
408.5125714286
 21
735.4755714286
  0
LINE
  5
64B
100
AcDbEntity
  8
0
100
AcDbLine
 62
7
  6
CONTINUOUS
 10
420.020524322
 20
737.4755714286
 11
408.4126786326
 21
737.4755714286
  0
LINE
  5
64C
100
AcDbEntity
  8
0
100
AcDbLine
 62
7
  6
CONTINUOUS
 10
424.9125847873
 20
738.3755714286
 11
408.4125714286
 21
738.3755714286
  0
LINE
  5
64D
100
AcDbEntity
  8
0
100
AcDbLine
 62
7
  6
CONTINUOUS
 10
408.4125714286
 20
739.4755714286
 11
426.412518257
 21
739.4755714286
  0
LINE
  5
64E
100
AcDbEntity
  8
0
100
AcDbLine
 62
7
  6
CONTINUOUS
 10
426.412518257
 20
744.0755714286
 11
408.4125714286
 21
744.0755714286
  0
LINE
  5
64F
100
AcDbEntity
  8
0
100
AcDbLine
 62
7
  6
CONTINUOUS
 10
408.4125714286
 20
745.1755714286
 11
424.9125847873
 21
745.1755714286
  0
LINE
  5
650
100
AcDbEntity
  8
0
100
AcDbLine
 62
7
  6
CONTINUOUS
 10
408.4126786326
 20
746.0755714286
 11
420.020524322
 21
746.0755714286
  0
LINE
  5
651
100
AcDbEntity
  8
0
100
AcDbLine
 62
7
  6
CONTINUOUS
 10
410.3125714286
 20
748.0755714286
 11
408.5125714286
 21
748.0755714286
  0
LINE
  5
652
100
AcDbEntity
  8
0
100
AcDbLine
 62
7
  6
CONTINUOUS
 10
410.9522067741
 20
748.0755714286
 11
413.7157388497
 21
748.0755714286
  0
LINE
  5
653
100
AcDbEntity
  8
0
100
AcDbLine
 62
7
  6
CONTINUOUS
 10
413.7157388497
 20
753.0755714286
 11
408.5125714286
 21
753.0755714286
  0
LINE
  5
654
100
AcDbEntity
  8
0
100
AcDbLine
 62
7
  6
CONTINUOUS
 10
420.020524322
 20
755.0755714286
 11
408.4126786326
 21
755.0755714286
  0
LINE
  5
655
100
AcDbEntity
  8
0
100
AcDbLine
 62
7
  6
CONTINUOUS
 10
424.9125847873
 20
755.9755714286
 11
408.4125714286
 21
755.9755714286
  0
LINE
  5
656
100
AcDbEntity
  8
0
100
AcDbLine
 62
7
  6
CONTINUOUS
 10
408.4125714286
 20
757.0755714286
 11
426.412518257
 21
757.0755714286
  0
LINE
  5
657
100
AcDbEntity
  8
0
100
AcDbLine
 62
7
  6
CONTINUOUS
 10
426.412518257
 20
761.6755714286
 11
408.4125714286
 21
761.6755714286
  0
LINE
  5
658
100
AcDbEntity
  8
0
100
AcDbLine
 62
7
  6
CONTINUOUS
 10
408.4125714286
 20
762.7755714286
 11
424.9125847873
 21
762.7755714286
  0
LINE
  5
659
100
AcDbEntity
  8
0
100
AcDbLine
 62
7
  6
CONTINUOUS
 10
408.4126786326
 20
763.6755714286
 11
420.020524322
 21
763.6755714286
  0
LINE
  5
65A
100
AcDbEntity
  8
0
100
AcDbLine
 62
7
  6
CONTINUOUS
 10
410.3125714286
 20
765.6755714286
 11
408.5125714286
 21
765.6755714286
  0
LINE
  5
65B
100
AcDbEntity
  8
0
100
AcDbLine
 62
7
  6
CONTINUOUS
 10
410.9522067741
 20
765.6755714286
 11
413.7157388497
 21
765.6755714286
  0
LINE
  5
65C
100
AcDbEntity
  8
0
100
AcDbLine
 62
7
  6
CONTINUOUS
 10
413.7157388497
 20
770.6755714286
 11
408.5125714286
 21
770.6755714286
  0
LINE
  5
65D
100
AcDbEntity
  8
0
100
AcDbLine
 62
7
  6
CONTINUOUS
 10
420.020524322
 20
772.6755714286
 11
408.4126786326
 21
772.6755714286
  0
LINE
  5
65E
100
AcDbEntity
  8
0
100
AcDbLine
 62
7
  6
CONTINUOUS
 10
424.9125847873
 20
773.5755714286
 11
408.4125714286
 21
773.5755714286
  0
LINE
  5
65F
100
AcDbEntity
  8
0
100
AcDbLine
 62
7
  6
CONTINUOUS
 10
408.4125714286
 20
774.6755714286
 11
426.412518257
 21
774.6755714286
  0
LINE
  5
660
100
AcDbEntity
  8
0
100
AcDbLine
 62
7
  6
CONTINUOUS
 10
426.412518257
 20
779.2755714286
 11
408.4125714286
 21
779.2755714286
  0
LINE
  5
661
100
AcDbEntity
  8
0
100
AcDbLine
 62
7
  6
CONTINUOUS
 10
408.4125714286
 20
780.3755714286
 11
424.9125847873
 21
780.3755714286
  0
LINE
  5
662
100
AcDbEntity
  8
0
100
AcDbLine
 62
7
  6
CONTINUOUS
 10
408.4126786326
 20
781.2755714286
 11
420.020524322
 21
781.2755714286
  0
LINE
  5
663
100
AcDbEntity
  8
0
100
AcDbLine
 62
7
  6
CONTINUOUS
 10
410.3125714286
 20
783.2755714286
 11
408.5125714286
 21
783.2755714286
  0
LINE
  5
664
100
AcDbEntity
  8
0
100
AcDbLine
 62
7
  6
CONTINUOUS
 10
410.9522067741
 20
783.2755714286
 11
413.7157388497
 21
783.2755714286
  0
LINE
  5
665
100
AcDbEntity
  8
0
100
AcDbLine
 62
7
  6
CONTINUOUS
 10
413.7157388497
 20
788.2755714286
 11
408.5125714286
 21
788.2755714286
  0
LINE
  5
666
100
AcDbEntity
  8
0
100
AcDbLine
 62
7
  6
CONTINUOUS
 10
420.020524322
 20
790.2755714286
 11
408.4126786326
 21
790.2755714286
  0
LINE
  5
667
100
AcDbEntity
  8
0
100
AcDbLine
 62
7
  6
CONTINUOUS
 10
424.9125847873
 20
791.1755714286
 11
408.4125714286
 21
791.1755714286
  0
LINE
  5
668
100
AcDbEntity
  8
0
100
AcDbLine
 62
7
  6
CONTINUOUS
 10
408.4125714286
 20
792.2755714286
 11
426.412518257
 21
792.2755714286
  0
LINE
  5
669
100
AcDbEntity
  8
0
100
AcDbLine
 62
7
  6
CONTINUOUS
 10
426.412518257
 20
796.8755714286
 11
408.4125714286
 21
796.8755714286
  0
LINE
  5
66A
100
AcDbEntity
  8
0
100
AcDbLine
 62
7
  6
CONTINUOUS
 10
408.4125714286
 20
797.9755714286
 11
424.9125847873
 21
797.9755714286
  0
LINE
  5
66B
100
AcDbEntity
  8
0
100
AcDbLine
 62
7
  6
CONTINUOUS
 10
408.4126786326
 20
798.8755714286
 11
420.020524322
 21
798.8755714286
  0
LINE
  5
66C
100
AcDbEntity
  8
0
100
AcDbLine
 62
7
  6
CONTINUOUS
 10
410.3125714286
 20
800.8755714286
 11
408.5125714286
 21
800.8755714286
  0
LINE
  5
66D
100
AcDbEntity
  8
0
100
AcDbLine
 62
7
  6
CONTINUOUS
 10
410.9522067741
 20
800.8755714286
 11
413.7157388497
 21
800.8755714286
  0
LINE
  5
66E
100
AcDbEntity
  8
0
100
AcDbLine
 62
7
  6
CONTINUOUS
 10
413.7157388497
 20
805.8755714286
 11
408.5125714286
 21
805.8755714286
  0
LINE
  5
66F
100
AcDbEntity
  8
0
100
AcDbLine
 62
7
  6
CONTINUOUS
 10
420.020524322
 20
807.8755714286
 11
408.4126786326
 21
807.8755714286
  0
LINE
  5
670
100
AcDbEntity
  8
0
100
AcDbLine
 62
7
  6
CONTINUOUS
 10
424.9125847873
 20
808.7755714286
 11
408.4125714286
 21
808.7755714286
  0
LINE
  5
671
100
AcDbEntity
  8
0
100
AcDbLine
 62
7
  6
CONTINUOUS
 10
408.4125714286
 20
809.8755714286
 11
426.412518257
 21
809.8755714286
  0
LINE
  5
672
100
AcDbEntity
  8
0
100
AcDbLine
 62
7
  6
CONTINUOUS
 10
426.412518257
 20
814.4755714286
 11
408.4125714286
 21
814.4755714286
  0
LINE
  5
673
100
AcDbEntity
  8
0
100
AcDbLine
 62
7
  6
CONTINUOUS
 10
408.4125714286
 20
815.5755714286
 11
424.9125847873
 21
815.5755714286
  0
LINE
  5
674
100
AcDbEntity
  8
0
100
AcDbLine
 62
7
  6
CONTINUOUS
 10
408.4126786326
 20
816.4755714286
 11
420.020524322
 21
816.4755714286
  0
LINE
  5
675
100
AcDbEntity
  8
0
100
AcDbLine
 62
7
  6
CONTINUOUS
 10
410.3125714286
 20
818.4755714286
 11
408.5125714286
 21
818.4755714286
  0
LINE
  5
676
100
AcDbEntity
  8
0
100
AcDbLine
 62
7
  6
CONTINUOUS
 10
410.9522067741
 20
818.4755714286
 11
413.7157388497
 21
818.4755714286
  0
LINE
  5
677
100
AcDbEntity
  8
0
100
AcDbLine
 62
7
  6
CONTINUOUS
 10
413.7157388497
 20
823.4755714286
 11
408.5125714286
 21
823.4755714286
  0
LINE
  5
678
100
AcDbEntity
  8
0
100
AcDbLine
 62
7
  6
CONTINUOUS
 10
420.020524322
 20
825.4755714286
 11
408.4126786326
 21
825.4755714286
  0
LINE
  5
679
100
AcDbEntity
  8
0
100
AcDbLine
 62
7
  6
CONTINUOUS
 10
424.9125847873
 20
826.3755714286
 11
408.4125714286
 21
826.3755714286
  0
LINE
  5
67A
100
AcDbEntity
  8
0
100
AcDbLine
 62
7
  6
CONTINUOUS
 10
408.4125714286
 20
827.4755714286
 11
426.412518257
 21
827.4755714286
  0
LINE
  5
67B
100
AcDbEntity
  8
0
100
AcDbLine
 62
7
  6
CONTINUOUS
 10
426.412518257
 20
832.0755714286
 11
408.4125714286
 21
832.0755714286
  0
LINE
  5
67C
100
AcDbEntity
  8
0
100
AcDbLine
 62
7
  6
CONTINUOUS
 10
408.4125714286
 20
833.1755714286
 11
424.9125847873
 21
833.1755714286
  0
LINE
  5
67D
100
AcDbEntity
  8
0
100
AcDbLine
 62
7
  6
CONTINUOUS
 10
408.4126786326
 20
834.0755714286
 11
420.020524322
 21
834.0755714286
  0
LINE
  5
67E
100
AcDbEntity
  8
0
100
AcDbLine
 62
7
  6
CONTINUOUS
 10
410.3125714286
 20
836.0755714286
 11
408.5125714286
 21
836.0755714286
  0
LINE
  5
67F
100
AcDbEntity
  8
0
100
AcDbLine
 62
7
  6
CONTINUOUS
 10
410.9522067741
 20
836.0755714286
 11
413.7157388497
 21
836.0755714286
  0
LINE
  5
680
100
AcDbEntity
  8
0
100
AcDbLine
 62
7
  6
CONTINUOUS
 10
413.7157388497
 20
841.0755714286
 11
408.5125714286
 21
841.0755714286
  0
LINE
  5
681
100
AcDbEntity
  8
0
100
AcDbLine
 62
7
  6
CONTINUOUS
 10
420.020524322
 20
843.0755714286
 11
408.4126786326
 21
843.0755714286
  0
LINE
  5
682
100
AcDbEntity
  8
0
100
AcDbLine
 62
7
  6
CONTINUOUS
 10
424.9125847873
 20
843.9755714286
 11
408.4125714286
 21
843.9755714286
  0
LINE
  5
683
100
AcDbEntity
  8
0
100
AcDbLine
 62
7
  6
CONTINUOUS
 10
408.4125714286
 20
845.0755714286
 11
426.412518257
 21
845.0755714286
  0
LINE
  5
684
100
AcDbEntity
  8
0
100
AcDbLine
 62
7
  6
CONTINUOUS
 10
426.412518257
 20
849.6755714286
 11
408.4125714286
 21
849.6755714286
  0
LINE
  5
685
100
AcDbEntity
  8
0
100
AcDbLine
 62
7
  6
CONTINUOUS
 10
408.4125714286
 20
850.7755714286
 11
424.9125847873
 21
850.7755714286
  0
LINE
  5
686
100
AcDbEntity
  8
0
100
AcDbLine
 62
7
  6
CONTINUOUS
 10
408.4126786326
 20
851.6755714286
 11
420.020524322
 21
851.6755714286
  0
LINE
  5
687
100
AcDbEntity
  8
0
100
AcDbLine
 62
7
  6
CONTINUOUS
 10
410.3125714286
 20
853.6755714286
 11
408.5125714286
 21
853.6755714286
  0
LINE
  5
688
100
AcDbEntity
  8
0
100
AcDbLine
 62
7
  6
CONTINUOUS
 10
410.9522067741
 20
853.6755714286
 11
413.7157388497
 21
853.6755714286
  0
LINE
  5
689
100
AcDbEntity
  8
0
100
AcDbLine
 62
7
  6
CONTINUOUS
 10
413.7157388497
 20
858.6755714286
 11
408.5125714286
 21
858.6755714286
  0
LINE
  5
68A
100
AcDbEntity
  8
0
100
AcDbLine
 62
7
  6
CONTINUOUS
 10
420.020524322
 20
860.6755714286
 11
408.4126786326
 21
860.6755714286
  0
LINE
  5
68B
100
AcDbEntity
  8
0
100
AcDbLine
 62
7
  6
CONTINUOUS
 10
424.9125847873
 20
861.5755714286
 11
408.4125714286
 21
861.5755714286
  0
LINE
  5
68C
100
AcDbEntity
  8
0
100
AcDbLine
 62
7
  6
CONTINUOUS
 10
408.4125714286
 20
862.6755714286
 11
426.412518257
 21
862.6755714286
  0
LINE
  5
68D
100
AcDbEntity
  8
0
100
AcDbLine
 62
7
  6
CONTINUOUS
 10
426.412518257
 20
867.2755714286
 11
408.4125714286
 21
867.2755714286
  0
LINE
  5
68E
100
AcDbEntity
  8
0
100
AcDbLine
 62
7
  6
CONTINUOUS
 10
408.4125714286
 20
868.3755714286
 11
424.9125847873
 21
868.3755714286
  0
LINE
  5
68F
100
AcDbEntity
  8
0
100
AcDbLine
 62
7
  6
CONTINUOUS
 10
408.4126786326
 20
869.2755714286
 11
420.020524322
 21
869.2755714286
  0
LINE
  5
690
100
AcDbEntity
  8
0
100
AcDbLine
 62
7
  6
CONTINUOUS
 10
410.3125714286
 20
871.2755714286
 11
408.5125714286
 21
871.2755714286
  0
LINE
  5
691
100
AcDbEntity
  8
0
100
AcDbLine
 62
7
  6
CONTINUOUS
 10
410.9522067741
 20
871.2755714286
 11
413.7157388497
 21
871.2755714286
  0
LINE
  5
692
100
AcDbEntity
  8
0
100
AcDbLine
 62
7
  6
CONTINUOUS
 10
413.7157388497
 20
876.2755714286
 11
408.5125714286
 21
876.2755714286
  0
LINE
  5
693
100
AcDbEntity
  8
0
100
AcDbLine
 62
7
  6
CONTINUOUS
 10
420.020524322
 20
878.2755714286
 11
408.4126786326
 21
878.2755714286
  0
LINE
  5
694
100
AcDbEntity
  8
0
100
AcDbLine
 62
7
  6
CONTINUOUS
 10
424.9125847873
 20
879.1755714286
 11
408.4125714286
 21
879.1755714286
  0
LINE
  5
695
100
AcDbEntity
  8
0
100
AcDbLine
 62
7
  6
CONTINUOUS
 10
408.4125714286
 20
880.2755714286
 11
426.412518257
 21
880.2755714286
  0
LINE
  5
696
100
AcDbEntity
  8
0
100
AcDbLine
 62
7
  6
CONTINUOUS
 10
426.412518257
 20
884.8755714286
 11
408.4125714286
 21
884.8755714286
  0
LINE
  5
697
100
AcDbEntity
  8
0
100
AcDbLine
 62
7
  6
CONTINUOUS
 10
408.4125714286
 20
885.9755714286
 11
424.9125847873
 21
885.9755714286
  0
LINE
  5
698
100
AcDbEntity
  8
0
100
AcDbLine
 62
7
  6
CONTINUOUS
 10
408.4126786326
 20
886.8755714286
 11
420.020524322
 21
886.8755714286
  0
LINE
  5
699
100
AcDbEntity
  8
0
100
AcDbLine
 62
7
  6
CONTINUOUS
 10
410.3125714286
 20
888.8755714286
 11
408.5125714286
 21
888.8755714286
  0
LINE
  5
69A
100
AcDbEntity
  8
0
100
AcDbLine
 62
7
  6
CONTINUOUS
 10
410.9522067741
 20
888.8755714286
 11
413.7157388497
 21
888.8755714286
  0
LINE
  5
69B
100
AcDbEntity
  8
0
100
AcDbLine
 62
7
  6
CONTINUOUS
 10
413.7157388497
 20
893.8755714286
 11
408.5125714286
 21
893.8755714286
  0
LINE
  5
69C
100
AcDbEntity
  8
0
100
AcDbLine
 62
7
  6
CONTINUOUS
 10
420.020524322
 20
895.8755714286
 11
408.4126786326
 21
895.8755714286
  0
LINE
  5
69D
100
AcDbEntity
  8
0
100
AcDbLine
 62
7
  6
CONTINUOUS
 10
424.9125847873
 20
896.7755714286
 11
408.4125714286
 21
896.7755714286
  0
LINE
  5
69E
100
AcDbEntity
  8
0
100
AcDbLine
 62
7
  6
CONTINUOUS
 10
408.4125714286
 20
897.8755714286
 11
426.412518257
 21
897.8755714286
  0
LINE
  5
69F
100
AcDbEntity
  8
0
100
AcDbLine
 62
7
  6
CONTINUOUS
 10
426.412518257
 20
902.4755714286
 11
408.4125714286
 21
902.4755714286
  0
LINE
  5
6A0
100
AcDbEntity
  8
0
100
AcDbLine
 62
7
  6
CONTINUOUS
 10
408.4125714286
 20
903.5755714286
 11
424.9125847873
 21
903.5755714286
  0
LINE
  5
6A1
100
AcDbEntity
  8
0
100
AcDbLine
 62
7
  6
CONTINUOUS
 10
408.4126786326
 20
904.4755714286
 11
420.020524322
 21
904.4755714286
  0
LINE
  5
6A2
100
AcDbEntity
  8
0
100
AcDbLine
 62
7
  6
CONTINUOUS
 10
410.3125714286
 20
906.4755714286
 11
408.5125714286
 21
906.4755714286
  0
LINE
  5
6A3
100
AcDbEntity
  8
0
100
AcDbLine
 62
7
  6
CONTINUOUS
 10
410.9522067741
 20
906.4755714286
 11
413.7157388497
 21
906.4755714286
  0
LINE
  5
6A4
100
AcDbEntity
  8
0
100
AcDbLine
 62
7
  6
CONTINUOUS
 10
413.7157388497
 20
911.4755714286
 11
408.5125714286
 21
911.4755714286
  0
LINE
  5
6A5
100
AcDbEntity
  8
0
100
AcDbLine
 62
7
  6
CONTINUOUS
 10
420.020524322
 20
913.4755714286
 11
408.4126786326
 21
913.4755714286
  0
LINE
  5
6A6
100
AcDbEntity
  8
0
100
AcDbLine
 62
7
  6
CONTINUOUS
 10
424.9125847873
 20
914.3755714286
 11
408.4125714286
 21
914.3755714286
  0
LINE
  5
6A7
100
AcDbEntity
  8
0
100
AcDbLine
 62
7
  6
CONTINUOUS
 10
408.4125714286
 20
915.4755714286
 11
426.412518257
 21
915.4755714286
  0
LINE
  5
6A8
100
AcDbEntity
  8
0
100
AcDbLine
 62
7
  6
CONTINUOUS
 10
426.412518257
 20
920.0755714286
 11
408.4125714286
 21
920.0755714286
  0
LINE
  5
6A9
100
AcDbEntity
  8
0
100
AcDbLine
 62
7
  6
CONTINUOUS
 10
408.4125714286
 20
921.1755714286
 11
424.9125847873
 21
921.1755714286
  0
LINE
  5
6AA
100
AcDbEntity
  8
0
100
AcDbLine
 62
7
  6
CONTINUOUS
 10
408.4126786326
 20
922.0755714286
 11
420.020524322
 21
922.0755714286
  0
LINE
  5
6AB
100
AcDbEntity
  8
0
100
AcDbLine
 62
7
  6
CONTINUOUS
 10
410.3125714286
 20
924.0755714286
 11
408.5125714286
 21
924.0755714286
  0
LINE
  5
6AC
100
AcDbEntity
  8
0
100
AcDbLine
 62
7
  6
CONTINUOUS
 10
410.9522067741
 20
924.0755714286
 11
413.7157388497
 21
924.0755714286
  0
LINE
  5
6AD
100
AcDbEntity
  8
0
100
AcDbLine
 62
7
  6
CONTINUOUS
 10
413.7157388497
 20
929.0755714286
 11
408.5125714286
 21
929.0755714286
  0
LINE
  5
6AE
100
AcDbEntity
  8
0
100
AcDbLine
 62
7
  6
CONTINUOUS
 10
420.020524322
 20
931.0755714286
 11
408.4126786326
 21
931.0755714286
  0
LINE
  5
6AF
100
AcDbEntity
  8
0
100
AcDbLine
 62
7
  6
CONTINUOUS
 10
424.9125847873
 20
931.9755714286
 11
408.4125714286
 21
931.9755714286
  0
LINE
  5
6B0
100
AcDbEntity
  8
0
100
AcDbLine
 62
7
  6
CONTINUOUS
 10
408.4125714286
 20
933.0755714286
 11
426.412518257
 21
933.0755714286
  0
LINE
  5
6B1
100
AcDbEntity
  8
0
100
AcDbLine
 62
7
  6
CONTINUOUS
 10
426.412518257
 20
937.6755714286
 11
408.4125714286
 21
937.6755714286
  0
LINE
  5
6B2
100
AcDbEntity
  8
0
100
AcDbLine
 62
7
  6
CONTINUOUS
 10
408.4125714286
 20
938.7755714286
 11
424.9125847873
 21
938.7755714286
  0
LINE
  5
6B3
100
AcDbEntity
  8
0
100
AcDbLine
 62
7
  6
CONTINUOUS
 10
408.4126786326
 20
939.6755714286
 11
420.020524322
 21
939.6755714286
  0
LINE
  5
6B4
100
AcDbEntity
  8
0
100
AcDbLine
 62
7
  6
CONTINUOUS
 10
410.3125714286
 20
941.6755714286
 11
408.5125714286
 21
941.6755714286
  0
LINE
  5
6B5
100
AcDbEntity
  8
0
100
AcDbLine
 62
7
  6
CONTINUOUS
 10
410.9522067741
 20
941.6755714286
 11
413.7157388497
 21
941.6755714286
  0
LINE
  5
6B6
100
AcDbEntity
  8
0
100
AcDbLine
 62
7
  6
CONTINUOUS
 10
413.7157388497
 20
946.6755714286
 11
408.5125714286
 21
946.6755714286
  0
LINE
  5
6B7
100
AcDbEntity
  8
0
100
AcDbLine
 62
7
  6
CONTINUOUS
 10
420.020524322
 20
948.6755714286
 11
408.4126786326
 21
948.6755714286
  0
LINE
  5
6B8
100
AcDbEntity
  8
0
100
AcDbLine
 62
7
  6
CONTINUOUS
 10
424.9125847873
 20
949.5755714286
 11
408.4125714286
 21
949.5755714286
  0
LINE
  5
6B9
100
AcDbEntity
  8
0
100
AcDbLine
 62
7
  6
CONTINUOUS
 10
408.4125714286
 20
950.6755714286
 11
426.412518257
 21
950.6755714286
  0
LINE
  5
6BA
100
AcDbEntity
  8
0
100
AcDbLine
 62
7
  6
CONTINUOUS
 10
426.412518257
 20
955.2755714286
 11
408.4125714286
 21
955.2755714286
  0
LINE
  5
6BB
100
AcDbEntity
  8
0
100
AcDbLine
 62
7
  6
CONTINUOUS
 10
408.4125714286
 20
956.3755714286
 11
424.9125847873
 21
956.3755714286
  0
LINE
  5
6BC
100
AcDbEntity
  8
0
100
AcDbLine
 62
7
  6
CONTINUOUS
 10
408.4126786326
 20
957.2755714286
 11
420.020524322
 21
957.2755714286
  0
LINE
  5
6BD
100
AcDbEntity
  8
0
100
AcDbLine
 62
7
  6
CONTINUOUS
 10
410.3125714286
 20
959.2755714286
 11
408.5125714286
 21
959.2755714286
  0
LINE
  5
6BE
100
AcDbEntity
  8
0
100
AcDbLine
 62
7
  6
CONTINUOUS
 10
410.9522067741
 20
959.2755714286
 11
413.7157388497
 21
959.2755714286
  0
LINE
  5
6BF
100
AcDbEntity
  8
0
100
AcDbLine
 62
7
  6
CONTINUOUS
 10
413.7157388497
 20
964.2755714286
 11
408.5125714286
 21
964.2755714286
  0
LINE
  5
6C0
100
AcDbEntity
  8
0
100
AcDbLine
 62
7
  6
CONTINUOUS
 10
420.020524322
 20
966.2755714286
 11
408.4126786326
 21
966.2755714286
  0
LINE
  5
6C1
100
AcDbEntity
  8
0
100
AcDbLine
 62
7
  6
CONTINUOUS
 10
424.9125847873
 20
967.1755714286
 11
408.4125714286
 21
967.1755714286
  0
LINE
  5
6C2
100
AcDbEntity
  8
0
100
AcDbLine
 62
7
  6
CONTINUOUS
 10
408.4125714286
 20
968.2755714286
 11
426.412518257
 21
968.2755714286
  0
LINE
  5
6C3
100
AcDbEntity
  8
0
100
AcDbLine
 62
7
  6
CONTINUOUS
 10
426.412518257
 20
972.8755714286
 11
408.4125714286
 21
972.8755714286
  0
LINE
  5
6C4
100
AcDbEntity
  8
0
100
AcDbLine
 62
7
  6
CONTINUOUS
 10
408.4125714286
 20
973.9755714286
 11
424.9125847873
 21
973.9755714286
  0
LINE
  5
6C5
100
AcDbEntity
  8
0
100
AcDbLine
 62
7
  6
CONTINUOUS
 10
408.4126786326
 20
974.8755714286
 11
420.020524322
 21
974.8755714286
  0
LINE
  5
6C6
100
AcDbEntity
  8
0
100
AcDbLine
 62
7
  6
CONTINUOUS
 10
410.3125714286
 20
976.8755714286
 11
408.5125714286
 21
976.8755714286
  0
LINE
  5
6C7
100
AcDbEntity
  8
0
100
AcDbLine
 62
7
  6
CONTINUOUS
 10
410.9522067741
 20
976.8755714286
 11
413.7157388497
 21
976.8755714286
  0
LINE
  5
6C8
100
AcDbEntity
  8
0
100
AcDbLine
 62
7
  6
CONTINUOUS
 10
413.7157388497
 20
981.8755714286
 11
408.5125714286
 21
981.8755714286
  0
LINE
  5
6C9
100
AcDbEntity
  8
0
100
AcDbLine
 62
7
  6
CONTINUOUS
 10
420.020524322
 20
983.8755714286
 11
408.4126786326
 21
983.8755714286
  0
LINE
  5
6CA
100
AcDbEntity
  8
0
100
AcDbLine
 62
7
  6
CONTINUOUS
 10
424.9125847873
 20
984.7755714286
 11
408.4125714286
 21
984.7755714286
  0
LINE
  5
6CB
100
AcDbEntity
  8
0
100
AcDbLine
 62
7
  6
CONTINUOUS
 10
408.4125714286
 20
985.8755714286
 11
426.412518257
 21
985.8755714286
  0
LINE
  5
6CC
100
AcDbEntity
  8
0
100
AcDbLine
 62
7
  6
CONTINUOUS
 10
426.412518257
 20
990.4755714286
 11
408.4125714286
 21
990.4755714286
  0
LINE
  5
6CD
100
AcDbEntity
  8
0
100
AcDbLine
 62
7
  6
CONTINUOUS
 10
408.4125714286
 20
991.5755714286
 11
424.9125847873
 21
991.5755714286
  0
LINE
  5
6CE
100
AcDbEntity
  8
0
100
AcDbLine
 62
7
  6
CONTINUOUS
 10
408.4126786326
 20
992.4755714286
 11
420.020524322
 21
992.4755714286
  0
LINE
  5
6CF
100
AcDbEntity
  8
0
100
AcDbLine
 62
7
  6
CONTINUOUS
 10
410.3125714286
 20
994.4755714286
 11
408.5125714286
 21
994.4755714286
  0
LINE
  5
6D0
100
AcDbEntity
  8
0
100
AcDbLine
 62
7
  6
CONTINUOUS
 10
410.9522067741
 20
994.4755714286
 11
413.7157388497
 21
994.4755714286
  0
LINE
  5
6D1
100
AcDbEntity
  8
0
100
AcDbLine
 62
7
  6
CONTINUOUS
 10
413.7157388497
 20
999.4755714286
 11
408.5125714286
 21
999.4755714286
  0
LINE
  5
6D2
100
AcDbEntity
  8
0
100
AcDbLine
 62
7
  6
CONTINUOUS
 10
420.020524322
 20
1001.4755714286
 11
408.4126786326
 21
1001.4755714286
  0
LINE
  5
6D3
100
AcDbEntity
  8
0
100
AcDbLine
 62
7
  6
CONTINUOUS
 10
424.9125847873
 20
1002.3755714286
 11
408.4125714286
 21
1002.3755714286
  0
LINE
  5
6D4
100
AcDbEntity
  8
0
100
AcDbLine
 62
7
  6
CONTINUOUS
 10
408.4125714286
 20
1003.4755714286
 11
426.412518257
 21
1003.4755714286
  0
LINE
  5
6D5
100
AcDbEntity
  8
0
100
AcDbLine
 62
7
  6
CONTINUOUS
 10
426.412518257
 20
1008.0755714286
 11
408.4125714286
 21
1008.0755714286
  0
LINE
  5
6D6
100
AcDbEntity
  8
0
100
AcDbLine
 62
7
  6
CONTINUOUS
 10
408.4125714286
 20
1009.1755714286
 11
424.9125847873
 21
1009.1755714286
  0
LINE
  5
6D7
100
AcDbEntity
  8
0
100
AcDbLine
 62
7
  6
CONTINUOUS
 10
408.4126786326
 20
1010.0755714286
 11
420.020524322
 21
1010.0755714286
  0
LINE
  5
6D8
100
AcDbEntity
  8
0
100
AcDbLine
 62
7
  6
CONTINUOUS
 10
410.3125714286
 20
1012.0755714286
 11
408.5125714286
 21
1012.0755714286
  0
LINE
  5
6D9
100
AcDbEntity
  8
0
100
AcDbLine
 62
7
  6
CONTINUOUS
 10
410.9522067741
 20
1012.0755714286
 11
413.7157388497
 21
1012.0755714286
  0
LINE
  5
6DA
100
AcDbEntity
  8
0
100
AcDbLine
 62
7
  6
CONTINUOUS
 10
413.7157388497
 20
1017.0755714286
 11
408.5125714286
 21
1017.0755714286
  0
LINE
  5
6DB
100
AcDbEntity
  8
0
100
AcDbLine
 62
7
  6
CONTINUOUS
 10
420.020524322
 20
1019.0755714286
 11
408.4126786326
 21
1019.0755714286
  0
LINE
  5
6DC
100
AcDbEntity
  8
0
100
AcDbLine
 62
7
  6
CONTINUOUS
 10
424.9125847873
 20
1019.9755714286
 11
408.4125714286
 21
1019.9755714286
  0
LINE
  5
6DD
100
AcDbEntity
  8
0
100
AcDbLine
 62
7
  6
CONTINUOUS
 10
408.4125714286
 20
1021.0755714286
 11
426.412518257
 21
1021.0755714286
  0
LINE
  5
6DE
100
AcDbEntity
  8
0
100
AcDbLine
 62
7
  6
CONTINUOUS
 10
426.412518257
 20
1025.6755714286
 11
408.4125714286
 21
1025.6755714286
  0
LINE
  5
6DF
100
AcDbEntity
  8
0
100
AcDbLine
 62
7
  6
CONTINUOUS
 10
408.4125714286
 20
1026.7755714286
 11
424.9125847873
 21
1026.7755714286
  0
LINE
  5
6E0
100
AcDbEntity
  8
0
100
AcDbLine
 62
7
  6
CONTINUOUS
 10
408.4126786326
 20
1027.6755714286
 11
420.020524322
 21
1027.6755714286
  0
LINE
  5
6E1
100
AcDbEntity
  8
0
100
AcDbLine
 62
7
  6
CONTINUOUS
 10
410.3125714286
 20
1029.6755714286
 11
408.5125714286
 21
1029.6755714286
  0
LINE
  5
6E2
100
AcDbEntity
  8
0
100
AcDbLine
 62
7
  6
CONTINUOUS
 10
410.9522067741
 20
1029.6755714286
 11
413.7157388497
 21
1029.6755714286
  0
LINE
  5
6E3
100
AcDbEntity
  8
0
100
AcDbLine
 62
7
  6
CONTINUOUS
 10
413.7157388497
 20
1034.6755714286
 11
408.5125714286
 21
1034.6755714286
  0
LINE
  5
6E4
100
AcDbEntity
  8
0
100
AcDbLine
 62
7
  6
CONTINUOUS
 10
420.020524322
 20
1036.6755714286
 11
408.4126786326
 21
1036.6755714286
  0
LINE
  5
6E5
100
AcDbEntity
  8
0
100
AcDbLine
 62
7
  6
CONTINUOUS
 10
424.9125847873
 20
1037.5755714286
 11
408.4125714286
 21
1037.5755714286
  0
LINE
  5
6E6
100
AcDbEntity
  8
0
100
AcDbLine
 62
7
  6
CONTINUOUS
 10
408.4125714286
 20
1038.6755714286
 11
426.412518257
 21
1038.6755714286
  0
LINE
  5
6E7
100
AcDbEntity
  8
0
100
AcDbLine
 62
7
  6
CONTINUOUS
 10
426.412518257
 20
1043.2755714286
 11
408.4125714286
 21
1043.2755714286
  0
LINE
  5
6E8
100
AcDbEntity
  8
0
100
AcDbLine
 62
7
  6
CONTINUOUS
 10
408.4125714286
 20
1044.3755714286
 11
424.9125847873
 21
1044.3755714286
  0
LINE
  5
6E9
100
AcDbEntity
  8
0
100
AcDbLine
 62
7
  6
CONTINUOUS
 10
408.4126786326
 20
1045.2755714286
 11
420.020524322
 21
1045.2755714286
  0
LINE
  5
6EA
100
AcDbEntity
  8
0
100
AcDbLine
 62
7
  6
CONTINUOUS
 10
410.3125714286
 20
1047.2755714286
 11
408.5125714286
 21
1047.2755714286
  0
LINE
  5
6EB
100
AcDbEntity
  8
0
100
AcDbLine
 62
7
  6
CONTINUOUS
 10
410.9522067741
 20
1047.2755714286
 11
413.7157388497
 21
1047.2755714286
  0
LINE
  5
6EC
100
AcDbEntity
  8
0
100
AcDbLine
 62
7
  6
CONTINUOUS
 10
413.7157388497
 20
1052.2755714286
 11
408.5125714286
 21
1052.2755714286
  0
LINE
  5
6ED
100
AcDbEntity
  8
0
100
AcDbLine
 62
7
  6
CONTINUOUS
 10
420.020524322
 20
1054.2755714286
 11
408.4126786326
 21
1054.2755714286
  0
LINE
  5
6EE
100
AcDbEntity
  8
0
100
AcDbLine
 62
7
  6
CONTINUOUS
 10
424.9125847873
 20
1055.1755714286
 11
408.4125714286
 21
1055.1755714286
  0
LINE
  5
6EF
100
AcDbEntity
  8
0
100
AcDbLine
 62
7
  6
CONTINUOUS
 10
408.4125714286
 20
1056.2755714286
 11
426.412518257
 21
1056.2755714286
  0
LINE
  5
6F0
100
AcDbEntity
  8
0
100
AcDbLine
 62
7
  6
CONTINUOUS
 10
426.412518257
 20
1060.8755714286
 11
408.4125714286
 21
1060.8755714286
  0
LINE
  5
6F1
100
AcDbEntity
  8
0
100
AcDbLine
 62
7
  6
CONTINUOUS
 10
408.4125714286
 20
1061.9755714286
 11
424.9125847873
 21
1061.9755714286
  0
LINE
  5
6F2
100
AcDbEntity
  8
0
100
AcDbLine
 62
7
  6
CONTINUOUS
 10
408.4126786326
 20
1062.8755714286
 11
420.020524322
 21
1062.8755714286
  0
LINE
  5
6F3
100
AcDbEntity
  8
0
100
AcDbLine
 62
7
  6
CONTINUOUS
 10
410.3125714286
 20
1064.8755714286
 11
408.5125714286
 21
1064.8755714286
  0
LINE
  5
6F4
100
AcDbEntity
  8
0
100
AcDbLine
 62
7
  6
CONTINUOUS
 10
410.9522067741
 20
1064.8755714286
 11
413.7157388497
 21
1064.8755714286
  0
LINE
  5
6F5
100
AcDbEntity
  8
0
100
AcDbLine
 62
7
  6
CONTINUOUS
 10
413.7157388497
 20
1069.8755714286
 11
408.5125714286
 21
1069.8755714286
  0
LINE
  5
6F6
100
AcDbEntity
  8
0
100
AcDbLine
 62
7
  6
CONTINUOUS
 10
420.020524322
 20
1071.8755714286
 11
408.4126786326
 21
1071.8755714286
  0
LINE
  5
6F7
100
AcDbEntity
  8
0
100
AcDbLine
 62
7
  6
CONTINUOUS
 10
424.9125847873
 20
1072.7755714286
 11
408.4125714286
 21
1072.7755714286
  0
LINE
  5
6F8
100
AcDbEntity
  8
0
100
AcDbLine
 62
7
  6
CONTINUOUS
 10
408.4125714286
 20
1073.8755714286
 11
426.412518257
 21
1073.8755714286
  0
LINE
  5
6F9
100
AcDbEntity
  8
0
100
AcDbLine
 62
7
  6
CONTINUOUS
 10
426.412518257
 20
1078.4755714286
 11
408.4125714286
 21
1078.4755714286
  0
LINE
  5
6FA
100
AcDbEntity
  8
0
100
AcDbLine
 62
7
  6
CONTINUOUS
 10
408.4125714286
 20
1079.5755714286
 11
424.9125847873
 21
1079.5755714286
  0
LINE
  5
6FB
100
AcDbEntity
  8
0
100
AcDbLine
 62
7
  6
CONTINUOUS
 10
408.4126786326
 20
1080.4755714286
 11
420.020524322
 21
1080.4755714286
  0
LINE
  5
6FC
100
AcDbEntity
  8
0
100
AcDbLine
 62
7
  6
CONTINUOUS
 10
410.3125714286
 20
1082.4755714286
 11
408.5125714286
 21
1082.4755714286
  0
LINE
  5
6FD
100
AcDbEntity
  8
0
100
AcDbLine
 62
7
  6
CONTINUOUS
 10
410.9522067741
 20
1082.4755714286
 11
413.7157388497
 21
1082.4755714286
  0
LINE
  5
6FE
100
AcDbEntity
  8
0
100
AcDbLine
 62
7
  6
CONTINUOUS
 10
413.7157388497
 20
1087.4755714286
 11
408.5125714286
 21
1087.4755714286
  0
LINE
  5
6FF
100
AcDbEntity
  8
0
100
AcDbLine
 62
7
  6
CONTINUOUS
 10
420.020524322
 20
1089.4755714286
 11
408.4126786326
 21
1089.4755714286
  0
LINE
  5
700
100
AcDbEntity
  8
0
100
AcDbLine
 62
7
  6
CONTINUOUS
 10
424.9125847873
 20
1090.3755714286
 11
408.4125714286
 21
1090.3755714286
  0
LINE
  5
701
100
AcDbEntity
  8
0
100
AcDbLine
 62
7
  6
CONTINUOUS
 10
408.4125714286
 20
1091.4755714286
 11
426.412518257
 21
1091.4755714286
  0
LINE
  5
702
100
AcDbEntity
  8
0
100
AcDbLine
 62
7
  6
CONTINUOUS
 10
427.8125714286
 20
1097.0755714286
 11
408.5125714286
 21
1097.0755714286
  0
ARC
  5
703
100
AcDbEntity
  8
0
100
AcDbCircle
 62
7
  6
CONTINUOUS
 10
2172.6828594544
 20
96.1670625364
 40
1763.8645186504
100
AcDbArc
 50
180.1069178819
 51
180.228188616
  0
ARC
  5
704
100
AcDbEntity
  8
0
100
AcDbCircle
 62
7
  6
CONTINUOUS
 10
2172.6828594376
 20
1088.1840803209
 40
1763.8645186337
100
AcDbArc
 50
179.771811384
 51
179.8930821181
  0
ENDSEC
  0
SECTION
  2
OBJECTS
  0
DICTIONARY
  5
C
100
AcDbDictionary
280
0
281
1
  3
ACAD_GROUP
350
D
  3
ACAD_MLINESTYLE
350
17
  3
ACAD_LAYOUT
350
1A
  3
ACAD_PLOTSETTINGS
350
19
  3
ACAD_PLOTSTYLENAME
350
E
  0
DICTIONARY
  5
D
102
{ACAD_REACTORS
330
C
102
}
100
AcDbDictionary
280
0
281
1
  0
ACDBDICTIONARYWDFLT
  5
E
102
{ACAD_REACTORS
330
C
102
}
100
AcDbDictionary
281
1
  3
Normal
350
F
100
AcDbDictionaryWithDefault
340
F
  0
DICTIONARY
  5
17
102
{ACAD_REACTORS
330
C
102
}
100
AcDbDictionary
280
0
281
1
  3
Standard
350
18
  0
DICTIONARY
  5
19
102
{ACAD_REACTORS
330
C
102
}
100
AcDbDictionary
281
1
  0
DICTIONARY
  5
1A
102
{ACAD_REACTORS
330
C
102
}
100
AcDbDictionary
281
1
  3
Model
350
705
  3
Layout1
350
706
  0
ACDBPLACEHOLDER
  5
F
102
{ACAD_REACTORS
330
E
102
}
  0
MLINESTYLE
  5
18
102
{ACAD_REACTORS
330
17
102
}
100
AcDbMlineStyle
  2
STANDARD
 70
0
  3

 62
256
 51
90.0
 52
90.0
 71
2
 49
0.5
 62
256
  6
BYLAYER
 49
-0.5
 62
256
  6
BYLAYER
  0
LAYOUT
  5
705
102
{ACAD_REACTORS
330
1A
102
}
100
AcDbPlotSettings
  1

  2
none_device
  4

  6

 40
0.0
 41
0.0
 42
0.0
 43
0.0
 44
210.0
 45
297.0
 46
0.0
 47
0.0
 48
0.0
 49
0.0
140
0.0
141
0.0
142
1.0
143
1.0
 70
1024
 72
1
 73
0
 74
0
  7

 75
0
147
1.0
148
0.0
149
0.0
100
AcDbLayout
  1
Model
 70
0
 71
0
 10
0.0
 20
0.0
 11
210.0
 21
297.0
 12
0.0
 22
0.0
 32
0.0
 14
0.0
 24
0.0
 34
0.0
 15
0.0
 25
0.0
 35
0.0
146
0.0
 13
0.0
 23
0.0
 33
0.0
 16
1.0
 26
0.0
 36
0.0
 17
0.0
 27
1.0
 37
0.0
 76
0
330
210
345
0
346
0
  0
LAYOUT
  5
706
102
{ACAD_REACTORS
330
1A
102
}
100
AcDbPlotSettings
  1

  2
none_device
  4

  6

 40
0.0
 41
0.0
 42
0.0
 43
0.0
 44
210.0
 45
297.0
 46
0.0
 47
0.0
 48
0.0
 49
0.0
140
0.0
141
0.0
142
1.0
143
1.0
 70
0
 72
1
 73
0
 74
0
  7

 75
0
147
1.0
148
0.0
149
0.0
100
AcDbLayout
  1
Layout1
 70
0
 71
1
 10
0.0
 20
0.0
 11
210.0
 21
297.0
 12
0.0
 22
0.0
 32
0.0
 14
0.0
 24
0.0
 34
0.0
 15
0.0
 25
0.0
 35
0.0
146
0.0
 13
0.0
 23
0.0
 33
0.0
 16
1.0
 26
0.0
 36
0.0
 17
0.0
 27
1.0
 37
0.0
 76
0
330
211
345
0
346
0
  0
ENDSEC
  0
EOF
