999
DXF file: C:\Users\sesa63760\Dev\_Creo\CAD\MCADPE0010593_3D-CAD\drw0001_1.dxf
999
Pro/ENGINEER 2019471 by Parametric Technology Corporation
  0
SECTION
  2
HEADER
  9
$ACADVER
  1
AC1024
  9
$DWGCODEPAGE
  3
ANSI_1252
  9
$EXTMAX
 10
35.5578857977
 20
50.2890099139
 30
0.0
  9
$EXTMIN
 10
-0.0
 20
0.0
 30
0.0
  9
$LIMMIN
 10
-0.0
 20
0.0
  9
$LIMMAX
 10
35.5578857977
 20
50.2890099139
  9
$VIEWCTR
 10
17.7789428989
 20
25.1445049569
  9
$VIEWSIZE
 40
50.2890099139
  9
$CLAYER
  8
0
  9
$LTSCALE
 40
3.278098424
  9
$CELTYPE
  6
BYLAYER
  9
$DIMSCALE
 40
1.0
  9
$DIMASZ
 40
0.4233081643
  9
$DIMEXO
 40
1.0
  9
$DIMDLI
 40
2.264868002
  9
$DIMEXE
 40
1.0
  9
$DIMCEN
 40
0.5364161057
  9
$DIMLFAC
 40
1.0
  9
$DIMBLK
  1
_FILLED
  9
$DIMALT
 70
0
  9
$DIMALTF
 40
0.0393700787
  9
$DIMTXT
 40
0.59263143
  9
$DIMTOL
 70
1
  9
$DIMLIM
 70
0
  9
$DIMTFAC
 40
1.0
  9
$DIMTP
 40
0.01
  9
$DIMTM
 40
0.01
  9
$DIMGAP
 40
0.625
  9
$DIMDSEP
 70
46
  9
$AUNITS
 70
0
  9
$PDMODE
 70
3
  9
$PDSIZE
 40
0.3125
  9
$HANDSEED
  5
316
  9
$TILEMODE
 70
1
  9
$MEASUREMENT
 70
1
  9
$INSUNITS
 70
4
  0
ENDSEC
  0
SECTION
  2
CLASSES
  0
CLASS
  1
ACDBDICTIONARYWDFLT
  2
AcDbDictionaryWithDefault
  3
AutoCAD 2000
 90
0
 91
1
280
0
281
0
  0
CLASS
  1
ACDBPLACEHOLDER
  2
AcDbPlaceHolder
  3
AutoCAD 2000
 90
0
 91
1
280
0
281
0
  0
CLASS
  1
LAYOUT
  2
AcDbLayout
  3
AutoCAD 2000
 90
0
 91
0
280
0
281
0
  0
ENDSEC
  0
SECTION
  2
TABLES
  0
TABLE
  2
VPORT
  5
8
100
AcDbSymbolTable
 70
2
  0
VPORT
  5
1F4
100
AcDbSymbolTableRecord
100
AcDbViewportTableRecord
  2
*ACTIVE
 70
0
 10
0.0
 20
0.0
 11
1.0
 21
1.0
 12
17.7789428989
 22
25.1445049569
 13
0.0
 23
0.0
 14
1.0
 24
1.0
 15
0.0
 25
0.0
 16
0.0
 26
0.0
 36
1.0
 17
0.0
 27
0.0
 37
0.0
 40
50.2890099139
 41
0.7070707071
 42
50.0
 43
0.0
 44
0.0
 50
0.0
 51
0.0
 71
0
 72
100
 73
1
 74
1
 75
0
 76
0
 77
0
 78
0
  0
ENDTAB
  0
TABLE
  2
LTYPE
  5
5
100
AcDbSymbolTable
 70
6
  0
LTYPE
  5
14
100
AcDbSymbolTableRecord
100
AcDbLinetypeTableRecord
  2
BYBLOCK
 70
0
  3

 72
65
 73
0
 40
0.0
  0
LTYPE
  5
15
100
AcDbSymbolTableRecord
100
AcDbLinetypeTableRecord
  2
BYLAYER
 70
0
  3

 72
65
 73
0
 40
0.0
  0
LTYPE
  5
16
100
AcDbSymbolTableRecord
100
AcDbLinetypeTableRecord
  2
CONTINUOUS
 70
64
  3
Solid line
 72
65
 73
0
 40
0.0
  0
LTYPE
  5
1F5
100
AcDbSymbolTableRecord
100
AcDbLinetypeTableRecord
  2
CENTER
 70
64
  3
____ _ ____ _ ____ _ ____ _ ____ _ ____ _ ____
 72
65
 73
4
 40
0.6
 49
0.375
 74
0
 49
-0.075
 74
0
 49
0.075
 74
0
 49
-0.075
 74
0
  0
LTYPE
  5
1F6
100
AcDbSymbolTableRecord
100
AcDbLinetypeTableRecord
  2
HIDDEN
 70
64
  3
- - - - - - - - - - - - - - - - - - - -
 72
65
 73
2
 40
0.2
 49
0.1
 74
0
 49
-0.1
 74
0
  0
LTYPE
  5
1F7
100
AcDbSymbolTableRecord
100
AcDbLinetypeTableRecord
  2
PHANTOM
 70
64
  3
_____ _ _ _____ _ _ _____ _ _ _____
 72
65
 73
6
 40
0.8
 49
0.45
 74
0
 49
-0.05
 74
0
 49
0.1
 74
0
 49
-0.05
 74
0
 49
0.1
 74
0
 49
-0.05
 74
0
  0
LTYPE
  5
1F8
100
AcDbSymbolTableRecord
100
AcDbLinetypeTableRecord
  2
DOT
 70
64
  3
. . . . . . . . . . . . . . . . . . . .
 72
65
 73
2
 40
0.2
 49
0.1
 74
0
 49
-0.1
 74
0
  0
LTYPE
  5
1F9
100
AcDbSymbolTableRecord
100
AcDbLinetypeTableRecord
  2
DASHED
 70
64
  3
- - - - - - - - - - - - - - - - - - - -
 72
65
 73
2
 40
0.2
 49
0.1
 74
0
 49
-0.1
 74
0
  0
ENDTAB
  0
TABLE
  2
LAYER
  5
2
100
AcDbSymbolTable
 70
36
  0
LAYER
  5
10
100
AcDbSymbolTableRecord
100
AcDbLayerTableRecord
  2
0
 70
0
 62
7
  6
CONTINUOUS
370
-3
390
F
  0
LAYER
  5
1FA
100
AcDbSymbolTableRecord
100
AcDbLayerTableRecord
  2
DEFAULT_1
 70
0
 62
7
  6
CENTER
370
-3
390
F
  0
LAYER
  5
1FB
100
AcDbSymbolTableRecord
100
AcDbLayerTableRecord
  2
DEFAULT_2
 70
0
 62
7
  6
HIDDEN
370
-3
390
F
  0
LAYER
  5
1FC
100
AcDbSymbolTableRecord
100
AcDbLayerTableRecord
  2
DEFAULT_3
 70
0
 62
7
  6
PHANTOM
370
-3
390
F
  0
LAYER
  5
1FD
100
AcDbSymbolTableRecord
100
AcDbLayerTableRecord
  2
00_COMPONENTS
 70
0
 62
7
  6
CONTINUOUS
370
-3
390
F
  0
LAYER
  5
1FE
100
AcDbSymbolTableRecord
100
AcDbLayerTableRecord
  2
01_1_DEFAULT_DATUMS
 70
0
 62
7
  6
CONTINUOUS
370
-3
390
F
  0
LAYER
  5
1FF
100
AcDbSymbolTableRecord
100
AcDbLayerTableRecord
  2
01_PLANES
 70
0
 62
7
  6
CONTINUOUS
370
-3
390
F
  0
LAYER
  5
200
100
AcDbSymbolTableRecord
100
AcDbLayerTableRecord
  2
02_COORD_SYS
 70
0
 62
7
  6
CONTINUOUS
370
-3
390
F
  0
LAYER
  5
201
100
AcDbSymbolTableRecord
100
AcDbLayerTableRecord
  2
03_AXES
 70
0
 62
7
  6
CONTINUOUS
370
-3
390
F
  0
LAYER
  5
202
100
AcDbSymbolTableRecord
100
AcDbLayerTableRecord
  2
04_POINTS
 70
0
 62
7
  6
CONTINUOUS
370
-3
390
F
  0
LAYER
  5
203
100
AcDbSymbolTableRecord
100
AcDbLayerTableRecord
  2
05_CURVES
 70
0
 62
7
  6
CONTINUOUS
370
-3
390
F
  0
LAYER
  5
204
100
AcDbSymbolTableRecord
100
AcDbLayerTableRecord
  2
06_SURFS
 70
0
 62
7
  6
CONTINUOUS
370
-3
390
F
  0
LAYER
  5
205
100
AcDbSymbolTableRecord
100
AcDbLayerTableRecord
  2
07_COSMETICS
 70
0
 62
7
  6
CONTINUOUS
370
-3
390
F
  0
LAYER
  5
206
100
AcDbSymbolTableRecord
100
AcDbLayerTableRecord
  2
10_NOTES
 70
0
 62
7
  6
CONTINUOUS
370
-3
390
F
  0
LAYER
  5
207
100
AcDbSymbolTableRecord
100
AcDbLayerTableRecord
  2
11_NOTES_PUB
 70
0
 62
7
  6
CONTINUOUS
370
-3
390
F
  0
LAYER
  5
208
100
AcDbSymbolTableRecord
100
AcDbLayerTableRecord
  2
13_REF_GTOL
 70
0
 62
7
  6
CONTINUOUS
370
-3
390
F
  0
LAYER
  5
209
100
AcDbSymbolTableRecord
100
AcDbLayerTableRecord
  2
16_MISC
 70
0
 62
7
  6
CONTINUOUS
370
-3
390
F
  0
LAYER
  5
20A
100
AcDbSymbolTableRecord
100
AcDbLayerTableRecord
  2
17_NO_PRINT
 70
0
 62
7
  6
CONTINUOUS
370
-3
390
F
  0
LAYER
  5
20B
100
AcDbSymbolTableRecord
100
AcDbLayerTableRecord
  2
18_DATUM_CAMS_JOINTS
 70
0
 62
7
  6
CONTINUOUS
370
-3
390
F
  0
LAYER
  5
20C
100
AcDbSymbolTableRecord
100
AcDbLayerTableRecord
  2
19_DATUM_FUNCTIONAL
 70
0
 62
7
  6
CONTINUOUS
370
-3
390
F
  0
LAYER
  5
20D
100
AcDbSymbolTableRecord
100
AcDbLayerTableRecord
  2
20_DATUM_KINEMATIC_SCHEME
 70
0
 62
7
  6
CONTINUOUS
370
-3
390
F
  0
ENDTAB
  0
TABLE
  2
STYLE
  5
3
100
AcDbSymbolTable
 70
1
  0
STYLE
  5
11
100
AcDbSymbolTableRecord
100
AcDbTextStyleTableRecord
  2
STANDARD
 70
0
 40
0.0
 41
1.0
 50
0.0
 71
0
 42
0.2
  3
ARIAL.TTF
  4

  0
STYLE
  5
20E
100
AcDbSymbolTableRecord
100
AcDbTextStyleTableRecord
  2
TEXTSTYLE_1
 70
0
 40
0.0
 41
0.8
 50
0.0
 71
0
 42
0.2
  3
gdt
  4

  0
ENDTAB
  0
TABLE
  2
VIEW
  5
6
100
AcDbSymbolTable
 70
0
  0
ENDTAB
  0
TABLE
  2
UCS
  5
7
100
AcDbSymbolTable
 70
0
  0
ENDTAB
  0
TABLE
  2
APPID
  5
9
100
AcDbSymbolTable
 70
1
  0
APPID
  5
20F
100
AcDbSymbolTableRecord
100
AcDbRegAppTableRecord
  2
ACAD
 70
0
  0
ENDTAB
  0
TABLE
  2
BLOCK_RECORD
  5
1
100
AcDbSymbolTable
 70
0
  0
BLOCK_RECORD
  5
210
100
AcDbSymbolTableRecord
100
AcDbBlockTableRecord
  2
*Model_Space
  0
BLOCK_RECORD
  5
211
100
AcDbSymbolTableRecord
100
AcDbBlockTableRecord
  2
*Paper_Space
  0
BLOCK_RECORD
  5
212
100
AcDbSymbolTableRecord
100
AcDbBlockTableRecord
  2
_FILLED
  0
ENDTAB
  0
TABLE
  2
DIMSTYLE
  5
A
100
AcDbSymbolTable
 70
1
100
AcDbDimStyleTable
 71
0
  0
DIMSTYLE
105
213
100
AcDbSymbolTableRecord
100
AcDbDimStyleTableRecord
  2
STANDARD
 70
0
  3

  4

 40
1.0
 41
0.4233081643
 42
1.0
 43
0.38
 44
1.0
 45
0.0
 46
0.0
 47
0.01
 48
0.01
140
0.59263143
141
0.09
142
0.0
143
25.4
144
1.0
145
0.0
146
1.0
147
0.625
 71
1
 72
0
 73
0
 74
0
 75
0
 76
0
 77
1
 78
8
 79
2
170
0
171
1
172
0
173
0
174
0
175
0
176
0
177
0
178
0
270
2
179
2
271
2
272
2
273
2
274
2
275
0
280
0
281
0
282
0
283
1
284
8
285
0
286
0
287
3
288
0
340
11
278
46
341
212
342
212
343
212
344
212
  0
ENDTAB
  0
ENDSEC
  0
SECTION
  2
BLOCKS
  0
BLOCK
  5
20
100
AcDbEntity
  8
0
100
AcDbBlockBegin
  2
*Model_Space
 70
0
 10
0.0
 20
0.0
 30
0.0
  3
*Model_Space
  1

  0
ENDBLK
  5
21
100
AcDbEntity
  8
0
100
AcDbBlockEnd
  0
BLOCK
  5
1C
100
AcDbEntity
  8
0
100
AcDbBlockBegin
  2
*Paper_Space
 70
0
 10
0.0
 20
0.0
 30
0.0
  3
*Paper_Space
  1

  0
ENDBLK
  5
1D
100
AcDbEntity
  8
0
100
AcDbBlockEnd
  0
BLOCK
  5
214
100
AcDbEntity
  8
0
100
AcDbBlockBegin
  2
_FILLED
 70
64
 10
0.0
 20
0.0
  3
_FILLED
  1

  0
SOLID
  5
215
100
AcDbEntity
  8
0
  6
BYBLOCK
 62
0
100
AcDbTrace
 10
0.0
 20
0.0
 11
-1.0
 21
0.25
 12
-1.0
 22
-0.25
 13
-1.0
 23
-0.25
  0
ENDBLK
  5
216
100
AcDbEntity
  8
0
  6
BYBLOCK
 62
0
100
AcDbBlockEnd
  0
ENDSEC
  0
SECTION
  2
ENTITIES
  0
LINE
  5
217
100
AcDbEntity
  8
0
100
AcDbLine
 62
7
  6
BYLAYER
 10
4.3322361765
 20
10.4951614177
 11
8.6809609864
 21
7.9844807776
  0
LINE
  5
218
100
AcDbEntity
  8
0
100
AcDbLine
 62
7
  6
BYLAYER
 10
8.4738486657
 20
8.4422669255
 11
4.1251238557
 21
10.9529475655
  0
LINE
  5
219
100
AcDbEntity
  8
0
100
AcDbLine
 62
7
  6
BYLAYER
 10
4.3322515317
 20
10.4951880492
 11
4.1492178347
 21
10.7555317718
  0
LINE
  5
21A
100
AcDbEntity
  8
0
100
AcDbLine
 62
7
  6
BYLAYER
 10
8.6809763417
 20
7.9845074091
 11
8.9391087472
 21
7.9436220591
  0
LINE
  5
21B
100
AcDbEntity
  8
0
100
AcDbLine
 62
7
  6
BYLAYER
 10
8.4979426447
 20
8.2448511317
 11
8.6809763417
 21
7.9845074091
  0
LINE
  5
21C
100
AcDbEntity
  8
0
100
AcDbLine
 62
7
  6
BYLAYER
 10
10.8187765468
 20
10.1762763337
 11
10.9663537374
 21
10.0910745305
  0
LINE
  5
21D
100
AcDbEntity
  8
0
100
AcDbLine
 62
7
  6
BYLAYER
 10
11.0102388567
 20
10.0841285483
 11
10.8230264977
 21
10.192213209
  0
LINE
  5
21E
100
AcDbEntity
  8
0
100
AcDbLine
 62
7
  6
BYLAYER
 10
8.9391087472
 20
7.9436220591
 11
9.581846242
 21
8.0445739088
  0
LINE
  5
21F
100
AcDbEntity
  8
0
100
AcDbLine
 62
7
  6
BYLAYER
 10
15.179923915
 20
8.923838462
 11
16.2244280949
 21
9.0878939744
  0
LINE
  5
220
100
AcDbEntity
  8
0
100
AcDbLine
 62
7
  6
BYLAYER
 10
11.0102361193
 20
10.0841238209
 11
10.9663537374
 21
10.0910745305
  0
LINE
  5
221
100
AcDbEntity
  8
0
100
AcDbLine
 62
7
  6
BYLAYER
 10
14.9217761542
 20
8.9646971806
 11
11.2761404736
 21
11.0694583057
  0
LINE
  5
222
100
AcDbEntity
  8
0
100
AcDbLine
 62
7
  6
BYLAYER
 10
14.7161563461
 20
9.3703224782
 11
11.6668162576
 21
11.130819971
  0
LINE
  5
223
100
AcDbEntity
  8
0
100
AcDbLine
 62
7
  6
BYLAYER
 10
4.1251238557
 20
10.9529475656
 11
4.1251238558
 21
16.7296174392
  0
LINE
  5
224
100
AcDbEntity
  8
0
100
AcDbLine
 62
7
  6
BYLAYER
 10
4.1251238558
 20
21.8329270016
 11
4.1251238559
 21
27.6095968751
  0
LINE
  5
225
100
AcDbEntity
  8
0
100
AcDbLine
 62
7
  6
BYLAYER
 10
14.9913217497
 20
10.7232579169
 11
14.813578631
 21
10.6953406151
  0
LINE
  5
226
100
AcDbEntity
  8
0
100
AcDbLine
 62
7
  6
BYLAYER
 10
10.9663537374
 20
10.0910745305
 11
10.7886106184
 21
10.0631572286
  0
LINE
  5
227
100
AcDbEntity
  8
0
100
AcDbLine
 62
7
  6
BYLAYER
 10
13.1044928215
 20
11.3566292783
 11
14.6525112673
 21
10.4629006309
  0
LINE
  5
228
100
AcDbEntity
  8
0
100
AcDbLine
 62
7
  6
BYLAYER
 10
4.1251238558
 20
16.7296174392
 11
8.4738486657
 21
14.218936799
  0
LINE
  5
229
100
AcDbEntity
  8
0
100
AcDbLine
 62
7
  6
BYLAYER
 10
14.813578631
 20
10.6953406151
 11
13.5476150862
 21
11.4262284734
  0
LINE
  5
22A
100
AcDbEntity
  8
0
100
AcDbLine
 62
7
  6
BYLAYER
 10
13.7253582049
 20
11.4541457752
 11
14.9913217497
 21
10.7232579169
  0
LINE
  5
22B
100
AcDbEntity
  8
0
100
AcDbLine
 62
7
  6
BYLAYER
 10
8.7064787065
 20
14.736875662
 11
4.3577538965
 21
17.2475563022
  0
LINE
  5
22C
100
AcDbEntity
  8
0
100
AcDbLine
 62
7
  6
BYLAYER
 10
4.5903839373
 20
28.6454746012
 11
5.2331214323
 21
29.2866876528
  0
LINE
  5
22D
100
AcDbEntity
  8
0
100
AcDbLine
 62
7
  6
BYLAYER
 10
10.8311991052
 20
34.8714878185
 11
11.875703283
 21
35.9135146438
  0
LINE
  5
22E
100
AcDbEntity
  8
0
100
AcDbLine
 62
7
  6
BYLAYER
 10
12.1175470388
 20
36.1023834887
 11
22.6566889089
 21
42.1871235643
  0
LINE
  5
22F
100
AcDbEntity
  8
0
100
AcDbLine
 62
7
  6
BYLAYER
 10
20.1344066155
 20
40.3634721561
 11
13.0825692713
 21
36.2921162693
  0
LINE
  5
230
100
AcDbEntity
  8
0
100
AcDbLine
 62
7
  6
BYLAYER
 10
11.0473834371
 20
11.0335284803
 11
15.2500945683
 21
11.6936291685
  0
LINE
  5
231
100
AcDbEntity
  8
0
100
AcDbLine
 62
7
  6
BYLAYER
 10
6.3392637757
 20
19.2243664409
 11
10.6879885857
 21
16.7136858007
  0
LINE
  5
232
100
AcDbEntity
  8
0
100
AcDbLine
 62
7
  6
BYLAYER
 10
10.9298323414
 20
16.9025546457
 11
6.5811075314
 21
19.4132352859
  0
LINE
  5
233
100
AcDbEntity
  8
0
100
AcDbLine
 62
7
  6
BYLAYER
 10
7.9788718588
 20
10.8847483933
 11
7.9788718587
 21
12.6134403999
  0
LINE
  5
234
100
AcDbEntity
  8
0
100
AcDbLine
 62
7
  6
BYLAYER
 10
7.9788718588
 20
21.4992798158
 11
7.9788718589
 21
23.2279718224
  0
LINE
  5
235
100
AcDbEntity
  8
0
100
AcDbLine
 62
7
  6
BYLAYER
 10
8.4738486659
 20
25.0989162347
 11
8.4738486659
 21
19.3222463614
  0
LINE
  5
236
100
AcDbEntity
  8
0
100
AcDbLine
 62
7
  6
BYLAYER
 10
8.4738486658
 20
14.218936799
 11
8.4738486658
 21
8.4422669254
  0
LINE
  5
237
100
AcDbEntity
  8
0
100
AcDbLine
 62
7
  6
BYLAYER
 10
7.4080613603
 20
28.6976997414
 11
10.9013697588
 21
32.1827227192
  0
LINE
  5
238
100
AcDbEntity
  8
0
100
AcDbLine
 62
7
  6
BYLAYER
 10
15.0898745594
 20
35.185904556
 11
19.4204309895
 21
37.6861375526
  0
LINE
  5
239
100
AcDbEntity
  8
0
100
AcDbLine
 62
7
  6
BYLAYER
 10
19.5949536037
 20
36.2972353493
 11
16.3990003657
 21
34.452061901
  0
LINE
  5
23A
100
AcDbEntity
  8
0
100
AcDbLine
 62
7
  6
BYLAYER
 10
8.5774048262
 20
19.0933532876
 11
4.2286800162
 21
21.6040339278
  0
LINE
  5
23B
100
AcDbEntity
  8
0
100
AcDbLine
 62
7
  6
BYLAYER
 10
8.4738486658
 20
19.3222463615
 11
4.1251238563
 21
21.8329270014
  0
LINE
  5
23C
100
AcDbEntity
  8
0
100
AcDbLine
 62
7
  6
BYLAYER
 10
10.3036909494
 20
32.7216757704
 11
10.3674315364
 21
33.8894943377
  0
LINE
  5
23D
100
AcDbEntity
  8
0
100
AcDbLine
 62
7
  6
BYLAYER
 10
16.6888288698
 20
34.2100884212
 11
18.4100143663
 21
35.2038093994
  0
LINE
  5
23E
100
AcDbEntity
  8
0
100
AcDbLine
 62
7
  6
BYLAYER
 10
23.3570205862
 20
38.0599477238
 11
23.740666214
 21
38.2814443081
  0
LINE
  5
23F
100
AcDbEntity
  8
0
100
AcDbLine
 62
7
  6
BYLAYER
 10
27.0054137188
 20
39.6764429242
 11
23.7812864205
 21
37.8150032716
  0
LINE
  5
240
100
AcDbEntity
  8
0
100
AcDbLine
 62
7
  6
BYLAYER
 10
18.8342802005
 20
34.9588649472
 11
16.4662718491
 21
33.5917028487
  0
LINE
  5
241
100
AcDbEntity
  8
0
100
AcDbLine
 62
7
  6
BYLAYER
 10
20.2471240228
 20
35.0397051977
 11
21.5199109297
 21
35.7745446747
  0
LINE
  5
242
100
AcDbEntity
  8
0
100
AcDbLine
 62
7
  6
BYLAYER
 10
8.5774313771
 20
19.0933992203
 11
8.7064787066
 21
19.0729239283
  0
LINE
  5
243
100
AcDbEntity
  8
0
100
AcDbLine
 62
7
  6
BYLAYER
 10
12.6104022862
 20
18.4035437642
 11
13.0700236076
 21
18.1381872738
  0
LINE
  5
244
100
AcDbEntity
  8
0
100
AcDbLine
 62
7
  6
BYLAYER
 10
22.8570290713
 20
13.5969975685
 11
23.2812949056
 21
13.3520531163
  0
LINE
  5
245
100
AcDbEntity
  8
0
100
AcDbLine
 62
7
  6
BYLAYER
 10
22.7446507017
 20
13.7012268534
 11
23.1689165359
 21
13.4562824012
  0
LINE
  5
246
100
AcDbEntity
  8
0
100
AcDbLine
 62
7
  6
BYLAYER
 10
16.2244280933
 20
33.4028340038
 11
15.1799239152
 21
32.3608071782
  0
LINE
  5
247
100
AcDbEntity
  8
0
100
AcDbLine
 62
7
  6
BYLAYER
 10
9.5818462423
 20
26.7760070124
 11
8.9391087473
 21
26.1347939608
  0
LINE
  5
248
100
AcDbEntity
  8
0
100
AcDbLine
 62
7
  6
BYLAYER
 10
10.7886106189
 20
26.1508668502
 11
10.9663537378
 21
26.3281883985
  0
LINE
  5
249
100
AcDbEntity
  8
0
100
AcDbLine
 62
7
  6
BYLAYER
 10
14.8135786312
 20
30.1662884528
 11
14.9913217502
 21
30.3436100011
  0
LINE
  5
24A
100
AcDbEntity
  8
0
100
AcDbLine
 62
7
  6
BYLAYER
 10
21.9441767639
 20
35.5296002225
 11
20.671389857
 21
34.7947607455
  0
LINE
  5
24B
100
AcDbEntity
  8
0
100
AcDbLine
 62
7
  6
BYLAYER
 10
11.0473834375
 20
25.479298928
 11
10.7886106189
 21
26.1508668502
  0
LINE
  5
24C
100
AcDbEntity
  8
0
100
AcDbLine
 62
7
  6
BYLAYER
 10
14.6525112674
 20
10.4629006309
 11
14.7161563462
 21
9.3703224781
  0
LINE
  5
24D
100
AcDbEntity
  8
0
100
AcDbLine
 62
7
  6
BYLAYER
 10
12.6104022862
 20
18.4035437642
 11
12.6104022863
 21
20.444808978
  0
LINE
  5
24E
100
AcDbEntity
  8
0
100
AcDbLine
 62
7
  6
BYLAYER
 10
13.0700236077
 20
20.7101698877
 11
13.0700236076
 21
18.1381872737
  0
LINE
  5
24F
100
AcDbEntity
  8
0
100
AcDbLine
 62
7
  6
BYLAYER
 10
15.2500945688
 20
29.6720420788
 11
11.0473834375
 21
25.479298928
  0
LINE
  5
250
100
AcDbEntity
  8
0
100
AcDbLine
 62
7
  6
BYLAYER
 10
7.9788718588
 20
21.4992798158
 11
7.7228290961
 21
21.2557261793
  0
LINE
  5
251
100
AcDbEntity
  8
0
100
AcDbLine
 62
7
  6
BYLAYER
 10
30.6748215084
 20
24.1375188431
 11
29.6541029811
 21
23.8640252279
  0
LINE
  5
252
100
AcDbEntity
  8
0
100
AcDbLine
 62
7
  6
BYLAYER
 10
8.7064787066
 20
19.0729239283
 11
10.6879885857
 21
19.3841506565
  0
LINE
  5
253
100
AcDbEntity
  8
0
100
AcDbLine
 62
7
  6
BYLAYER
 10
4.1251238564
 20
27.6095968748
 11
8.4738486658
 21
25.0989162348
  0
LINE
  5
254
100
AcDbEntity
  8
0
100
AcDbLine
 62
7
  6
BYLAYER
 10
22.8570302784
 20
13.5969996594
 11
22.7446507017
 21
13.7012268534
  0
LINE
  5
255
100
AcDbEntity
  8
0
100
AcDbLine
 62
7
  6
BYLAYER
 10
22.9441330904
 20
13.6646946733
 11
23.2812961127
 21
13.3520552072
  0
LINE
  5
256
100
AcDbEntity
  8
0
100
AcDbLine
 62
7
  6
BYLAYER
 10
14.7161563464
 20
31.3788136972
 11
14.6524157588
 21
30.2109951207
  0
LINE
  5
257
100
AcDbEntity
  8
0
100
AcDbLine
 62
7
  6
BYLAYER
 10
10.7886106184
 20
10.0631572286
 11
11.0473834371
 21
11.0335284803
  0
LINE
  5
258
100
AcDbEntity
  8
0
100
AcDbLine
 62
7
  6
BYLAYER
 10
4.3577538965
 20
17.2475563022
 11
6.3392637757
 21
19.2243664409
  0
LINE
  5
259
100
AcDbEntity
  8
0
100
AcDbLine
 62
7
  6
BYLAYER
 10
28.5909528332
 20
34.5089058872
 11
29.3805867341
 21
34.9647985112
  0
LINE
  5
25A
100
AcDbEntity
  8
0
100
AcDbLine
 62
7
  6
BYLAYER
 10
4.5903839378
 20
28.6454746009
 11
8.9391087473
 21
26.1347939609
  0
LINE
  5
25B
100
AcDbEntity
  8
0
100
AcDbLine
 62
7
  6
BYLAYER
 10
25.7625374845
 20
17.2399079834
 11
25.4089810392
 21
17.4440292744
  0
LINE
  5
25C
100
AcDbEntity
  8
0
100
AcDbLine
 62
7
  6
BYLAYER
 10
9.5818462422
 20
26.7760070125
 11
5.2331214327
 21
29.2866876526
  0
LINE
  5
25D
100
AcDbEntity
  8
0
100
AcDbLine
 62
7
  6
BYLAYER
 10
10.9013697588
 20
32.1827227192
 11
10.8374939015
 21
32.3484935177
  0
LINE
  5
25E
100
AcDbEntity
  8
0
100
AcDbLine
 62
7
  6
BYLAYER
 10
19.4204309895
 20
37.6861375526
 11
20.1344066155
 21
40.3634721561
  0
LINE
  5
25F
100
AcDbEntity
  8
0
100
AcDbLine
 62
7
  6
BYLAYER
 10
29.4928000703
 20
34.294732349
 11
29.9457687581
 21
34.5562523817
  0
LINE
  5
260
100
AcDbEntity
  8
0
100
AcDbLine
 62
7
  6
BYLAYER
 10
5.9749567049
 20
29.525084382
 11
10.3236815144
 21
27.014403742
  0
LINE
  5
261
100
AcDbEntity
  8
0
100
AcDbLine
 62
7
  6
BYLAYER
 10
10.3347038832
 20
27.0077531524
 11
10.3236696233
 21
27.0143831261
  0
LINE
  5
262
100
AcDbEntity
  8
0
100
AcDbLine
 62
7
  6
BYLAYER
 10
11.0121126599
 20
26.5809806568
 11
10.3347038832
 21
27.0077531524
  0
LINE
  5
263
100
AcDbEntity
  8
0
100
AcDbLine
 62
7
  6
BYLAYER
 10
6.5811075314
 20
19.4132352859
 11
7.3022179702
 21
19.8295661067
  0
LINE
  5
264
100
AcDbEntity
  8
0
100
AcDbLine
 62
7
  6
BYLAYER
 10
28.444466028
 20
18.0534587321
 11
30.038006284
 21
17.1334486499
  0
LINE
  5
265
100
AcDbEntity
  8
0
100
AcDbLine
 62
7
  6
BYLAYER
 10
30.2880020423
 20
17.9747150093
 11
29.2980313204
 21
18.5462619418
  0
LINE
  5
266
100
AcDbEntity
  8
0
100
AcDbLine
 62
7
  6
BYLAYER
 10
14.9913217502
 20
30.3436100011
 11
15.2500945688
 21
29.6720420788
  0
LINE
  5
267
100
AcDbEntity
  8
0
100
AcDbLine
 62
7
  6
BYLAYER
 10
15.2500945683
 20
11.6936291685
 11
14.9913217497
 21
10.7232579169
  0
LINE
  5
268
100
AcDbEntity
  8
0
100
AcDbLine
 62
7
  6
BYLAYER
 10
10.3347038829
 20
8.6821477032
 11
11.0121126594
 21
9.8911198086
  0
LINE
  5
269
100
AcDbEntity
  8
0
100
AcDbLine
 62
7
  6
BYLAYER
 10
10.6879885857
 20
16.7136858007
 11
8.7064787065
 21
14.736875662
  0
LINE
  5
26A
100
AcDbEntity
  8
0
100
AcDbLine
 62
7
  6
BYLAYER
 10
29.9457687581
 20
34.5562523817
 11
31.1055771291
 21
35.6610116257
  0
LINE
  5
26B
100
AcDbEntity
  8
0
100
AcDbLine
 62
7
  6
BYLAYER
 10
10.9298323415
 20
19.4745372596
 11
13.0700236077
 21
20.7101698877
  0
LINE
  5
26C
100
AcDbEntity
  8
0
100
AcDbLine
 62
7
  6
BYLAYER
 10
30.0051351575
 20
18.9545060957
 11
30.9951058794
 21
18.3829591632
  0
LINE
  5
26D
100
AcDbEntity
  8
0
100
AcDbLine
 62
7
  6
BYLAYER
 10
31.348657798
 20
18.9953324487
 11
30.7122480483
 21
19.3627554767
  0
LINE
  5
26E
100
AcDbEntity
  8
0
100
AcDbLine
 62
7
  6
BYLAYER
 10
30.9951013527
 20
19.5260547062
 11
31.348657798
 21
19.3219334152
  0
LINE
  5
26F
100
AcDbEntity
  8
0
100
AcDbLine
 62
7
  6
BYLAYER
 10
26.0807271456
 20
22.8180906134
 11
26.332671694
 21
22.6726299264
  0
LINE
  5
270
100
AcDbEntity
  8
0
100
AcDbLine
 62
7
  6
BYLAYER
 10
28.5555351711
 20
21.6693696637
 11
30.9951058795
 21
20.2609147222
  0
LINE
  5
271
100
AcDbEntity
  8
0
100
AcDbLine
 62
7
  6
BYLAYER
 10
15.2500945688
 20
29.6720420789
 11
10.9013697588
 21
32.1827227192
  0
LINE
  5
272
100
AcDbEntity
  8
0
100
AcDbLine
 62
7
  6
BYLAYER
 10
10.3387418249
 20
32.6364416491
 11
14.6874666349
 21
30.1257610088
  0
LINE
  5
273
100
AcDbEntity
  8
0
100
AcDbLine
 62
7
  6
BYLAYER
 10
14.6525112675
 20
30.2127449756
 11
10.303786458
 21
32.7234256156
  0
LINE
  5
274
100
AcDbEntity
  8
0
100
AcDbLine
 62
7
  6
BYLAYER
 10
28.5552243203
 20
22.4040423703
 11
26.3950914432
 21
23.6511674545
  0
LINE
  5
275
100
AcDbEntity
  8
0
100
AcDbLine
 62
7
  6
BYLAYER
 10
31.348657798
 20
20.8732880077
 11
29.2626480618
 21
22.0776190447
  0
LINE
  5
276
100
AcDbEntity
  8
0
100
AcDbLine
 62
7
  6
BYLAYER
 10
26.8049952645
 20
23.7855979045
 11
27.924465762
 21
23.1392528318
  0
LINE
  5
277
100
AcDbEntity
  8
0
100
AcDbLine
 62
7
  6
BYLAYER
 10
19.4204309895
 20
37.6861375526
 11
19.5949536037
 21
36.2972353493
  0
LINE
  5
278
100
AcDbEntity
  8
0
100
AcDbLine
 62
7
  6
BYLAYER
 10
7.9788718588
 20
10.8847483933
 11
7.722829096
 21
10.6411947567
  0
LINE
  5
279
100
AcDbEntity
  8
0
100
AcDbLine
 62
7
  6
BYLAYER
 10
13.0700236076
 20
18.1381872737
 11
10.9298323414
 21
16.9025546456
  0
LINE
  5
27A
100
AcDbEntity
  8
0
100
AcDbLine
 62
7
  6
BYLAYER
 10
31.0840641041
 20
23.0331123252
 11
31.1415156005
 21
23.0067547677
  0
LINE
  5
27B
100
AcDbEntity
  8
0
100
AcDbLine
 62
7
  6
BYLAYER
 10
28.449510337
 20
23.3228116385
 11
29.2980566703
 21
22.8329142676
  0
LINE
  5
27C
100
AcDbEntity
  8
0
100
AcDbLine
 62
7
  6
BYLAYER
 10
10.3674315368
 20
33.8894943373
 11
14.7161563463
 21
31.3788136972
  0
LINE
  5
27D
100
AcDbEntity
  8
0
100
AcDbLine
 62
7
  6
BYLAYER
 10
28.5909528331
 20
23.7512280679
 11
29.2980566703
 21
23.3429907127
  0
LINE
  5
27E
100
AcDbEntity
  8
0
100
AcDbLine
 62
7
  6
BYLAYER
 10
30.3962180068
 20
23.0988993448
 11
31.348657798
 21
22.5490204149
  0
LINE
  5
27F
100
AcDbEntity
  8
0
100
AcDbLine
 62
7
  6
BYLAYER
 10
29.6541029811
 20
23.8640252279
 11
28.5909528331
 21
24.4778213661
  0
LINE
  5
280
100
AcDbEntity
  8
0
100
AcDbLine
 62
7
  6
BYLAYER
 10
15.1799239151
 20
32.3608071782
 11
10.8311991052
 21
34.8714878185
  0
LINE
  5
281
100
AcDbEntity
  8
0
100
AcDbLine
 62
7
  6
BYLAYER
 10
28.5909528331
 20
25.340613766
 11
30.6748215084
 21
24.1375188431
  0
LINE
  5
282
100
AcDbEntity
  8
0
100
AcDbLine
 62
7
  6
BYLAYER
 10
28.5909528331
 20
25.7273444445
 11
31.4672704496
 21
24.0667392624
  0
LINE
  5
283
100
AcDbEntity
  8
0
100
AcDbLine
 62
7
  6
BYLAYER
 10
24.9493680716
 20
14.0759692298
 11
24.9493680716
 21
15.6273238224
  0
LINE
  5
284
100
AcDbEntity
  8
0
100
AcDbLine
 62
7
  6
BYLAYER
 10
25.4089855659
 20
17.444037115
 11
25.4089855659
 21
17.6816393474
  0
LINE
  5
285
100
AcDbEntity
  8
0
100
AcDbLine
 62
7
  6
BYLAYER
 10
28.1744647211
 20
23.164014926
 11
28.5909528331
 21
23.4044730143
  0
LINE
  5
286
100
AcDbEntity
  8
0
100
AcDbLine
 62
7
  6
BYLAYER
 10
13.0825692713
 20
36.2921162693
 11
15.0898745594
 21
35.185904556
  0
LINE
  5
287
100
AcDbEntity
  8
0
100
AcDbLine
 62
7
  6
BYLAYER
 10
16.3990003657
 20
34.452061901
 11
15.0898745594
 21
35.185904556
  0
LINE
  5
288
100
AcDbEntity
  8
0
100
AcDbLine
 62
7
  6
BYLAYER
 10
11.875703283
 20
35.9135146438
 11
16.2244280933
 21
33.4028340038
  0
LINE
  5
289
100
AcDbEntity
  8
0
100
AcDbLine
 62
7
  6
BYLAYER
 10
16.4662718491
 20
33.5917028487
 11
12.1175470388
 21
36.1023834887
  0
LINE
  5
28A
100
AcDbEntity
  8
0
100
AcDbLine
 62
7
  6
BYLAYER
 10
16.6888288697
 20
34.2100884213
 11
13.0825692713
 21
36.2921162693
  0
LINE
  5
28B
100
AcDbEntity
  8
0
100
AcDbLine
 62
7
  6
BYLAYER
 10
16.7534740008
 20
34.2474110822
 11
16.3990003657
 21
34.452061901
  0
LINE
  5
28C
100
AcDbEntity
  8
0
100
AcDbLine
 62
7
  6
BYLAYER
 10
26.0807342112
 20
20.0375661407
 11
26.0807342112
 21
23.0210354488
  0
LINE
  5
28D
100
AcDbEntity
  8
0
100
AcDbLine
 62
7
  6
BYLAYER
 10
29.2980566703
 20
22.8329142676
 11
28.5552243203
 21
22.4040423704
  0
LINE
  5
28E
100
AcDbEntity
  8
0
100
AcDbLine
 62
7
  6
BYLAYER
 10
28.2375769704
 20
21.4857975067
 11
29.8250531965
 21
22.4023218624
  0
LINE
  5
28F
100
AcDbEntity
  8
0
100
AcDbLine
 62
7
  6
BYLAYER
 10
18.4100143645
 20
35.2038093984
 11
18.8342801988
 21
34.9588649462
  0
LINE
  5
290
100
AcDbEntity
  8
0
100
AcDbLine
 62
7
  6
BYLAYER
 10
19.6714335304
 20
34.695751274
 11
19.3342705081
 21
35.0083907402
  0
LINE
  5
291
100
AcDbEntity
  8
0
100
AcDbLine
 62
7
  6
BYLAYER
 10
27.7777834204
 20
22.125621833
 11
27.7777834204
 21
21.2914238069
  0
LINE
  5
292
100
AcDbEntity
  8
0
100
AcDbLine
 62
7
  6
BYLAYER
 10
28.5909528331
 20
23.4044730143
 11
28.5909528332
 21
34.5089058872
  0
LINE
  5
293
100
AcDbEntity
  8
0
100
AcDbLine
 62
7
  6
BYLAYER
 10
25.7914100454
 20
18.7575381026
 11
26.0132013869
 21
19.5685365712
  0
LINE
  5
294
100
AcDbEntity
  8
0
100
AcDbLine
 62
7
  6
BYLAYER
 10
19.3342717152
 20
35.0083928311
 11
18.910005881
 21
35.2533372832
  0
LINE
  5
295
100
AcDbEntity
  8
0
100
AcDbLine
 62
7
  6
BYLAYER
 10
20.6713898571
 20
34.7947607455
 11
20.2471240227
 21
35.0397051977
  0
LINE
  5
296
100
AcDbEntity
  8
0
100
AcDbLine
 62
7
  6
BYLAYER
 10
19.5949536037
 20
36.2972353493
 11
21.010110155
 21
35.4802128171
  0
LINE
  5
297
100
AcDbEntity
  8
0
100
AcDbLine
 62
7
  6
BYLAYER
 10
29.2980566703
 20
23.3429907128
 11
29.2980566703
 21
22.8329142676
  0
LINE
  5
298
100
AcDbEntity
  8
0
100
AcDbLine
 62
7
  6
BYLAYER
 10
30.9951058794
 20
20.2609147223
 11
25.7625374844
 21
17.2399079834
  0
LINE
  5
299
100
AcDbEntity
  8
0
100
AcDbLine
 62
7
  6
BYLAYER
 10
25.3029199902
 20
16.2396971079
 11
30.9951058794
 21
19.5260625468
  0
LINE
  5
29A
100
AcDbEntity
  8
0
100
AcDbLine
 62
7
  6
BYLAYER
 10
20.6713898568
 20
12.8308457249
 11
21.9441767637
 21
13.5656852019
  0
LINE
  5
29B
100
AcDbEntity
  8
0
100
AcDbLine
 62
7
  6
BYLAYER
 10
21.5199109296
 20
35.7745446747
 11
21.944176764
 21
35.5296002225
  0
LINE
  5
29C
100
AcDbEntity
  8
0
100
AcDbLine
 62
7
  6
BYLAYER
 10
31.348657798
 20
22.549020415
 11
31.348657798
 21
20.8732880078
  0
LINE
  5
29D
100
AcDbEntity
  8
0
100
AcDbLine
 62
7
  6
BYLAYER
 10
31.348657798
 20
19.3219334152
 11
31.348657798
 21
18.9953324487
  0
LINE
  5
29E
100
AcDbEntity
  8
0
100
AcDbLine
 62
7
  6
BYLAYER
 10
30.9951058794
 20
18.3829591632
 11
30.2880020422
 21
17.9747150093
  0
LINE
  5
29F
100
AcDbEntity
  8
0
100
AcDbLine
 62
7
  6
BYLAYER
 10
16.4662718506
 20
9.1782805776
 11
18.8342801954
 21
10.5454426722
  0
LINE
  5
2A0
100
AcDbEntity
  8
0
100
AcDbLine
 62
7
  6
BYLAYER
 10
23.7812864252
 20
13.4015810022
 11
24.9493680716
 21
14.0759692298
  0
LINE
  5
2A1
100
AcDbEntity
  8
0
100
AcDbLine
 62
7
  6
BYLAYER
 10
30.2880020422
 20
17.1582125922
 11
31.2779474142
 21
17.7297544077
  0
LINE
  5
2A2
100
AcDbEntity
  8
0
100
AcDbLine
 62
7
  6
BYLAYER
 10
22.7446507019
 20
37.2981467083
 11
23.1689165362
 21
37.053202256
  0
LINE
  5
2A3
100
AcDbEntity
  8
0
100
AcDbLine
 62
7
  6
BYLAYER
 10
29.3805867341
 20
34.9647985112
 11
29.4928000703
 21
34.294732349
  0
LINE
  5
2A4
100
AcDbEntity
  8
0
100
AcDbLine
 62
7
  6
BYLAYER
 10
31.9850512514
 20
18.9545009787
 11
31.9850512514
 21
22.9222738929
  0
LINE
  5
2A5
100
AcDbEntity
  8
0
100
AcDbLine
 62
7
  6
BYLAYER
 10
31.9850512516
 20
37.5665451161
 11
31.9850512516
 21
38.1965007007
  0
LINE
  5
2A6
100
AcDbEntity
  8
0
100
AcDbLine
 62
7
  6
BYLAYER
 10
29.8895511282
 20
39.9574381724
 11
27.6030837086
 21
39.8685059569
  0
LINE
  5
2A7
100
AcDbEntity
  8
0
100
AcDbLine
 62
7
  6
BYLAYER
 10
29.4928000704
 20
34.2947323489
 11
28.8563903204
 21
34.6621553771
  0
LINE
  5
2A8
100
AcDbEntity
  8
0
100
AcDbLine
 62
7
  6
BYLAYER
 10
23.7812864223
 20
37.8150032726
 11
23.357020588
 21
38.0599477248
  0
LINE
  5
2A9
100
AcDbEntity
  8
0
100
AcDbLine
 62
7
  6
BYLAYER
 10
20.1344066155
 20
40.3634721561
 11
23.740666214
 21
38.2814443081
  0
LINE
  5
2AA
100
AcDbEntity
  8
0
100
AcDbLine
 62
7
  6
BYLAYER
 10
23.2543588987
 20
42.3791865971
 11
25.5408263183
 21
42.4681188125
  0
LINE
  5
2AB
100
AcDbEntity
  8
0
100
AcDbLine
 62
7
  6
BYLAYER
 10
22.6566889089
 20
42.1871235643
 11
27.0054137189
 21
39.6764429241
  0
LINE
  5
2AC
100
AcDbEntity
  8
0
100
AcDbLine
 62
7
  6
BYLAYER
 10
27.603083708
 20
39.8685059569
 11
23.254358898
 21
42.3791865971
  0
LINE
  5
2AD
100
AcDbEntity
  8
0
100
AcDbLine
 62
7
  6
BYLAYER
 10
25.5408263183
 20
42.4681188125
 11
29.8895511283
 21
39.9574381723
  0
LINE
  5
2AE
100
AcDbEntity
  8
0
100
AcDbLine
 62
7
  6
BYLAYER
 10
31.5708394138
 20
39.1120656041
 11
25.902919581
 21
42.3844056224
  0
ARC
  5
2AF
100
AcDbEntity
  8
0
100
AcDbCircle
 62
7
  6
BYLAYER
 10
8.9481166667
 20
23.8586145395
 40
2.0091658588
100
AcDbArc
 50
239.9990695046
 51
241.1624371282
  0
ARC
  5
2B0
100
AcDbEntity
  8
0
100
AcDbCircle
 62
7
  6
BYLAYER
 10
8.9481166665
 20
13.2440831167
 40
2.0091658586
100
AcDbArc
 50
239.9990695074
 51
241.1624371285
  0
ARC
  5
2B1
100
AcDbEntity
  8
0
100
AcDbCircle
 62
7
  6
BYLAYER
 10
7.3178114518
 20
18.2438748177
 40
1.3852506552
100
AcDbArc
 50
131.600643779
 51
134.9431456402
  0
ARC
  5
2B2
100
AcDbEntity
  8
0
100
AcDbCircle
 62
7
  6
BYLAYER
 10
11.653435917
 20
15.7471095953
 40
1.3661471774
100
AcDbArc
 50
131.5772671226
 51
134.9665222966
  0
ARC
  5
2B3
100
AcDbEntity
  8
0
100
AcDbCircle
 62
7
  6
BYLAYER
 10
22.105374412
 20
13.2520410165
 40
0.7813079359
100
AcDbArc
 50
35.093696393
 51
39.441220582
  0
ARC
  5
2B4
100
AcDbEntity
  8
0
100
AcDbCircle
 62
7
  6
BYLAYER
 10
14.6483617493
 20
30.3317651125
 40
0.2338357178
100
AcDbArc
 50
311.5887983726
 51
314.954991052
  0
SPLINE
  5
2B5
100
AcDbEntity
  8
0
100
AcDbSpline
 62
7
  6
BYLAYER
 70
0
 71
3
 72
14
 73
10
 74
0
 42
0.0000001
 43
0.0000001
 44
0.0000000001
 40
0.0
 40
0.0
 40
0.0
 40
0.0
 40
0.289271873
 40
0.4225573473
 40
0.5484985541
 40
0.6678758498
 40
0.7818703739
 40
0.8920073844
 40
1.0
 40
1.0
 40
1.0
 40
1.0
 10
31.9850512516
 20
38.1965007007
 30
0.0
 10
31.9850512516
 20
38.2978708403
 30
0.0
 10
31.9732185163
 20
38.4466774993
 30
0.0
 10
31.9274636573
 20
38.633701004
 30
0.0
 10
31.8809347279
 20
38.7583273096
 30
0.0
 10
31.8216121243
 20
38.8698417968
 30
0.0
 10
31.7499742213
 20
38.967173413
 30
0.0
 10
31.6666390527
 20
39.0491288956
 30
0.0
 10
31.6036131101
 20
39.0931431607
 30
0.0
 10
31.5708394138
 20
39.1120656041
 30
0.0
  0
SPLINE
  5
2B6
100
AcDbEntity
  8
0
100
AcDbSpline
 62
7
  6
BYLAYER
 70
0
 71
3
 72
15
 73
11
 74
0
 42
0.0000001
 43
0.0000001
 44
0.0000000001
 40
0.0
 40
0.0
 40
0.0
 40
0.0
 40
0.1247805044
 40
0.2537917717
 40
0.3848872801
 40
0.5160031276
 40
0.6449795094
 40
0.7697689871
 40
0.8886296387
 40
1.0
 40
1.0
 40
1.0
 40
1.0
 10
31.1055771291
 20
35.6610116257
 30
0.0
 10
31.1703242178
 20
35.7226855595
 30
0.0
 10
31.2953693111
 20
35.8552499143
 30
0.0
 10
31.4647607674
 20
36.0733978576
 30
0.0
 10
31.6159236605
 20
36.3099733921
 30
0.0
 10
31.7452042814
 20
36.5591444805
 30
0.0
 10
31.8494415852
 20
36.8149315124
 30
0.0
 10
31.9261754761
 20
37.0711726859
 30
0.0
 10
31.9734645781
 20
37.3216304463
 30
0.0
 10
31.9850512516
 20
37.4867354541
 30
0.0
 10
31.9850512516
 20
37.5665451161
 30
0.0
  0
SPLINE
  5
2B7
100
AcDbEntity
  8
0
100
AcDbSpline
 62
7
  6
BYLAYER
 70
0
 71
3
 72
11
 73
7
 74
0
 42
0.0000001
 43
0.0000001
 44
0.0000000001
 40
0.0
 40
0.0
 40
0.0
 40
0.0
 40
0.2177182217
 40
0.4509432136
 40
0.7102956781
 40
1.0
 40
1.0
 40
1.0
 40
1.0
 10
27.924465762
 20
23.1392528318
 30
0.0
 10
27.9409535672
 20
23.1297333208
 30
0.0
 10
27.9788537735
 20
23.1159919933
 30
0.0
 10
28.0417961351
 20
23.1143725644
 30
0.0
 10
28.108881583
 20
23.1305934816
 30
0.0
 10
28.1525252175
 20
23.1513482233
 30
0.0
 10
28.1744647211
 20
23.164014926
 30
0.0
  0
SPLINE
  5
2B8
100
AcDbEntity
  8
0
100
AcDbSpline
 62
7
  6
BYLAYER
 70
0
 71
3
 72
11
 73
7
 74
0
 42
0.0000001
 43
0.0000001
 44
0.0000000001
 40
0.0
 40
0.0
 40
0.0
 40
0.0
 40
0.2897043219
 40
0.5490567864
 40
0.7822817783
 40
1.0
 40
1.0
 40
1.0
 40
1.0
 10
26.5049965135
 20
23.7558833914
 30
0.0
 10
26.5313239178
 20
23.7710834347
 30
0.0
 10
26.5836962792
 20
23.7959891247
 30
0.0
 10
26.6641988168
 20
23.8154542254
 30
0.0
 10
26.7397296507
 20
23.8135109107
 30
0.0
 10
26.7852098982
 20
23.7970213177
 30
0.0
 10
26.8049952645
 20
23.7855979045
 30
0.0
  0
SPLINE
  5
2B9
100
AcDbEntity
  8
0
100
AcDbSpline
 62
7
  6
BYLAYER
 70
0
 71
3
 72
15
 73
11
 74
0
 42
0.0000001
 43
0.0000001
 44
0.0000000001
 40
0.0
 40
0.0
 40
0.0
 40
0.0
 40
0.1140745192
 40
0.2373581709
 40
0.3669871936
 40
0.5000015062
 40
0.633015598
 40
0.762644021
 40
0.8859267383
 40
1.0
 40
1.0
 40
1.0
 40
1.0
 10
26.0807342112
 20
23.0210354488
 30
0.0
 10
26.0807342112
 20
23.0545489781
 30
0.0
 10
26.0869156502
 20
23.1243420739
 30
0.0
 10
26.1113483998
 20
23.2296396939
 30
0.0
 10
26.1505952798
 20
23.3363066525
 30
0.0
 10
26.2031209832
 20
23.440274631
 30
0.0
 10
26.2668964547
 20
23.5377473876
 30
0.0
 10
26.3396485995
 20
23.6250695908
 30
0.0
 10
26.4186218657
 20
23.6988774174
 30
0.0
 10
26.4759732224
 20
23.7391268865
 30
0.0
 10
26.5049965135
 20
23.7558833914
 30
0.0
  0
SPLINE
  5
2BA
100
AcDbEntity
  8
0
100
AcDbSpline
 62
7
  6
BYLAYER
 70
0
 71
3
 72
9
 73
5
 74
0
 42
0.0000001
 43
0.0000001
 44
0.0000000001
 40
0.0
 40
0.0
 40
0.0
 40
0.0
 40
0.5178296073
 40
1.0
 40
1.0
 40
1.0
 40
1.0
 10
26.0132013869
 20
19.5685365712
 30
0.0
 10
26.0348254088
 20
19.647606604
 30
0.0
 10
26.0680258083
 20
19.8028191811
 30
0.0
 10
26.0807342112
 20
19.9612374906
 30
0.0
 10
26.0807342112
 20
20.0375661407
 30
0.0
  0
SPLINE
  5
2BB
100
AcDbEntity
  8
0
100
AcDbSpline
 62
7
  6
BYLAYER
 70
0
 71
3
 72
9
 73
5
 74
0
 42
0.0000001
 43
0.0000001
 44
0.0000000001
 40
0.0
 40
0.0
 40
0.0
 40
0.0
 40
0.5069935264
 40
1.0
 40
1.0
 40
1.0
 40
1.0
 10
25.490495744
 20
17.9894502228
 30
0.0
 10
25.5537154265
 20
18.1138946815
 30
0.0
 10
25.6669535921
 20
18.3653549827
 30
0.0
 10
25.7550535997
 20
18.6267666301
 30
0.0
 10
25.7914100454
 20
18.7575381026
 30
0.0
  0
SPLINE
  5
2BC
100
AcDbEntity
  8
0
100
AcDbSpline
 62
7
  6
BYLAYER
 70
0
 71
3
 72
10
 73
6
 74
0
 42
0.0000001
 43
0.0000001
 44
0.0000000001
 40
0.0
 40
0.0
 40
0.0
 40
0.0
 40
0.2293640035
 40
0.4753364461
 40
1.0
 40
1.0
 40
1.0
 40
1.0
 10
25.4089855659
 20
17.6816393474
 30
0.0
 10
25.4089855659
 20
17.7061684887
 30
0.0
 10
25.4129339927
 20
17.7570519145
 30
0.0
 10
25.4346350669
 20
17.861949973
 30
0.0
 10
25.4650824659
 20
17.9394255865
 30
0.0
 10
25.490495744
 20
17.9894502228
 30
0.0
  0
SPLINE
  5
2BD
100
AcDbEntity
  8
0
100
AcDbSpline
 62
7
  6
BYLAYER
 70
0
 71
3
 72
9
 73
5
 74
0
 42
0.0000001
 43
0.0000001
 44
0.0000000001
 40
0.0
 40
0.0
 40
0.0
 40
0.0
 40
0.5138256963
 40
1.0
 40
1.0
 40
1.0
 40
1.0
 10
30.4233912696
 20
23.1117838157
 30
0.0
 10
30.5376261292
 20
23.1205232754
 30
0.0
 10
30.7621338578
 20
23.1180170257
 30
0.0
 10
30.9817189217
 20
23.0688434849
 30
0.0
 10
31.0840641041
 20
23.0331123252
 30
0.0
  0
SPLINE
  5
2BE
100
AcDbEntity
  8
0
100
AcDbSpline
 62
7
  6
BYLAYER
 70
0
 71
3
 72
15
 73
11
 74
0
 42
0.0000001
 43
0.0000001
 44
0.0000000001
 40
0.0
 40
0.0
 40
0.0
 40
0.0
 40
0.1351650807
 40
0.2743208141
 40
0.4133959685
 40
0.5489051331
 40
0.6775038546
 40
0.7964220643
 40
0.9040739703
 40
1.0
 40
1.0
 40
1.0
 40
1.0
 10
29.9544721631
 20
22.618226545
 30
0.0
 10
29.9634142455
 20
22.6491855311
 30
0.0
 10
29.9857149389
 20
22.7108729861
 30
0.0
 10
30.0298521638
 20
22.7992209776
 30
0.0
 10
30.0838626303
 20
22.8820264719
 30
0.0
 10
30.1455867397
 20
22.9560161447
 30
0.0
 10
30.2126053963
 20
23.0184343508
 30
0.0
 10
30.2825077431
 20
23.0668583414
 30
0.0
 10
30.3526586797
 20
23.0993237981
 30
0.0
 10
30.4005883123
 20
23.1100392911
 30
0.0
 10
30.4233912696
 20
23.1117838157
 30
0.0
  0
SPLINE
  5
2BF
100
AcDbEntity
  8
0
100
AcDbSpline
 62
7
  6
BYLAYER
 70
0
 71
3
 72
10
 73
6
 74
0
 42
0.0000001
 43
0.0000001
 44
0.0000000001
 40
0.0
 40
0.0
 40
0.0
 40
0.0
 40
0.2447588257
 40
0.4984796288
 40
1.0
 40
1.0
 40
1.0
 40
1.0
 10
29.8250531965
 20
22.4023218624
 30
0.0
 10
29.8399656189
 20
22.4167132015
 30
0.0
 10
29.8682139954
 20
22.4483015977
 30
0.0
 10
29.9162073
 20
22.518190101
 30
0.0
 10
29.9426885233
 20
22.5774296115
 30
0.0
 10
29.9544721631
 20
22.618226545
 30
0.0
  0
SPLINE
  5
2C0
100
AcDbEntity
  8
0
100
AcDbSpline
 62
7
  6
BYLAYER
 70
0
 71
3
 72
9
 73
5
 74
0
 42
0.0000001
 43
0.0000001
 44
0.0000000001
 40
0.0
 40
0.0
 40
0.0
 40
0.0
 40
0.2415652344
 40
1.0
 40
1.0
 40
1.0
 40
1.0
 10
27.7777834204
 20
21.2914238069
 30
0.0
 10
27.8160361045
 20
21.3038538855
 30
0.0
 10
27.9732125336
 20
21.3589071096
 30
0.0
 10
28.1254639803
 20
21.4276776176
 30
0.0
 10
28.2375769704
 20
21.4857975067
 30
0.0
  0
SPLINE
  5
2C1
100
AcDbEntity
  8
0
100
AcDbSpline
 62
7
  6
BYLAYER
 70
0
 71
3
 72
15
 73
11
 74
0
 42
0.0000001
 43
0.0000001
 44
0.0000000001
 40
0.0
 40
0.0
 40
0.0
 40
0.0
 40
0.1484905644
 40
0.289479788
 40
0.4227484208
 40
0.5486530728
 40
0.6679914802
 40
0.7819303002
 40
0.8919847861
 40
1.0
 40
1.0
 40
1.0
 40
1.0
 10
31.9850512514
 20
22.9222738929
 30
0.0
 10
31.9850512514
 20
22.9873402105
 30
0.0
 10
31.9797709543
 20
23.1142712343
 30
0.0
 10
31.9548208069
 20
23.2981185565
 30
0.0
 10
31.9130690384
 20
23.468793657
 30
0.0
 10
31.8548986562
 20
23.6245716424
 30
0.0
 10
31.7807378957
 20
23.7639612282
 30
0.0
 10
31.6911874296
 20
23.885581626
 30
0.0
 10
31.587071542
 20
23.9880811048
 30
0.0
 10
31.5082466479
 20
24.0430509008
 30
0.0
 10
31.467258536
 20
24.0667186718
 30
0.0
  0
SPLINE
  5
2C2
100
AcDbEntity
  8
0
100
AcDbSpline
 62
7
  6
BYLAYER
 70
0
 71
3
 72
14
 73
10
 74
0
 42
0.0000001
 43
0.0000001
 44
0.0000000001
 40
0.0
 40
0.0
 40
0.0
 40
0.0
 40
0.1232369995
 40
0.2515559387
 40
0.5137174557
 40
0.6433235712
 40
0.7688258169
 40
0.8883312485
 40
1.0
 40
1.0
 40
1.0
 40
1.0
 10
31.4609593542
 20
17.8632374149
 30
0.0
 10
31.49913707
 20
17.8970915579
 30
0.0
 10
31.5731092187
 20
17.9707738205
 30
0.0
 10
31.7079428102
 20
18.1355917136
 30
0.0
 10
31.8197540882
 20
18.3214596979
 30
0.0
 10
31.903431316
 20
18.5188704203
 30
0.0
 10
31.9495706483
 20
18.6672723128
 30
0.0
 10
31.9780218435
 20
18.812477114
 30
0.0
 10
31.9850512514
 20
18.9082648893
 30
0.0
 10
31.9850512514
 20
18.9545009787
 30
0.0
  0
SPLINE
  5
2C3
100
AcDbEntity
  8
0
100
AcDbSpline
 62
7
  6
BYLAYER
 70
0
 71
3
 72
9
 73
5
 74
0
 42
0.0000001
 43
0.0000001
 44
0.0000000001
 40
0.0
 40
0.0
 40
0.0
 40
0.0
 40
0.2394577107
 40
1.0
 40
1.0
 40
1.0
 40
1.0
 10
31.2779474142
 20
17.7297544077
 30
0.0
 10
31.2936209694
 20
17.7388034849
 30
0.0
 10
31.3579822916
 20
17.7784773224
 30
0.0
 10
31.4179512628
 20
17.8250999298
 30
0.0
 10
31.4609593542
 20
17.8632374149
 30
0.0
  0
SPLINE
  5
2C4
100
AcDbEntity
  8
0
100
AcDbSpline
 62
7
  6
BYLAYER
 70
0
 71
3
 72
11
 73
7
 74
0
 42
0.0000001
 43
0.0000001
 44
0.0000000001
 40
0.0
 40
0.0
 40
0.0
 40
0.0
 40
0.2895396729
 40
0.5491163863
 40
0.7822545095
 40
1.0
 40
1.0
 40
1.0
 40
1.0
 10
30.9951058794
 20
19.5260625468
 30
0.0
 10
31.017032197
 20
19.5387216367
 30
0.0
 10
31.0606871008
 20
19.5594617805
 30
0.0
 10
31.1277583048
 20
19.5756966944
 30
0.0
 10
31.1907232469
 20
19.574115523
 30
0.0
 10
31.228598111
 20
19.5603222937
 30
0.0
 10
31.2450876494
 20
19.5508022608
 30
0.0
  0
SPLINE
  5
2C5
100
AcDbEntity
  8
0
100
AcDbSpline
 62
7
  6
BYLAYER
 70
0
 71
3
 72
9
 73
5
 74
0
 42
0.0000001
 43
0.0000001
 44
0.0000000001
 40
0.0
 40
0.0
 40
0.0
 40
0.0
 40
0.26040366
 40
1.0
 40
1.0
 40
1.0
 40
1.0
 10
25.2114140202
 20
16.1729556042
 30
0.0
 10
25.2187764442
 20
16.1794842441
 30
0.0
 10
25.2476033675
 20
16.2039139988
 30
0.0
 10
25.2787163669
 20
16.2257232229
 30
0.0
 10
25.3029199902
 20
16.2396971079
 30
0.0
  0
SPLINE
  5
2C6
100
AcDbEntity
  8
0
100
AcDbSpline
 62
7
  6
BYLAYER
 70
0
 71
3
 72
13
 73
9
 74
0
 42
0.0000001
 43
0.0000001
 44
0.0000000001
 40
0.0
 40
0.0
 40
0.0
 40
0.0
 40
0.1116233517
 40
0.2312362348
 40
0.4861161902
 40
0.7483765975
 40
0.8768168832
 40
1.0
 40
1.0
 40
1.0
 40
1.0
 10
24.9493680716
 20
15.6273238224
 30
0.0
 10
24.9493680716
 20
15.6504249514
 30
0.0
 10
24.9529012579
 20
15.6983163904
 30
0.0
 10
24.9722609178
 20
15.7972249947
 30
0.0
 10
25.0186371191
 20
15.9215940892
 30
0.0
 10
25.0879175494
 20
16.0367877649
 30
0.0
 10
25.1553715013
 20
16.1191918525
 30
0.0
 10
25.192339715
 20
16.1560414374
 30
0.0
 10
25.2114140202
 20
16.1729556042
 30
0.0
  0
SPLINE
  5
2C7
100
AcDbEntity
  8
0
100
AcDbSpline
 62
7
  6
BYLAYER
 70
0
 71
3
 72
14
 73
10
 74
0
 42
0.0000001
 43
0.0000001
 44
0.0000000001
 40
0.0
 40
0.0
 40
0.0
 40
0.0
 40
0.2892649789
 40
0.4225645758
 40
0.548510672
 40
0.6678971289
 40
0.7818792817
 40
0.8919558372
 40
1.0
 40
1.0
 40
1.0
 40
1.0
 10
21.9441767637
 20
13.5656852019
 30
0.0
 10
22.0319616169
 20
13.616367508
 30
0.0
 10
22.1667502254
 20
13.6805139385
 30
0.0
 10
22.3515898038
 20
13.7344144744
 30
0.0
 10
22.4827916437
 20
13.756429402
 30
0.0
 10
22.609026361
 20
13.7607889433
 30
0.0
 10
22.7291068477
 20
13.747408267
 30
0.0
 10
22.841756149
 20
13.7162715822
 30
0.0
 10
22.9113707783
 20
13.6836709792
 30
0.0
 10
22.9441603478
 20
13.664741887
 30
0.0
  0
SPLINE
  5
2C8
100
AcDbEntity
  8
0
100
AcDbSpline
 62
7
  6
BYLAYER
 70
0
 71
3
 72
13
 73
9
 74
0
 42
0.0000001
 43
0.0000001
 44
0.0000000001
 40
0.0
 40
0.0
 40
0.0
 40
0.0
 40
0.2611116217
 40
0.5221918405
 40
0.6491553845
 40
0.7718441052
 40
0.8891550024
 40
1.0
 40
1.0
 40
1.0
 40
1.0
 10
19.4466500846
 20
11.3072436913
 30
0.0
 10
19.509246988
 20
11.4685790374
 30
0.0
 10
19.6602560948
 20
11.7816855154
 30
0.0
 10
19.9033805755
 20
12.1387296194
 30
0.0
 10
20.1257250104
 20
12.3943827743
 30
0.0
 10
20.3002915846
 20
12.564181678
 30
0.0
 10
20.4811563508
 20
12.710821532
 30
0.0
 10
20.6077687504
 20
12.7941142812
 30
0.0
 10
20.6713898568
 20
12.8308457249
 30
0.0
  0
SPLINE
  5
2C9
100
AcDbEntity
  8
0
100
AcDbSpline
 62
7
  6
BYLAYER
 70
0
 71
3
 72
12
 73
8
 74
0
 42
0.0000001
 43
0.0000001
 44
0.0000000001
 40
0.0
 40
0.0
 40
0.0
 40
0.0
 40
0.1108138635
 40
0.2281926475
 40
0.477691755
 40
0.7388455249
 40
1.0
 40
1.0
 40
1.0
 40
1.0
 10
18.8342801954
 20
10.5454426722
 30
0.0
 10
18.8660748033
 20
10.5637991881
 30
0.0
 10
18.9293720446
 20
10.6054565538
 30
0.0
 10
19.0524651217
 20
10.7052383612
 30
0.0
 10
19.1954253858
 20
10.8579373157
 30
0.0
 10
19.3398252785
 20
11.0699940014
 30
0.0
 10
19.4153533969
 20
11.2265805645
 30
0.0
 10
19.4466500846
 20
11.3072436913
 30
0.0
  0
SPLINE
  5
2CA
100
AcDbEntity
  8
0
100
AcDbSpline
 62
7
  6
BYLAYER
 70
0
 71
3
 72
9
 73
5
 74
0
 42
0.0000001
 43
0.0000001
 44
0.0000000001
 40
0.0
 40
0.0
 40
0.0
 40
0.0
 40
0.2322170284
 40
1.0
 40
1.0
 40
1.0
 40
1.0
 10
16.2244280949
 20
9.0878939744
 30
0.0
 10
16.2442358456
 20
9.0910050876
 30
0.0
 10
16.3287700494
 20
9.1092809142
 30
0.0
 10
16.4088598381
 20
9.1451339345
 30
0.0
 10
16.4662718506
 20
9.1782805776
 30
0.0
  0
SPLINE
  5
2CB
100
AcDbEntity
  8
0
100
AcDbSpline
 62
7
  6
BYLAYER
 70
0
 71
3
 72
13
 73
9
 74
0
 42
0.0000001
 43
0.0000001
 44
0.0000000001
 40
0.0
 40
0.0
 40
0.0
 40
0.0
 40
0.3066212538
 40
0.582651551
 40
0.7032839875
 40
0.8114250361
 40
0.9088223002
 40
1.0
 40
1.0
 40
1.0
 40
1.0
 10
11.0121126594
 20
9.8911198086
 30
0.0
 10
11.0226053894
 20
9.909846194
 30
0.0
 10
11.0387716111
 20
9.9476748094
 30
0.0
 10
11.0470809671
 20
9.996959786
 30
0.0
 10
11.0439036854
 20
10.0323481374
 30
0.0
 10
11.0372145573
 20
10.0543971324
 30
0.0
 10
11.0261133685
 20
10.0722815718
 30
0.0
 10
11.0157683247
 20
10.0809397097
 30
0.0
 10
11.0102392594
 20
10.0841292613
 30
0.0
  0
SPLINE
  5
2CC
100
AcDbEntity
  8
0
100
AcDbSpline
 62
7
  6
BYLAYER
 70
0
 71
3
 72
9
 73
5
 74
0
 42
0.0000001
 43
0.0000001
 44
0.0000000001
 40
0.0
 40
0.0
 40
0.0
 40
0.0
 40
0.4886071543
 40
1.0
 40
1.0
 40
1.0
 40
1.0
 10
10.0067019376
 20
8.2684435192
 30
0.0
 10
10.0712576904
 20
8.3256884234
 30
0.0
 10
10.1921790922
 20
8.4557759456
 30
0.0
 10
10.2905616318
 20
8.6033669845
 30
0.0
 10
10.3347038829
 20
8.6821477032
 30
0.0
  0
SPLINE
  5
2CD
100
AcDbEntity
  8
0
100
AcDbSpline
 62
7
  6
BYLAYER
 70
0
 71
3
 72
11
 73
7
 74
0
 42
0.0000001
 43
0.0000001
 44
0.0000000001
 40
0.0
 40
0.0
 40
0.0
 40
0.0
 40
0.2204993024
 40
0.4610753456
 40
0.7215435967
 40
1.0
 40
1.0
 40
1.0
 40
1.0
 10
9.581846242
 20
8.0445739088
 30
0.0
 10
9.6171429143
 20
8.0501177963
 30
0.0
 10
9.6898608973
 20
8.0692336116
 30
0.0
 10
9.7970182967
 20
8.1169766138
 30
0.0
 10
9.9045663331
 20
8.1838559054
 30
0.0
 10
9.972942511
 20
8.2385073005
 30
0.0
 10
10.0067019376
 20
8.2684435192
 30
0.0
  0
SPLINE
  5
2CE
100
AcDbEntity
  8
0
100
AcDbSpline
 62
7
  6
BYLAYER
 70
0
 71
3
 72
9
 73
5
 74
0
 42
0.0000001
 43
0.0000001
 44
0.0000000001
 40
0.0
 40
0.0
 40
0.0
 40
0.0
 40
0.2322170284
 40
1.0
 40
1.0
 40
1.0
 40
1.0
 10
10.6879885857
 20
19.3841506565
 30
0.0
 10
10.7077963365
 20
19.3872617696
 30
0.0
 10
10.7923305403
 20
19.4055375963
 30
0.0
 10
10.8724203289
 20
19.4413906165
 30
0.0
 10
10.9298323415
 20
19.4745372596
 30
0.0
  0
SPLINE
  5
2CF
100
AcDbEntity
  8
0
100
AcDbSpline
 62
7
  6
BYLAYER
 70
0
 71
3
 72
15
 73
11
 74
0
 42
0.0000001
 43
0.0000001
 44
0.0000000001
 40
0.0
 40
0.0
 40
0.0
 40
0.0
 40
0.1431071219
 40
0.291138294
 40
0.4374449495
 40
0.5764822341
 40
0.7034886167
 40
0.81547759
 40
0.9128488041
 40
1.0
 40
1.0
 40
1.0
 40
1.0
 10
10.9663537378
 20
26.3281883985
 30
0.0
 10
10.975952685
 20
26.3377645789
 30
0.0
 10
10.993870839
 20
26.3589031451
 30
0.0
 10
11.0159808325
 20
26.3941098448
 30
0.0
 10
11.032734536
 20
26.4317588917
 30
0.0
 10
11.0431375279
 20
26.4695856181
 30
0.0
 10
11.0466608349
 20
26.5054396011
 30
0.0
 10
11.0429413097
 20
26.5374145583
 30
0.0
 10
11.0318208573
 20
26.5637382997
 30
0.0
 10
11.0190990298
 20
26.5765791926
 30
0.0
 10
11.0121126599
 20
26.5809806568
 30
0.0
  0
SPLINE
  5
2D0
100
AcDbEntity
  8
0
100
AcDbSpline
 62
7
  6
BYLAYER
 70
0
 71
3
 72
12
 73
8
 74
0
 42
0.0000001
 43
0.0000001
 44
0.0000000001
 40
0.0
 40
0.0
 40
0.0
 40
0.0
 40
0.2611544749
 40
0.5223082448
 40
0.7718073523
 40
0.8891861365
 40
1.0
 40
1.0
 40
1.0
 40
1.0
 10
22.7446507019
 20
37.2981467083
 30
0.0
 10
22.7759473895
 20
37.3788098345
 30
0.0
 10
22.8514755072
 20
37.5353963966
 30
0.0
 10
22.9958753988
 20
37.7474530812
 30
0.0
 10
23.1388356615
 20
37.9001520352
 30
0.0
 10
23.2619287376
 20
37.9999338425
 30
0.0
 10
23.3252259785
 20
38.041591208
 30
0.0
 10
23.3570205862
 20
38.0599477238
 30
0.0
  0
SPLINE
  5
2D1
100
AcDbEntity
  8
0
100
AcDbSpline
 62
7
  6
BYLAYER
 70
0
 71
3
 72
13
 73
9
 74
0
 42
0.0000001
 43
0.0000001
 44
0.0000000001
 40
0.0
 40
0.0
 40
0.0
 40
0.0
 40
0.1108449976
 40
0.2281558948
 40
0.3508446155
 40
0.4778081595
 40
0.7388883783
 40
1.0
 40
1.0
 40
1.0
 40
1.0
 10
21.5199109297
 20
35.7745446747
 30
0.0
 10
21.5835320362
 20
35.8112761184
 30
0.0
 10
21.7101444357
 20
35.8945688675
 30
0.0
 10
21.8910092019
 20
36.0412087216
 30
0.0
 10
22.0655757761
 20
36.2110076252
 30
0.0
 10
22.2879202111
 20
36.4666607801
 30
0.0
 10
22.5310446917
 20
36.8237048842
 30
0.0
 10
22.6820537985
 20
37.1368113621
 30
0.0
 10
22.7446507019
 20
37.2981467083
 30
0.0
  0
SPLINE
  5
2D2
100
AcDbEntity
  8
0
100
AcDbSpline
 62
7
  6
BYLAYER
 70
0
 71
3
 72
12
 73
8
 74
0
 42
0.0000001
 43
0.0000001
 44
0.0000000001
 40
0.0
 40
0.0
 40
0.0
 40
0.0
 40
0.2894788785
 40
0.5486695713
 40
0.7816056051
 40
0.8917954376
 40
1.0
 40
1.0
 40
1.0
 40
1.0
 10
18.4100143663
 20
35.2038093994
 30
0.0
 10
18.4538919712
 20
35.2291419952
 30
0.0
 10
18.5412017898
 20
35.2706574724
 30
0.0
 10
18.675271388
 20
35.3030996596
 30
0.0
 10
18.7823494555
 20
35.3002549495
 30
0.0
 10
18.8587810667
 20
35.2790955746
 30
0.0
 10
18.8936059817
 20
35.262808365
 30
0.0
 10
18.9100046773
 20
35.2533351982
 30
0.0
  0
SPLINE
  5
2D3
100
AcDbEntity
  8
0
100
AcDbSpline
 62
7
  6
BYLAYER
 70
0
 71
3
 72
15
 73
11
 74
0
 42
0.0000001
 43
0.0000001
 44
0.0000000001
 40
0.0
 40
0.0
 40
0.0
 40
0.0
 40
0.1080106694
 40
0.2180660628
 40
0.3320035123
 40
0.4513420933
 40
0.5772511157
 40
0.710531861
 40
0.8515234267
 40
1.0
 40
1.0
 40
1.0
 40
1.0
 10
5.5478762826
 20
25.0228774073
 30
0.0
 10
5.5835342813
 20
25.0434655297
 30
0.0
 10
5.6592375221
 20
25.0789429449
 30
0.0
 10
5.7817548673
 20
25.1127779483
 30
0.0
 10
5.9123363175
 20
25.1273673932
 30
0.0
 10
6.0496163988
 20
25.1226010566
 30
0.0
 10
6.1922933472
 20
25.0986724353
 30
0.0
 10
6.339050358
 20
25.0558779796
 30
0.0
 10
6.4884183301
 20
24.9947063752
 30
0.0
 10
6.5863453569
 20
24.9434759391
 30
0.0
 10
6.635363381
 20
24.91517601
 30
0.0
  0
SPLINE
  5
2D4
100
AcDbEntity
  8
0
100
AcDbSpline
 62
7
  6
BYLAYER
 70
0
 71
3
 72
11
 73
7
 74
0
 42
0.0000001
 43
0.0000001
 44
0.0000000001
 40
0.0
 40
0.0
 40
0.0
 40
0.0
 40
0.2177068691
 40
0.4508430786
 40
0.7104028475
 40
1.0
 40
1.0
 40
1.0
 40
1.0
 10
4.2286835124
 20
21.6040399346
 30
0.0
 10
4.2121982325
 20
21.613562473
 30
0.0
 10
4.1813331287
 20
21.6394839433
 30
0.0
 10
4.1484766769
 20
21.6932124744
 30
0.0
 10
4.1289827832
 20
21.7594191229
 30
0.0
 10
4.1251238558
 20
21.8076024289
 30
0.0
 10
4.1251238558
 20
21.8329270016
 30
0.0
  0
SPLINE
  5
2D5
100
AcDbEntity
  8
0
100
AcDbSpline
 62
7
  6
BYLAYER
 70
0
 71
3
 72
10
 73
6
 74
0
 42
0.0000001
 43
0.0000001
 44
0.0000000001
 40
0.0
 40
0.0
 40
0.0
 40
0.0
 40
0.513136307
 40
0.7583888967
 40
1.0
 40
1.0
 40
1.0
 40
1.0
 10
25.5408263183
 20
42.4681188125
 30
0.0
 10
25.6050786769
 20
42.4706179098
 30
0.0
 10
25.7013289555
 20
42.4629707653
 30
0.0
 10
25.821437001
 20
42.4260626935
 30
0.0
 10
25.8766998034
 20
42.3995440509
 30
0.0
 10
25.902919581
 20
42.3844056224
 30
0.0
  0
SPLINE
  5
2D6
100
AcDbEntity
  8
0
100
AcDbSpline
 62
7
  6
BYLAYER
 70
0
 71
3
 72
9
 73
5
 74
0
 42
0.0000001
 43
0.0000001
 44
0.0000000001
 40
0.0
 40
0.0
 40
0.0
 40
0.0
 40
0.2743582662
 40
1.0
 40
1.0
 40
1.0
 40
1.0
 10
22.6566889089
 20
42.1871235643
 30
0.0
 10
22.7066621469
 20
42.2159754545
 30
0.0
 10
22.893079841
 20
42.3126212544
 30
0.0
 10
23.1018545752
 20
42.3732549371
 30
0.0
 10
23.2543588987
 20
42.3791865971
 30
0.0
  0
SPLINE
  5
2D7
100
AcDbEntity
  8
0
100
AcDbSpline
 62
7
  6
BYLAYER
 70
0
 71
3
 72
9
 73
5
 74
0
 42
0.0000001
 43
0.0000001
 44
0.0000000001
 40
0.0
 40
0.0
 40
0.0
 40
0.0
 40
0.5174789946
 40
1.0
 40
1.0
 40
1.0
 40
1.0
 10
11.875703283
 20
35.9135146438
 30
0.0
 10
11.9132535226
 20
35.9509758217
 30
0.0
 10
11.9898857054
 20
36.0194393406
 30
0.0
 10
12.074715127
 20
36.0776546206
 30
0.0
 10
12.1175470388
 20
36.1023834887
 30
0.0
  0
SPLINE
  5
2D8
100
AcDbEntity
  8
0
100
AcDbSpline
 62
7
  6
BYLAYER
 70
0
 71
3
 72
12
 73
8
 74
0
 42
0.0000001
 43
0.0000001
 44
0.0000000001
 40
0.0
 40
0.0
 40
0.0
 40
0.0
 40
0.1134848571
 40
0.233477637
 40
0.4867152086
 40
0.7469776727
 40
1.0
 40
1.0
 40
1.0
 40
1.0
 10
10.3674315364
 20
33.8894943377
 30
0.0
 10
10.3697141287
 20
33.9313146874
 30
0.0
 10
10.3796237646
 20
34.017124921
 30
0.0
 10
10.418513231
 20
34.1927312692
 30
0.0
 10
10.5013771145
 20
34.4128144852
 30
0.0
 10
10.6436861194
 20
34.6585810718
 30
0.0
 10
10.7650910231
 20
34.8055365314
 30
0.0
 10
10.8311991052
 20
34.8714878185
 30
0.0
  0
SPLINE
  5
2D9
100
AcDbEntity
  8
0
100
AcDbSpline
 62
7
  6
BYLAYER
 70
0
 71
3
 72
11
 73
7
 74
0
 42
0.0000001
 43
0.0000001
 44
0.0000000001
 40
0.0
 40
0.0
 40
0.0
 40
0.0
 40
0.2729955651
 40
0.5273382137
 40
0.7674940569
 40
1.0
 40
1.0
 40
1.0
 40
1.0
 10
5.6579771279
 20
29.5533962146
 30
0.0
 10
5.6866504787
 20
29.5610790166
 30
0.0
 10
5.7432525834
 20
29.5719246182
 30
0.0
 10
5.8271833837
 20
29.5731343829
 30
0.0
 10
5.90542185
 20
29.5583524752
 30
0.0
 10
5.9530590057
 20
29.5377205492
 30
0.0
 10
5.9749561081
 20
29.5250833325
 30
0.0
  0
SPLINE
  5
2DA
100
AcDbEntity
  8
0
100
AcDbSpline
 62
7
  6
BYLAYER
 70
0
 71
3
 72
11
 73
7
 74
0
 42
0.0000001
 43
0.0000001
 44
0.0000000001
 40
0.0
 40
0.0
 40
0.0
 40
0.0
 40
0.2757906034
 40
0.5358405207
 40
0.7776169834
 40
1.0
 40
1.0
 40
1.0
 40
1.0
 10
5.2331214323
 20
29.2866876528
 30
0.0
 10
5.2661045277
 20
29.319592519
 30
0.0
 10
5.3333607807
 20
29.3804602093
 30
0.0
 10
5.4400731031
 20
29.4575817975
 30
0.0
 10
5.5477371981
 20
29.5164024929
 30
0.0
 10
5.621689543
 20
29.5436732376
 30
0.0
 10
5.6579771279
 20
29.5533962146
 30
0.0
  0
SPLINE
  5
2DB
100
AcDbEntity
  8
0
100
AcDbSpline
 62
7
  6
BYLAYER
 70
0
 71
3
 72
13
 73
9
 74
0
 42
0.0000001
 43
0.0000001
 44
0.0000000001
 40
0.0
 40
0.0
 40
0.0
 40
0.0
 40
0.1112360872
 40
0.2298547713
 40
0.4826682088
 40
0.7446187754
 40
0.8742205263
 40
1.0
 40
1.0
 40
1.0
 40
1.0
 10
4.1251238559
 20
27.6095968751
 30
0.0
 10
4.1251238559
 20
27.6526518154
 30
0.0
 10
4.131205951
 20
27.741683893
 30
0.0
 10
4.1650462637
 20
27.9257223912
 30
0.0
 10
4.2465314012
 20
28.1586306162
 30
0.0
 10
4.3691736526
 20
28.3773105142
 30
0.0
 10
4.4894602049
 20
28.537666866
 30
0.0
 10
4.5559182383
 20
28.6110906478
 30
0.0
 10
4.5903839373
 20
28.6454746012
 30
0.0
  0
SPLINE
  5
2DC
100
AcDbEntity
  8
0
100
AcDbSpline
 62
7
  6
BYLAYER
 70
0
 71
3
 72
15
 73
11
 74
0
 42
0.0000001
 43
0.0000001
 44
0.0000000001
 40
0.0
 40
0.0
 40
0.0
 40
0.0
 40
0.1080106694
 40
0.2180660628
 40
0.3320035123
 40
0.4513420933
 40
0.5772511157
 40
0.710531861
 40
0.8515234267
 40
1.0
 40
1.0
 40
1.0
 40
1.0
 10
5.5478762825
 20
14.4083459847
 30
0.0
 10
5.5835342812
 20
14.4289341071
 30
0.0
 10
5.659237522
 20
14.4644115222
 30
0.0
 10
5.7817548672
 20
14.4982465257
 30
0.0
 10
5.9123363174
 20
14.5128359706
 30
0.0
 10
6.0496163986
 20
14.5080696339
 30
0.0
 10
6.192293347
 20
14.4841410126
 30
0.0
 10
6.3390503579
 20
14.4413465569
 30
0.0
 10
6.4884183299
 20
14.3801749526
 30
0.0
 10
6.5863453568
 20
14.3289445165
 30
0.0
 10
6.6353633808
 20
14.3006445874
 30
0.0
  0
SPLINE
  5
2DD
100
AcDbEntity
  8
0
100
AcDbSpline
 62
7
  6
BYLAYER
 70
0
 71
3
 72
9
 73
5
 74
0
 42
0.0000001
 43
0.0000001
 44
0.0000000001
 40
0.0
 40
0.0
 40
0.0
 40
0.0
 40
0.26040366
 40
1.0
 40
1.0
 40
1.0
 40
1.0
 10
6.3980955915
 20
19.2797522786
 30
0.0
 10
6.4128204396
 20
19.2928095582
 30
0.0
 10
6.470474286
 20
19.3416690677
 30
0.0
 10
6.5327002848
 20
19.3852875158
 30
0.0
 10
6.5811075314
 20
19.4132352859
 30
0.0
  0
SPLINE
  5
2DE
100
AcDbEntity
  8
0
100
AcDbSpline
 62
7
  6
BYLAYER
 70
0
 71
3
 72
12
 73
8
 74
0
 42
0.0000001
 43
0.0000001
 44
0.0000000001
 40
0.0
 40
0.0
 40
0.0
 40
0.0
 40
0.1111949857
 40
0.2299063156
 40
0.4827990972
 40
0.744836101
 40
1.0
 40
1.0
 40
1.0
 40
1.0
 10
4.1251238558
 20
16.7296174392
 30
0.0
 10
4.1251238558
 20
16.7511309753
 30
0.0
 10
4.1281806975
 20
16.7956437774
 30
0.0
 10
4.145071363
 20
16.8876626698
 30
0.0
 10
4.1858365414
 20
17.0041653634
 30
0.0
 10
4.2590475472
 20
17.1346650061
 30
0.0
 10
4.322804003
 20
17.2126893028
 30
0.0
 10
4.3577538965
 20
17.2475563022
 30
0.0
  0
SPLINE
  5
2DF
100
AcDbEntity
  8
0
100
AcDbSpline
 62
7
  6
BYLAYER
 70
0
 71
3
 72
9
 73
5
 74
0
 42
0.0000001
 43
0.0000001
 44
0.0000000001
 40
0.0
 40
0.0
 40
0.0
 40
0.0
 40
0.2366981072
 40
1.0
 40
1.0
 40
1.0
 40
1.0
 10
4.1492178347
 20
10.7555317718
 30
0.0
 10
4.1451498977
 20
10.7707137316
 30
0.0
 10
4.1304360671
 20
10.8355133737
 30
0.0
 10
4.1251238557
 20
10.9022618938
 30
0.0
 10
4.1251238557
 20
10.9529475656
 30
0.0
  0
SPLINE
  5
2E0
100
AcDbEntity
  8
0
100
AcDbSpline
 62
7
  6
BYLAYER
 70
0
 71
3
 72
10
 73
6
 74
0
 42
0.0000001
 43
0.0000001
 44
0.0000000001
 40
0.0
 40
0.0
 40
0.0
 40
0.0
 40
0.2374708077
 40
0.4805450616
 40
1.0
 40
1.0
 40
1.0
 40
1.0
 10
14.9217766943
 20
8.9646981276
 30
0.0
 10
14.9399981634
 20
8.9541771832
 30
0.0
 10
14.9790150453
 20
8.9363718356
 30
0.0
 10
15.0654059824
 20
8.9150245811
 30
0.0
 10
15.1344558489
 20
8.9166970001
 30
0.0
 10
15.179923915
 20
8.923838462
 30
0.0
  0
SPLINE
  5
2E1
100
AcDbEntity
  8
0
100
AcDbSpline
 62
7
  6
BYLAYER
 70
0
 71
3
 72
12
 73
8
 74
0
 42
0.0000001
 43
0.0000001
 44
0.0000000001
 40
0.0
 40
0.0
 40
0.0
 40
0.0
 40
0.1082045623
 40
0.2183943947
 40
0.4513304285
 40
0.7105211215
 40
1.0
 40
1.0
 40
1.0
 40
1.0
 10
23.2812961093
 20
13.3520552013
 30
0.0
 10
23.297694805
 20
13.3425820345
 30
0.0
 10
23.3325197203
 20
13.3262948248
 30
0.0
 10
23.4089513324
 20
13.3051354498
 30
0.0
 10
23.5160294011
 20
13.3022907401
 30
0.0
 10
23.6500990005
 20
13.3347329284
 30
0.0
 10
23.7374088199
 20
13.3762484062
 30
0.0
 10
23.7812864252
 20
13.4015810022
 30
0.0
  0
SPLINE
  5
2E2
100
AcDbEntity
  8
0
100
AcDbSpline
 62
7
  6
BYLAYER
 70
0
 71
3
 72
11
 73
7
 74
0
 42
0.0000001
 43
0.0000001
 44
0.0000000001
 40
0.0
 40
0.0
 40
0.0
 40
0.0
 40
0.2177442246
 40
0.4508817658
 40
0.7104588047
 40
1.0
 40
1.0
 40
1.0
 40
1.0
 10
25.5125557144
 20
17.2151682695
 30
0.0
 10
25.4960656184
 20
17.2246886243
 30
0.0
 10
25.4651813963
 20
17.2505931254
 30
0.0
 10
25.4323281414
 20
17.3043337091
 30
0.0
 10
25.4128515564
 20
17.3705392678
 30
0.0
 10
25.4089855659
 20
17.4187176855
 30
0.0
 10
25.4089855659
 20
17.444037115
 30
0.0
  0
SPLINE
  5
2E3
100
AcDbEntity
  8
0
100
AcDbSpline
 62
7
  6
BYLAYER
 70
0
 71
3
 72
11
 73
7
 74
0
 42
0.0000001
 43
0.0000001
 44
0.0000000001
 40
0.0
 40
0.0
 40
0.0
 40
0.0
 40
0.2177456295
 40
0.4508837762
 40
0.7104602913
 40
1.0
 40
1.0
 40
1.0
 40
1.0
 10
30.0380202719
 20
17.1334728785
 30
0.0
 10
30.0545098261
 20
17.1239528481
 30
0.0
 10
30.0923846989
 20
17.1101595992
 30
0.0
 10
30.1553496406
 20
17.1085784591
 30
0.0
 10
30.2224208402
 20
17.1248133349
 30
0.0
 10
30.2660757216
 20
17.1455535006
 30
0.0
 10
30.2880020422
 20
17.1582125922
 30
0.0
  0
SPLINE
  5
2E4
100
AcDbEntity
  8
0
100
AcDbSpline
 62
7
  6
BYLAYER
 70
0
 71
3
 72
11
 73
7
 74
0
 42
0.0000001
 43
0.0000001
 44
0.0000000001
 40
0.0
 40
0.0
 40
0.0
 40
0.0
 40
0.2043695906
 40
0.4327713681
 40
0.6982744369
 40
1.0
 40
1.0
 40
1.0
 40
1.0
 10
14.6874699044
 20
30.1257667914
 30
0.0
 10
14.6949958269
 20
30.1214309021
 30
0.0
 10
14.7133222524
 20
30.1160568341
 30
0.0
 10
14.7433459751
 20
30.1198711836
 30
0.0
 10
14.7745125094
 20
30.1338510601
 30
0.0
 10
14.7939828965
 20
30.1483650784
 30
0.0
 10
14.8035772225
 20
30.1568728604
 30
0.0
  0
SPLINE
  5
2E5
100
AcDbEntity
  8
0
100
AcDbSpline
 62
7
  6
BYLAYER
 70
0
 71
3
 72
11
 73
7
 74
0
 42
0.0000001
 43
0.0000001
 44
0.0000000001
 40
0.0
 40
0.0
 40
0.0
 40
0.0
 40
0.2146894952
 40
0.4467037321
 40
0.7074125499
 40
1.0
 40
1.0
 40
1.0
 40
1.0
 10
10.3387450972
 20
32.6364474371
 30
0.0
 10
10.3327568602
 20
32.6398974204
 30
0.0
 10
10.3216016742
 20
32.6495460732
 30
0.0
 10
10.3101841943
 20
32.6696289167
 30
0.0
 10
10.3038191133
 20
32.6943311432
 30
0.0
 10
10.3031776414
 20
32.7122712351
 30
0.0
 10
10.3036909494
 20
32.7216757704
 30
0.0
  0
SPLINE
  5
2E6
100
AcDbEntity
  8
0
100
AcDbSpline
 62
7
  6
BYLAYER
 70
0
 71
3
 72
11
 73
7
 74
0
 42
0.0000001
 43
0.0000001
 44
0.0000000001
 40
0.0
 40
0.0
 40
0.0
 40
0.0
 40
0.2216656032
 40
0.460432868
 40
0.7196467536
 40
1.0
 40
1.0
 40
1.0
 40
1.0
 10
19.4853272762
 20
34.8570759121
 30
0.0
 10
19.5435101298
 20
34.8477218262
 30
0.0
 10
19.6669014174
 20
34.8423713967
 30
0.0
 10
19.8569047482
 20
34.8720751041
 30
0.0
 10
20.0539130522
 20
34.9379519221
 30
0.0
 10
20.1825771943
 20
35.0024392913
 30
0.0
 10
20.2471240228
 20
35.0397051977
 30
0.0
  0
SPLINE
  5
2E7
100
AcDbEntity
  8
0
100
AcDbSpline
 62
7
  6
BYLAYER
 70
0
 71
3
 72
14
 73
10
 74
0
 42
0.0000001
 43
0.0000001
 44
0.0000000001
 40
0.0
 40
0.0
 40
0.0
 40
0.0
 40
0.1108281863
 40
0.228201615
 40
0.350994266
 40
0.4780647553
 40
0.7391813451
 40
0.870478552
 40
1.0
 40
1.0
 40
1.0
 40
1.0
 10
6.6353633808
 20
14.3006445874
 30
0.0
 10
6.7055906909
 20
14.2600997482
 30
0.0
 10
6.8453280531
 20
14.1679991283
 30
0.0
 10
7.0447493755
 20
14.005613296
 30
0.0
 10
7.2370264006
 20
13.8173891231
 30
0.0
 10
7.4814193499
 20
13.5340260986
 30
0.0
 10
7.69467095
 20
13.2171581625
 30
0.0
 10
7.8707142565
 20
12.8779902234
 30
0.0
 10
7.9454112995
 20
12.7021053665
 30
0.0
 10
7.9788718587
 20
12.6134403999
 30
0.0
  0
SPLINE
  5
2E8
100
AcDbEntity
  8
0
100
AcDbSpline
 62
7
  6
BYLAYER
 70
0
 71
3
 72
14
 73
10
 74
0
 42
0.0000001
 43
0.0000001
 44
0.0000000001
 40
0.0
 40
0.0
 40
0.0
 40
0.0
 40
0.1108281863
 40
0.228201615
 40
0.350994266
 40
0.4780647553
 40
0.7391813451
 40
0.870478552
 40
1.0
 40
1.0
 40
1.0
 40
1.0
 10
6.635363381
 20
24.91517601
 30
0.0
 10
6.7055906911
 20
24.8746311708
 30
0.0
 10
6.8453280533
 20
24.7825305508
 30
0.0
 10
7.0447493757
 20
24.6201447185
 30
0.0
 10
7.2370264008
 20
24.4319205456
 30
0.0
 10
7.48141935
 20
24.1485575212
 30
0.0
 10
7.6946709501
 20
23.831689585
 30
0.0
 10
7.8707142567
 20
23.4925216459
 30
0.0
 10
7.9454112997
 20
23.316636789
 30
0.0
 10
7.9788718589
 20
23.2279718224
 30
0.0
  0
SPLINE
  5
2E9
100
AcDbEntity
  8
0
100
AcDbSpline
 62
7
  6
BYLAYER
 70
0
 71
3
 72
9
 73
5
 74
0
 42
0.0000001
 43
0.0000001
 44
0.0000000001
 40
0.0
 40
0.0
 40
0.0
 40
0.0
 40
0.4825210054
 40
1.0
 40
1.0
 40
1.0
 40
1.0
 10
16.4662718491
 20
33.5917028487
 30
0.0
 10
16.4234399373
 20
33.5669739806
 30
0.0
 10
16.3386105157
 20
33.5087587006
 30
0.0
 10
16.2619783329
 20
33.4402951817
 30
0.0
 10
16.2244280933
 20
33.4028340038
 30
0.0
  0
SPLINE
  5
2EA
100
AcDbEntity
  8
0
100
AcDbSpline
 62
7
  6
BYLAYER
 70
0
 71
3
 72
13
 73
9
 74
0
 42
0.0000001
 43
0.0000001
 44
0.0000000001
 40
0.0
 40
0.0
 40
0.0
 40
0.0
 40
0.1116233517
 40
0.2312362348
 40
0.4861161902
 40
0.7483765975
 40
0.8768168832
 40
1.0
 40
1.0
 40
1.0
 40
1.0
 10
31.348657798
 20
18.9953324487
 30
0.0
 10
31.348657798
 20
18.9722313197
 30
0.0
 10
31.3451246116
 20
18.9243398807
 30
0.0
 10
31.3257649517
 20
18.8254312764
 30
0.0
 10
31.2793887505
 20
18.7010621819
 30
0.0
 10
31.2101083201
 20
18.5858685062
 30
0.0
 10
31.1426543682
 20
18.5034644186
 30
0.0
 10
31.1056861545
 20
18.4666148337
 30
0.0
 10
31.0866118493
 20
18.4497006669
 30
0.0
  0
SPLINE
  5
2EB
100
AcDbEntity
  8
0
100
AcDbSpline
 62
7
  6
BYLAYER
 70
0
 71
3
 72
11
 73
7
 74
0
 42
0.0000001
 43
0.0000001
 44
0.0000000001
 40
0.0
 40
0.0
 40
0.0
 40
0.0
 40
0.2895396729
 40
0.5491163863
 40
0.7822545095
 40
1.0
 40
1.0
 40
1.0
 40
1.0
 10
25.7625374844
 20
17.2399079834
 30
0.0
 10
25.7406111668
 20
17.2272488936
 30
0.0
 10
25.696956263
 20
17.2065087498
 30
0.0
 10
25.629885059
 20
17.1902738358
 30
0.0
 10
25.5669201169
 20
17.1918550072
 30
0.0
 10
25.5290452528
 20
17.2056482366
 30
0.0
 10
25.5125557144
 20
17.2151682695
 30
0.0
  0
SPLINE
  5
2EC
100
AcDbEntity
  8
0
100
AcDbSpline
 62
7
  6
BYLAYER
 70
0
 71
3
 72
9
 73
5
 74
0
 42
0.0000001
 43
0.0000001
 44
0.0000000001
 40
0.0
 40
0.0
 40
0.0
 40
0.0
 40
0.26040366
 40
1.0
 40
1.0
 40
1.0
 40
1.0
 10
31.0866118494
 20
20.3276562259
 30
0.0
 10
31.0792494253
 20
20.3211275861
 30
0.0
 10
31.0504225021
 20
20.2966978313
 30
0.0
 10
31.0193095027
 20
20.2748886073
 30
0.0
 10
30.9951058794
 20
20.2609147223
 30
0.0
  0
SPLINE
  5
2ED
100
AcDbEntity
  8
0
100
AcDbSpline
 62
7
  6
BYLAYER
 70
0
 71
3
 72
13
 73
9
 74
0
 42
0.0000001
 43
0.0000001
 44
0.0000000001
 40
0.0
 40
0.0
 40
0.0
 40
0.0
 40
0.1116233517
 40
0.2312362348
 40
0.4861161902
 40
0.7483765975
 40
0.8768168832
 40
1.0
 40
1.0
 40
1.0
 40
1.0
 10
31.348657798
 20
20.8732880078
 30
0.0
 10
31.348657798
 20
20.8501868788
 30
0.0
 10
31.3451246116
 20
20.8022954397
 30
0.0
 10
31.3257649517
 20
20.7033868354
 30
0.0
 10
31.2793887505
 20
20.5790177409
 30
0.0
 10
31.2101083201
 20
20.4638240653
 30
0.0
 10
31.1426543682
 20
20.3814199777
 30
0.0
 10
31.1056861545
 20
20.3445703927
 30
0.0
 10
31.0866118494
 20
20.3276562259
 30
0.0
  0
SPLINE
  5
2EE
100
AcDbEntity
  8
0
100
AcDbSpline
 62
7
  6
BYLAYER
 70
0
 71
3
 72
12
 73
8
 74
0
 42
0.0000001
 43
0.0000001
 44
0.0000000001
 40
0.0
 40
0.0
 40
0.0
 40
0.0
 40
0.1082221595
 40
0.2184529116
 40
0.4513963164
 40
0.7104731389
 40
1.0
 40
1.0
 40
1.0
 40
1.0
 10
31.1415383065
 20
23.0067940943
 30
0.0
 10
31.1579421905
 20
22.9973219416
 30
0.0
 10
31.1894866881
 20
22.9753250709
 30
0.0
 10
31.246028922
 20
22.9196879263
 30
0.0
 10
31.3020206285
 20
22.828384122
 30
0.0
 10
31.3409740318
 20
22.6960621379
 30
0.0
 10
31.348657798
 20
22.599696655
 30
0.0
 10
31.348657798
 20
22.549020415
 30
0.0
  0
SPLINE
  5
2EF
100
AcDbEntity
  8
0
100
AcDbSpline
 62
7
  6
BYLAYER
 70
0
 71
3
 72
11
 73
7
 74
0
 42
0.0000001
 43
0.0000001
 44
0.0000000001
 40
0.0
 40
0.0
 40
0.0
 40
0.0
 40
0.2324678332
 40
0.4726084291
 40
0.7270685152
 40
1.0
 40
1.0
 40
1.0
 40
1.0
 10
31.467258536
 20
24.0667186718
 30
0.0
 10
31.412532435
 20
24.0983191715
 30
0.0
 10
31.2934606567
 20
24.1499143078
 30
0.0
 10
31.0978443273
 20
24.1868640728
 30
0.0
 10
30.8880098766
 20
24.1838149
 30
0.0
 10
30.7464876787
 20
24.1567212378
 30
0.0
 10
30.6748215084
 20
24.1375188431
 30
0.0
  0
SPLINE
  5
2F0
100
AcDbEntity
  8
0
100
AcDbSpline
 62
7
  6
BYLAYER
 70
0
 71
3
 72
13
 73
9
 74
0
 42
0.0000001
 43
0.0000001
 44
0.0000000001
 40
0.0
 40
0.0
 40
0.0
 40
0.0
 40
0.2611116217
 40
0.5221918405
 40
0.6491553845
 40
0.7718441052
 40
0.8891550024
 40
1.0
 40
1.0
 40
1.0
 40
1.0
 10
23.1689165361
 20
37.053202256
 30
0.0
 10
23.1063196327
 20
36.8918669099
 30
0.0
 10
22.9553105259
 20
36.578760432
 30
0.0
 10
22.7121860453
 20
36.2217163279
 30
0.0
 10
22.4898416104
 20
35.966063173
 30
0.0
 10
22.3152750362
 20
35.7962642694
 30
0.0
 10
22.1344102699
 20
35.6496244153
 30
0.0
 10
22.0077978704
 20
35.5663316662
 30
0.0
 10
21.9441767639
 20
35.5296002225
 30
0.0
  0
SPLINE
  5
2F1
100
AcDbEntity
  8
0
100
AcDbSpline
 62
7
  6
BYLAYER
 70
0
 71
3
 72
11
 73
7
 74
0
 42
0.0000001
 43
0.0000001
 44
0.0000000001
 40
0.0
 40
0.0
 40
0.0
 40
0.0
 40
0.2177442246
 40
0.4508817658
 40
0.7104588047
 40
1.0
 40
1.0
 40
1.0
 40
1.0
 10
31.2450876494
 20
19.5508022608
 30
0.0
 10
31.2615777454
 20
19.5412819059
 30
0.0
 10
31.2924619675
 20
19.5153774049
 30
0.0
 10
31.3253152225
 20
19.4616368211
 30
0.0
 10
31.3447918074
 20
19.3954312624
 30
0.0
 10
31.348657798
 20
19.3472528447
 30
0.0
 10
31.348657798
 20
19.3219334152
 30
0.0
  0
SPLINE
  5
2F2
100
AcDbEntity
  8
0
100
AcDbSpline
 62
7
  6
BYLAYER
 70
0
 71
3
 72
12
 73
8
 74
0
 42
0.0000001
 43
0.0000001
 44
0.0000000001
 40
0.0
 40
0.0
 40
0.0
 40
0.0
 40
0.1108138635
 40
0.2281926477
 40
0.4776917552
 40
0.7388455251
 40
1.0
 40
1.0
 40
1.0
 40
1.0
 10
23.7812864205
 20
37.8150032716
 30
0.0
 10
23.7494918128
 20
37.7966467558
 30
0.0
 10
23.6861945718
 20
37.7549893903
 30
0.0
 10
23.5631014957
 20
37.6552075831
 30
0.0
 10
23.420141233
 20
37.502508629
 30
0.0
 10
23.2757413414
 20
37.2904519444
 30
0.0
 10
23.2002132237
 20
37.1338653823
 30
0.0
 10
23.1689165361
 20
37.053202256
 30
0.0
  0
SPLINE
  5
2F3
100
AcDbEntity
  8
0
100
AcDbSpline
 62
7
  6
BYLAYER
 70
0
 71
3
 72
12
 73
8
 74
0
 42
0.0000001
 43
0.0000001
 44
0.0000000001
 40
0.0
 40
0.0
 40
0.0
 40
0.0
 40
0.1082045624
 40
0.2183943949
 40
0.4513304287
 40
0.7105211215
 40
1.0
 40
1.0
 40
1.0
 40
1.0
 10
19.3342705115
 20
35.0083907461
 30
0.0
 10
19.3178718159
 20
35.0178639128
 30
0.0
 10
19.2830469009
 20
35.0341511224
 30
0.0
 10
19.2066152897
 20
35.0553104973
 30
0.0
 10
19.0995372222
 20
35.0581552075
 30
0.0
 10
18.965467624
 20
35.0257130202
 30
0.0
 10
18.8781578054
 20
34.984197543
 30
0.0
 10
18.8342802005
 20
34.9588649472
 30
0.0
  0
SPLINE
  5
2F4
100
AcDbEntity
  8
0
100
AcDbSpline
 62
7
  6
BYLAYER
 70
0
 71
3
 72
15
 73
11
 74
0
 42
0.0000001
 43
0.0000001
 44
0.0000000001
 40
0.0
 40
0.0
 40
0.0
 40
0.0
 40
0.1080066609
 40
0.2180496018
 40
0.3319948295
 40
0.4513411826
 40
0.5772470677
 40
0.7105089205
 40
0.851497163
 40
1.0
 40
1.0
 40
1.0
 40
1.0
 10
7.7228588808
 20
21.2556745885
 30
0.0
 10
7.6872007238
 20
21.2350896524
 30
0.0
 10
7.6114959005
 20
21.1996327669
 30
0.0
 10
7.4889872611
 20
21.1657775044
 30
0.0
 10
7.35840074
 20
21.1512169394
 30
0.0
 10
7.2211160371
 20
21.1559589853
 30
0.0
 10
7.0784448966
 20
21.1798971272
 30
0.0
 10
6.9316940995
 20
21.222676168
 30
0.0
 10
6.7823234385
 20
21.2838480046
 30
0.0
 10
6.6843901614
 20
21.3350855109
 30
0.0
 10
6.6353633809
 20
21.3633904955
 30
0.0
  0
SPLINE
  5
2F5
100
AcDbEntity
  8
0
100
AcDbSpline
 62
7
  6
BYLAYER
 70
0
 71
3
 72
10
 73
6
 74
0
 42
0.0000001
 43
0.0000001
 44
0.0000000001
 40
0.0
 40
0.0
 40
0.0
 40
0.0
 40
0.2274354802
 40
0.5959805701
 40
1.0
 40
1.0
 40
1.0
 40
1.0
 10
27.6030837086
 20
39.8685059569
 30
0.0
 10
27.5551203016
 20
39.8666404189
 30
0.0
 10
27.429710101
 20
39.8518139161
 30
0.0
 10
27.226245299
 20
39.7912741632
 30
0.0
 10
27.0792574439
 20
39.7190763643
 30
0.0
 10
27.0054137188
 20
39.6764429242
 30
0.0
  0
SPLINE
  5
2F6
100
AcDbEntity
  8
0
100
AcDbSpline
 62
7
  6
BYLAYER
 70
0
 71
3
 72
10
 73
6
 74
0
 42
0.0000001
 43
0.0000001
 44
0.0000000001
 40
0.0
 40
0.0
 40
0.0
 40
0.0
 40
0.2416111033
 40
0.486863693
 40
1.0
 40
1.0
 40
1.0
 40
1.0
 10
30.2516443909
 20
39.8737249822
 30
0.0
 10
30.2254246133
 20
39.8888634107
 30
0.0
 10
30.1701618109
 20
39.9153820533
 30
0.0
 10
30.0500537654
 20
39.9522901252
 30
0.0
 10
29.9538034868
 20
39.9599372697
 30
0.0
 10
29.8895511282
 20
39.9574381724
 30
0.0
  0
SPLINE
  5
2F7
100
AcDbEntity
  8
0
100
AcDbSpline
 62
7
  6
BYLAYER
 70
0
 71
3
 72
11
 73
7
 74
0
 42
0.0000001
 43
0.0000001
 44
0.0000000001
 40
0.0
 40
0.0
 40
0.0
 40
0.0
 40
0.2858778004
 40
0.5438698822
 40
0.778594158
 40
1.0
 40
1.0
 40
1.0
 40
1.0
 10
14.7161563462
 20
9.3703224781
 30
0.0
 10
14.718776413
 20
9.3253444871
 30
0.0
 10
14.7305146764
 20
9.2398914901
 30
0.0
 10
14.7715731599
 20
9.1231771464
 30
0.0
 10
14.8347822209
 20
9.0284216562
 30
0.0
 10
14.8915586091
 20
8.9821458313
 30
0.0
 10
14.9217766943
 20
8.9646981276
 30
0.0
  0
SPLINE
  5
2F8
100
AcDbEntity
  8
0
100
AcDbSpline
 62
7
  6
BYLAYER
 70
0
 71
3
 72
16
 73
12
 74
0
 42
0.0000001
 43
0.0000001
 44
0.0000000001
 40
0.0
 40
0.0
 40
0.0
 40
0.0
 40
0.1092173808
 40
0.229385736
 40
0.358017233
 40
0.491707216
 40
0.6265681425
 40
0.758597883
 40
0.8840747545
 40
0.9434298526
 40
1.0
 40
1.0
 40
1.0
 40
1.0
 10
6.4172402512
 20
24.994232297
 30
0.0
 10
6.4031365868
 20
24.8710097263
 30
0.0
 10
6.4017067089
 20
24.6087020051
 30
0.0
 10
6.4668224614
 20
24.205978013
 30
0.0
 10
6.595940765
 20
23.7898754244
 30
0.0
 10
6.783491117
 20
23.3784428999
 30
0.0
 10
7.0213715506
 20
22.9893692596
 30
0.0
 10
7.2992089634
 20
22.6396030469
 30
0.0
 10
7.5589721798
 20
22.3886612738
 30
0.0
 10
7.7769161215
 20
22.2219851961
 30
0.0
 10
7.8878708576
 20
22.1507621176
 30
0.0
 10
7.9435054797
 20
22.1186421802
 30
0.0
  0
SPLINE
  5
2F9
100
AcDbEntity
  8
0
100
AcDbSpline
 62
7
  6
BYLAYER
 70
0
 71
3
 72
11
 73
7
 74
0
 42
0.0000001
 43
0.0000001
 44
0.0000000001
 40
0.0
 40
0.0
 40
0.0
 40
0.0
 40
0.2537731753
 40
0.5181966372
 40
0.7729148236
 40
1.0
 40
1.0
 40
1.0
 40
1.0
 10
14.7413531627
 20
10.6572827813
 30
0.0
 10
14.7274459617
 20
10.6449505513
 30
0.0
 10
14.702071204
 20
10.6162606511
 30
0.0
 10
14.6733821058
 20
10.5670678604
 30
0.0
 10
14.6553823032
 20
10.5151021098
 30
0.0
 10
14.6515440143
 20
10.4795052077
 30
0.0
 10
14.6525112674
 20
10.4629006309
 30
0.0
  0
SPLINE
  5
2FA
100
AcDbEntity
  8
0
100
AcDbSpline
 62
7
  6
BYLAYER
 70
0
 71
3
 72
9
 73
5
 74
0
 42
0.0000001
 43
0.0000001
 44
0.0000000001
 40
0.0
 40
0.0
 40
0.0
 40
0.0
 40
0.4606869773
 40
1.0
 40
1.0
 40
1.0
 40
1.0
 10
14.813578631
 20
10.6953406151
 30
0.0
 10
14.8010733259
 20
10.6933764638
 30
0.0
 10
14.7748243727
 20
10.6834502151
 30
0.0
 10
14.7524408399
 20
10.6671147945
 30
0.0
 10
14.7413531627
 20
10.6572827813
 30
0.0
  0
SPLINE
  5
2FB
100
AcDbEntity
  8
0
100
AcDbSpline
 62
7
  6
BYLAYER
 70
0
 71
3
 72
11
 73
7
 74
0
 42
0.0000001
 43
0.0000001
 44
0.0000000001
 40
0.0
 40
0.0
 40
0.0
 40
0.0
 40
0.2325059431
 40
0.4726617863
 40
0.7270044349
 40
1.0
 40
1.0
 40
1.0
 40
1.0
 10
10.3236809181
 20
27.0144026921
 30
0.0
 10
10.3017838157
 20
27.0270399089
 30
0.0
 10
10.25414666
 20
27.0476718348
 30
0.0
 10
10.1759081937
 20
27.0624537426
 30
0.0
 10
10.0919773934
 20
27.0612439779
 30
0.0
 10
10.0353752887
 20
27.0503983763
 30
0.0
 10
10.0067019379
 20
27.0427155743
 30
0.0
  0
SPLINE
  5
2FC
100
AcDbEntity
  8
0
100
AcDbSpline
 62
7
  6
BYLAYER
 70
0
 71
3
 72
10
 73
6
 74
0
 42
0.0000001
 43
0.0000001
 44
0.0000000001
 40
0.0
 40
0.0
 40
0.0
 40
0.0
 40
0.2700552462
 40
0.526780695
 40
1.0
 40
1.0
 40
1.0
 40
1.0
 10
28.5552243203
 20
22.4040423704
 30
0.0
 10
28.4904922394
 20
22.3666695091
 30
0.0
 10
28.3612123862
 20
22.2987084728
 30
0.0
 10
28.1056187699
 20
22.1921674055
 30
0.0
 10
27.9077894028
 20
22.1415486266
 30
0.0
 10
27.7777834204
 20
22.125621833
 30
0.0
  0
SPLINE
  5
2FD
100
AcDbEntity
  8
0
100
AcDbSpline
 62
7
  6
BYLAYER
 70
0
 71
3
 72
12
 73
8
 74
0
 42
0.0000001
 43
0.0000001
 44
0.0000000001
 40
0.0
 40
0.0
 40
0.0
 40
0.0
 40
0.2513753697
 40
0.5137226974
 40
0.7686871271
 40
0.8883396532
 40
1.0
 40
1.0
 40
1.0
 40
1.0
 10
29.5076934292
 20
23.7794961383
 30
0.0
 10
29.4765643457
 20
23.7518923799
 30
0.0
 10
29.4193951728
 20
23.6879777065
 30
0.0
 10
29.353484949
 20
23.578439683
 30
0.0
 10
29.3163694412
 20
23.4789078675
 30
0.0
 10
29.3008834879
 20
23.3997854418
 30
0.0
 10
29.2980566703
 20
23.361471616
 30
0.0
 10
29.2980566703
 20
23.3429907128
 30
0.0
  0
SPLINE
  5
2FE
100
AcDbEntity
  8
0
100
AcDbSpline
 62
7
  6
BYLAYER
 70
0
 71
3
 72
9
 73
5
 74
0
 42
0.0000001
 43
0.0000001
 44
0.0000000001
 40
0.0
 40
0.0
 40
0.0
 40
0.0
 40
0.4675092808
 40
1.0
 40
1.0
 40
1.0
 40
1.0
 10
29.6541029811
 20
23.8640252279
 30
0.0
 10
29.6284895046
 20
23.8571622955
 30
0.0
 10
29.5760107294
 20
23.8337091292
 30
0.0
 10
29.5302911789
 20
23.7995347245
 30
0.0
 10
29.5076934292
 20
23.7794961383
 30
0.0
  0
SPLINE
  5
2FF
100
AcDbEntity
  8
0
100
AcDbSpline
 62
7
  6
BYLAYER
 70
0
 71
3
 72
15
 73
11
 74
0
 42
0.0000001
 43
0.0000001
 44
0.0000000001
 40
0.0
 40
0.0
 40
0.0
 40
0.0
 40
0.1201170381
 40
0.2453188372
 40
0.3739024562
 40
0.5039371787
 40
0.6334472753
 40
0.760483779
 40
0.8832056425
 40
1.0
 40
1.0
 40
1.0
 40
1.0
 10
7.9703037999
 20
22.6222569443
 30
0.0
 10
7.8956187863
 20
22.6851614942
 30
0.0
 10
7.7502370707
 20
22.822305911
 30
0.0
 10
7.5505998596
 20
23.0520789624
 30
0.0
 10
7.3683527739
 20
23.3058777237
 30
0.0
 10
7.2077264337
 20
23.5779314781
 30
0.0
 10
7.0723576871
 20
23.8620054777
 30
0.0
 10
6.965317252
 20
24.1516293677
 30
0.0
 10
6.8891000845
 20
24.4401695168
 30
0.0
 10
6.8591165719
 20
24.6330364906
 30
0.0
 10
6.8501919847
 20
24.727561491
 30
0.0
  0
SPLINE
  5
300
100
AcDbEntity
  8
0
100
AcDbSpline
 62
7
  6
BYLAYER
 70
0
 71
3
 72
9
 73
5
 74
0
 42
0.0000001
 43
0.0000001
 44
0.0000000001
 40
0.0
 40
0.0
 40
0.0
 40
0.0
 40
0.2638119114
 40
1.0
 40
1.0
 40
1.0
 40
1.0
 10
8.4738486658
 20
8.4422669254
 30
0.0
 10
8.4738486658
 20
8.4247510015
 30
0.0
 10
8.4756963108
 20
8.358392817
 30
0.0
 10
8.4852918445
 20
8.2920652214
 30
0.0
 10
8.4979426447
 20
8.2448511317
 30
0.0
  0
SPLINE
  5
301
100
AcDbEntity
  8
0
100
AcDbSpline
 62
7
  6
BYLAYER
 70
0
 71
3
 72
12
 73
8
 74
0
 42
0.0000001
 43
0.0000001
 44
0.0000000001
 40
0.0
 40
0.0
 40
0.0
 40
0.0
 40
0.255163899
 40
0.5172009028
 40
0.7700936844
 40
0.8888050143
 40
1.0
 40
1.0
 40
1.0
 40
1.0
 10
8.7064787065
 20
14.736875662
 30
0.0
 10
8.671528813
 20
14.7020086626
 30
0.0
 10
8.6077723573
 20
14.6239843659
 30
0.0
 10
8.5345613514
 20
14.4934847231
 30
0.0
 10
8.493796173
 20
14.3769820296
 30
0.0
 10
8.4769055075
 20
14.2849631372
 30
0.0
 10
8.4738486658
 20
14.240450335
 30
0.0
 10
8.4738486658
 20
14.218936799
 30
0.0
  0
SPLINE
  5
302
100
AcDbEntity
  8
0
100
AcDbSpline
 62
7
  6
BYLAYER
 70
0
 71
3
 72
9
 73
5
 74
0
 42
0.0000001
 43
0.0000001
 44
0.0000000001
 40
0.0
 40
0.0
 40
0.0
 40
0.0
 40
0.2394577107
 40
1.0
 40
1.0
 40
1.0
 40
1.0
 10
10.9298323414
 20
16.9025546456
 30
0.0
 10
10.9141587863
 20
16.8935055684
 30
0.0
 10
10.8497974641
 20
16.8538317309
 30
0.0
 10
10.7898284928
 20
16.8072091235
 30
0.0
 10
10.7468204015
 20
16.7690716384
 30
0.0
  0
SPLINE
  5
303
100
AcDbEntity
  8
0
100
AcDbSpline
 62
7
  6
BYLAYER
 70
0
 71
3
 72
24
 73
20
 74
0
 42
0.0000001
 43
0.0000001
 44
0.0000000001
 40
0.0
 40
0.0
 40
0.0
 40
0.0
 40
0.0623672105
 40
0.1287408547
 40
0.1983309652
 40
0.2703116661
 40
0.3436946359
 40
0.4174297225
 40
0.4904589932
 40
0.5617516269
 40
0.6303556275
 40
0.6954475076
 40
0.756400286
 40
0.8128429498
 40
0.8647466088
 40
0.9125260193
 40
0.9571048697
 40
0.9786665979
 40
1.0
 40
1.0
 40
1.0
 40
1.0
 10
6.6353633809
 20
10.7488590728
 30
0.0
 10
6.5572450665
 20
10.7939596824
 30
0.0
 10
6.4020138606
 20
10.8977341627
 30
0.0
 10
6.1821430289
 20
11.082702746
 30
0.0
 10
5.971984575
 20
11.2984928636
 30
0.0
 10
5.7760508154
 20
11.5403906619
 30
0.0
 10
5.5984232083
 20
11.8032784248
 30
0.0
 10
5.4429264971
 20
12.081565261
 30
0.0
 10
5.3128922028
 20
12.3693187391
 30
0.0
 10
5.21105155
 20
12.6603942012
 30
0.0
 10
5.1395932169
 20
12.9486170476
 30
0.0
 10
5.10007614
 20
13.2279074212
 30
0.0
 10
5.0933378969
 20
13.4924226668
 30
0.0
 10
5.1196733422
 20
13.7367072048
 30
0.0
 10
5.1789030368
 20
13.9557489108
 30
0.0
 10
5.2702153645
 20
14.1448805314
 30
0.0
 10
5.3735421033
 20
14.2753618472
 30
0.0
 10
5.4693488011
 20
14.3584166238
 30
0.0
 10
5.5211555041
 20
14.3929180112
 30
0.0
 10
5.5478762825
 20
14.4083459847
 30
0.0
  0
SPLINE
  5
304
100
AcDbEntity
  8
0
100
AcDbSpline
 62
7
  6
BYLAYER
 70
0
 71
3
 72
11
 73
7
 74
0
 42
0.0000001
 43
0.0000001
 44
0.0000000001
 40
0.0
 40
0.0
 40
0.0
 40
0.0
 40
0.2895971525
 40
0.5491569214
 40
0.7822931309
 40
1.0
 40
1.0
 40
1.0
 40
1.0
 10
8.4738486659
 20
19.3222463614
 30
0.0
 10
8.4738486659
 20
19.2969217887
 30
0.0
 10
8.4777075932
 20
19.2487384827
 30
0.0
 10
8.497201487
 20
19.1825318342
 30
0.0
 10
8.5300579387
 20
19.1288033031
 30
0.0
 10
8.5609230425
 20
19.1028818328
 30
0.0
 10
8.5774083224
 20
19.0933592944
 30
0.0
  0
SPLINE
  5
305
100
AcDbEntity
  8
0
100
AcDbSpline
 62
7
  6
BYLAYER
 70
0
 71
3
 72
13
 73
9
 74
0
 42
0.0000001
 43
0.0000001
 44
0.0000000001
 40
0.0
 40
0.0
 40
0.0
 40
0.0
 40
0.1257795036
 40
0.255381317
 40
0.5173319097
 40
0.7701453146
 40
0.8887639412
 40
1.0
 40
1.0
 40
1.0
 40
1.0
 10
8.9391087473
 20
26.1347939608
 30
0.0
 10
8.90464304
 20
26.1004099992
 30
0.0
 10
8.8381849906
 20
26.0269861838
 30
0.0
 10
8.717898406
 20
25.8666297991
 30
0.0
 10
8.5952561622
 20
25.6479498691
 30
0.0
 10
8.513771058
 20
25.4150416615
 30
0.0
 10
8.4799307467
 20
25.2310032092
 30
0.0
 10
8.4738486659
 20
25.1419711641
 30
0.0
 10
8.4738486659
 20
25.0989162347
 30
0.0
  0
SPLINE
  5
306
100
AcDbEntity
  8
0
100
AcDbSpline
 62
7
  6
BYLAYER
 70
0
 71
3
 72
11
 73
7
 74
0
 42
0.0000001
 43
0.0000001
 44
0.0000000001
 40
0.0
 40
0.0
 40
0.0
 40
0.0
 40
0.2223830166
 40
0.4641594793
 40
0.7242093966
 40
1.0
 40
1.0
 40
1.0
 40
1.0
 10
10.0067019379
 20
27.0427155743
 30
0.0
 10
9.970414353
 20
27.0329925972
 30
0.0
 10
9.8964620081
 20
27.0057218525
 30
0.0
 10
9.7887979131
 20
26.9469011572
 30
0.0
 10
9.6820855907
 20
26.869779569
 30
0.0
 10
9.6148293377
 20
26.8089118787
 30
0.0
 10
9.5818462423
 20
26.7760070124
 30
0.0
  0
SPLINE
  5
307
100
AcDbEntity
  8
0
100
AcDbSpline
 62
7
  6
BYLAYER
 70
0
 71
3
 72
15
 73
11
 74
0
 42
0.0000001
 43
0.0000001
 44
0.0000000001
 40
0.0
 40
0.0
 40
0.0
 40
0.0
 40
0.1211760501
 40
0.2470744596
 40
0.3759821229
 40
0.5060099542
 40
0.6352412348
 40
0.7617951441
 40
0.8838991672
 40
1.0
 40
1.0
 40
1.0
 40
1.0
 10
7.9703981243
 20
12.0675339341
 30
0.0
 10
7.897927839
 20
12.130196786
 30
0.0
 10
7.7567339456
 20
12.2657219725
 30
0.0
 10
7.5620127778
 20
12.4908177242
 30
0.0
 10
7.3834699195
 20
12.7376496431
 30
0.0
 10
7.2250412131
 20
13.0009104946
 30
0.0
 10
7.090124584
 20
13.2748920166
 30
0.0
 10
6.9816062548
 20
13.5536855602
 30
0.0
 10
6.9018856537
 20
13.8312549038
 30
0.0
 10
6.86807078
 20
14.0169534631
 30
0.0
 10
6.8568590273
 20
14.1080584582
 30
0.0
  0
SPLINE
  5
308
100
AcDbEntity
  8
0
100
AcDbSpline
 62
7
  6
BYLAYER
 70
0
 71
3
 72
15
 73
11
 74
0
 42
0.0000001
 43
0.0000001
 44
0.0000000001
 40
0.0
 40
0.0
 40
0.0
 40
0.0
 40
0.1080066609
 40
0.2180496018
 40
0.3319948295
 40
0.4513411826
 40
0.5772470677
 40
0.7105089205
 40
0.851497163
 40
1.0
 40
1.0
 40
1.0
 40
1.0
 10
7.7228588807
 20
10.6411431659
 30
0.0
 10
7.6872007237
 20
10.6205582298
 30
0.0
 10
7.6114959004
 20
10.5851013443
 30
0.0
 10
7.488987261
 20
10.5512460818
 30
0.0
 10
7.3584007399
 20
10.5366855167
 30
0.0
 10
7.2211160371
 20
10.5414275627
 30
0.0
 10
7.0784448966
 20
10.5653657046
 30
0.0
 10
6.9316940995
 20
10.6081447453
 30
0.0
 10
6.7823234385
 20
10.6693165819
 30
0.0
 10
6.6843901614
 20
10.7205540882
 30
0.0
 10
6.6353633809
 20
10.7488590728
 30
0.0
  0
SPLINE
  5
309
100
AcDbEntity
  8
0
100
AcDbSpline
 62
7
  6
BYLAYER
 70
0
 71
3
 72
24
 73
20
 74
0
 42
0.0000001
 43
0.0000001
 44
0.0000000001
 40
0.0
 40
0.0
 40
0.0
 40
0.0
 40
0.0623672105
 40
0.1287408547
 40
0.1983309652
 40
0.2703116661
 40
0.3436946359
 40
0.4174297226
 40
0.4904589932
 40
0.5617516269
 40
0.6303556275
 40
0.6954475076
 40
0.756400286
 40
0.8128429498
 40
0.8647466088
 40
0.9125260193
 40
0.9571048697
 40
0.9786665979
 40
1.0
 40
1.0
 40
1.0
 40
1.0
 10
6.6353633809
 20
21.3633904955
 30
0.0
 10
6.5572450665
 20
21.4084911051
 30
0.0
 10
6.4020138606
 20
21.5122655854
 30
0.0
 10
6.1821430289
 20
21.6972341687
 30
0.0
 10
5.9719845751
 20
21.9130242863
 30
0.0
 10
5.7760508154
 20
22.1549220846
 30
0.0
 10
5.5984232084
 20
22.4178098475
 30
0.0
 10
5.4429264972
 20
22.6960966837
 30
0.0
 10
5.3128922029
 20
22.9838501618
 30
0.0
 10
5.2110515501
 20
23.2749256239
 30
0.0
 10
5.139593217
 20
23.5631484703
 30
0.0
 10
5.1000761401
 20
23.8424388439
 30
0.0
 10
5.093337897
 20
24.1069540895
 30
0.0
 10
5.1196733423
 20
24.3512386275
 30
0.0
 10
5.1789030369
 20
24.5702803335
 30
0.0
 10
5.2702153646
 20
24.759411954
 30
0.0
 10
5.3735421034
 20
24.8898932698
 30
0.0
 10
5.4693488012
 20
24.9729480465
 30
0.0
 10
5.5211555042
 20
25.0074494338
 30
0.0
 10
5.5478762826
 20
25.0228774073
 30
0.0
  0
SPLINE
  5
30A
100
AcDbEntity
  8
0
100
AcDbSpline
 62
7
  6
BYLAYER
 70
0
 71
3
 72
14
 73
10
 74
0
 42
0.0000001
 43
0.0000001
 44
0.0000000001
 40
0.0
 40
0.0
 40
0.0
 40
0.0
 40
0.2892649789
 40
0.4225645758
 40
0.548510672
 40
0.6678971289
 40
0.7818792817
 40
0.8919558372
 40
1.0
 40
1.0
 40
1.0
 40
1.0
 10
20.671389857
 20
34.7947607455
 30
0.0
 10
20.5836050039
 20
34.7440784394
 30
0.0
 10
20.4488163954
 20
34.6799320088
 30
0.0
 10
20.2639768169
 20
34.626031473
 30
0.0
 10
20.132774977
 20
34.6040165454
 30
0.0
 10
20.0065402598
 20
34.599657004
 30
0.0
 10
19.8864597731
 20
34.6130376803
 30
0.0
 10
19.7738104718
 20
34.6441743652
 30
0.0
 10
19.7041958424
 20
34.6767749681
 30
0.0
 10
19.671406273
 20
34.6957040604
 30
0.0
  0
SPLINE
  5
30B
100
AcDbEntity
  8
0
100
AcDbSpline
 62
7
  6
BYLAYER
 70
0
 71
3
 72
16
 73
12
 74
0
 42
0.0000001
 43
0.0000001
 44
0.0000000001
 40
0.0
 40
0.0
 40
0.0
 40
0.0
 40
0.1092173808
 40
0.229385736
 40
0.358017233
 40
0.491707216
 40
0.6265681425
 40
0.758597883
 40
0.8840747545
 40
0.9434298526
 40
1.0
 40
1.0
 40
1.0
 40
1.0
 10
6.4172402511
 20
14.3797008744
 30
0.0
 10
6.4031365867
 20
14.2564783037
 30
0.0
 10
6.4017067088
 20
13.9941705824
 30
0.0
 10
6.4668224613
 20
13.5914465904
 30
0.0
 10
6.595940765
 20
13.1753440017
 30
0.0
 10
6.783491117
 20
12.7639114772
 30
0.0
 10
7.0213715505
 20
12.3748378369
 30
0.0
 10
7.2992089633
 20
12.0250716242
 30
0.0
 10
7.5589721798
 20
11.7741298511
 30
0.0
 10
7.7769161215
 20
11.6074537734
 30
0.0
 10
7.8878708576
 20
11.5362306949
 30
0.0
 10
7.9435054797
 20
11.5041107575
 30
0.0
  0
SPLINE
  5
30C
100
AcDbEntity
  8
0
100
AcDbSpline
 62
7
  6
BYLAYER
 70
0
 71
3
 72
11
 73
7
 74
0
 42
0.0000001
 43
0.0000001
 44
0.0000000001
 40
0.0
 40
0.0
 40
0.0
 40
0.0
 40
0.2895411595
 40
0.5491183967
 40
0.7822559144
 40
1.0
 40
1.0
 40
1.0
 40
1.0
 10
29.9344501236
 20
17.3623417238
 30
0.0
 10
29.9344501236
 20
17.3370222979
 30
0.0
 10
29.9383161444
 20
17.2888438717
 30
0.0
 10
29.9577926984
 20
17.2226382901
 30
0.0
 10
29.9906459807
 20
17.1688977216
 30
0.0
 10
30.0215301815
 20
17.1429932183
 30
0.0
 10
30.0380202719
 20
17.1334728785
 30
0.0
  0
SPLINE
  5
30D
100
AcDbEntity
  8
0
100
AcDbSpline
 62
7
  6
BYLAYER
 70
0
 71
3
 72
13
 73
9
 74
0
 42
0.0000001
 43
0.0000001
 44
0.0000000001
 40
0.0
 40
0.0
 40
0.0
 40
0.0
 40
0.1231831168
 40
0.2516234025
 40
0.5138838098
 40
0.7687637652
 40
0.8883766483
 40
1.0
 40
1.0
 40
1.0
 40
1.0
 10
30.1964960723
 20
17.9079735057
 30
0.0
 10
30.1774217671
 20
17.8910593389
 30
0.0
 10
30.1404535534
 20
17.8542097539
 30
0.0
 10
30.0729996015
 20
17.7718056663
 30
0.0
 10
30.0037191711
 20
17.6566119906
 30
0.0
 10
29.9573429699
 20
17.5322428962
 30
0.0
 10
29.93798331
 20
17.4333342919
 30
0.0
 10
29.9344501236
 20
17.3854428528
 30
0.0
 10
29.9344501236
 20
17.3623417238
 30
0.0
  0
SPLINE
  5
30E
100
AcDbEntity
  8
0
100
AcDbSpline
 62
7
  6
BYLAYER
 70
0
 71
3
 72
9
 73
5
 74
0
 42
0.0000001
 43
0.0000001
 44
0.0000000001
 40
0.0
 40
0.0
 40
0.0
 40
0.0
 40
0.2394577107
 40
1.0
 40
1.0
 40
1.0
 40
1.0
 10
30.2880020422
 20
17.9747150093
 30
0.0
 10
30.2801652647
 20
17.9701904707
 30
0.0
 10
30.2479846036
 20
17.9503535519
 30
0.0
 10
30.2180001179
 20
17.9270422483
 30
0.0
 10
30.1964960723
 20
17.9079735057
 30
0.0
  0
SPLINE
  5
30F
100
AcDbEntity
  8
0
100
AcDbSpline
 62
7
  6
BYLAYER
 70
0
 71
3
 72
9
 73
5
 74
0
 42
0.0000001
 43
0.0000001
 44
0.0000000001
 40
0.0
 40
0.0
 40
0.0
 40
0.0
 40
0.26040366
 40
1.0
 40
1.0
 40
1.0
 40
1.0
 10
31.0866118493
 20
18.4497006669
 30
0.0
 10
31.0792494253
 20
18.443172027
 30
0.0
 10
31.0504225021
 20
18.4187422723
 30
0.0
 10
31.0193095027
 20
18.3969330482
 30
0.0
 10
30.9951058794
 20
18.3829591632
 30
0.0
  0
SPLINE
  5
310
100
AcDbEntity
  8
0
100
AcDbSpline
 62
7
  6
BYLAYER
 70
0
 71
3
 72
11
 73
7
 74
0
 42
0.0000001
 43
0.0000001
 44
0.0000000001
 40
0.0
 40
0.0
 40
0.0
 40
0.0
 40
0.2925873799
 40
0.5532965296
 40
0.7853107872
 40
1.0
 40
1.0
 40
1.0
 40
1.0
 10
14.6524157588
 20
30.2109951207
 30
0.0
 10
14.651902451
 20
30.2015905882
 30
0.0
 10
14.6525439088
 20
30.1836504917
 30
0.0
 10
14.6589089787
 20
30.1589482439
 30
0.0
 10
14.6703265274
 20
30.1388654449
 30
0.0
 10
14.6814816771
 20
30.1292167726
 30
0.0
 10
14.6874699044
 20
30.1257667914
 30
0.0
  0
SPLINE
  5
311
100
AcDbEntity
  8
0
100
AcDbSpline
 62
7
  6
BYLAYER
 70
0
 71
3
 72
12
 73
8
 74
0
 42
0.0000001
 43
0.0000001
 44
0.0000000001
 40
0.0
 40
0.0
 40
0.0
 40
0.0
 40
0.2530224011
 40
0.5132848862
 40
0.7665224327
 40
0.8865151657
 40
1.0
 40
1.0
 40
1.0
 40
1.0
 10
15.1799239152
 20
32.3608071782
 30
0.0
 10
15.1138158137
 20
32.2948558718
 30
0.0
 10
14.9924108916
 20
32.1479003811
 30
0.0
 10
14.8501018846
 20
31.9021337649
 30
0.0
 10
14.7672380264
 20
31.6820505606
 30
0.0
 10
14.7283485626
 20
31.5064442474
 30
0.0
 10
14.7184389382
 20
31.4206340385
 30
0.0
 10
14.7161563464
 20
31.3788136972
 30
0.0
  0
ELLIPSE
  5
312
100
AcDbEntity
  8
0
100
AcDbEllipse
 62
7
  6
BYLAYER
 10
28.9857523984
 20
24.4821031044
 30
0.0
 11
5.6568542494
 21
0.0000203966
 31
0.0
 40
0.577354396
 41
-2.1101045785
 42
-1.7859963046
  0
ELLIPSE
  5
313
100
AcDbEntity
  8
0
100
AcDbEllipse
 62
7
  6
BYLAYER
 10
29.332671694
 20
24.4047003257
 30
0.0
 11
4.2426406871
 21
0.0000152975
 31
0.0
 40
0.577354396
 41
-2.3561965719
 42
-1.9460328631
  0
ENDSEC
  0
SECTION
  2
OBJECTS
  0
DICTIONARY
  5
C
100
AcDbDictionary
280
0
281
1
  3
ACAD_GROUP
350
D
  3
ACAD_MLINESTYLE
350
17
  3
ACAD_LAYOUT
350
1A
  3
ACAD_PLOTSETTINGS
350
19
  3
ACAD_PLOTSTYLENAME
350
E
  0
DICTIONARY
  5
D
102
{ACAD_REACTORS
330
C
102
}
100
AcDbDictionary
280
0
281
1
  0
ACDBDICTIONARYWDFLT
  5
E
102
{ACAD_REACTORS
330
C
102
}
100
AcDbDictionary
281
1
  3
Normal
350
F
100
AcDbDictionaryWithDefault
340
F
  0
DICTIONARY
  5
17
102
{ACAD_REACTORS
330
C
102
}
100
AcDbDictionary
280
0
281
1
  3
Standard
350
18
  0
DICTIONARY
  5
19
102
{ACAD_REACTORS
330
C
102
}
100
AcDbDictionary
281
1
  0
DICTIONARY
  5
1A
102
{ACAD_REACTORS
330
C
102
}
100
AcDbDictionary
281
1
  3
Model
350
314
  3
Layout1
350
315
  0
ACDBPLACEHOLDER
  5
F
102
{ACAD_REACTORS
330
E
102
}
  0
MLINESTYLE
  5
18
102
{ACAD_REACTORS
330
17
102
}
100
AcDbMlineStyle
  2
STANDARD
 70
0
  3

 62
256
 51
90.0
 52
90.0
 71
2
 49
0.5
 62
256
  6
BYLAYER
 49
-0.5
 62
256
  6
BYLAYER
  0
LAYOUT
  5
314
102
{ACAD_REACTORS
330
1A
102
}
100
AcDbPlotSettings
  1

  2
none_device
  4

  6

 40
0.0
 41
0.0
 42
0.0
 43
0.0
 44
210.0
 45
297.0
 46
0.0
 47
0.0
 48
0.0
 49
0.0
140
0.0
141
0.0
142
1.0
143
1.0
 70
1024
 72
1
 73
0
 74
0
  7

 75
0
147
1.0
148
0.0
149
0.0
100
AcDbLayout
  1
Model
 70
0
 71
0
 10
0.0
 20
0.0
 11
210.0
 21
297.0
 12
0.0
 22
0.0
 32
0.0
 14
0.0
 24
0.0
 34
0.0
 15
0.0
 25
0.0
 35
0.0
146
0.0
 13
0.0
 23
0.0
 33
0.0
 16
1.0
 26
0.0
 36
0.0
 17
0.0
 27
1.0
 37
0.0
 76
0
330
210
345
0
346
0
  0
LAYOUT
  5
315
102
{ACAD_REACTORS
330
1A
102
}
100
AcDbPlotSettings
  1

  2
none_device
  4

  6

 40
0.0
 41
0.0
 42
0.0
 43
0.0
 44
210.0
 45
297.0
 46
0.0
 47
0.0
 48
0.0
 49
0.0
140
0.0
141
0.0
142
1.0
143
1.0
 70
0
 72
1
 73
0
 74
0
  7

 75
0
147
1.0
148
0.0
149
0.0
100
AcDbLayout
  1
Layout1
 70
0
 71
1
 10
0.0
 20
0.0
 11
210.0
 21
297.0
 12
0.0
 22
0.0
 32
0.0
 14
0.0
 24
0.0
 34
0.0
 15
0.0
 25
0.0
 35
0.0
146
0.0
 13
0.0
 23
0.0
 33
0.0
 16
1.0
 26
0.0
 36
0.0
 17
0.0
 27
1.0
 37
0.0
 76
0
330
211
345
0
346
0
  0
ENDSEC
  0
EOF
