999
DXF file: C:\Users\sesa63760\Dev\_Creo\CAD\MCADID0002098_3D-CAD\drw0001_2.dxf
999
Pro/ENGINEER 2019471 by Parametric Technology Corporation
  0
SECTION
  2
HEADER
  9
$ACADVER
  1
AC1024
  9
$DWGCODEPAGE
  3
ANSI_1252
  9
$EXTMAX
 10
83.8957293603
 20
118.6525315238
 30
0.0
  9
$EXTMIN
 10
0.0
 20
0.0
 30
0.0
  9
$LIMMIN
 10
0.0
 20
0.0
  9
$LIMMAX
 10
83.8957293603
 20
118.6525315238
  9
$VIEWCTR
 10
41.9478646801
 20
59.3262657619
  9
$VIEWSIZE
 40
118.6525315238
  9
$CLAYER
  8
0
  9
$LTSCALE
 40
7.7343872401
  9
$CELTYPE
  6
BYLAYER
  9
$DIMSCALE
 40
1.0
  9
$DIMASZ
 40
0.9987586829
  9
$DIMEXO
 40
1.0
  9
$DIMDLI
 40
5.3437584568
  9
$DIMEXE
 40
1.0
  9
$DIMCEN
 40
1.2656270029
  9
$DIMLFAC
 40
1.0
  9
$DIMBLK
  1
_FILLED
  9
$DIMALT
 70
0
  9
$DIMALTF
 40
0.0393700787
  9
$DIMTXT
 40
1.398262156
  9
$DIMTOL
 70
1
  9
$DIMLIM
 70
0
  9
$DIMTFAC
 40
1.0
  9
$DIMTP
 40
0.01
  9
$DIMTM
 40
0.01
  9
$DIMGAP
 40
0.625
  9
$DIMDSEP
 70
46
  9
$AUNITS
 70
0
  9
$PDMODE
 70
3
  9
$PDSIZE
 40
0.3125
  9
$HANDSEED
  5
26D
  9
$TILEMODE
 70
1
  9
$MEASUREMENT
 70
1
  9
$INSUNITS
 70
4
  0
ENDSEC
  0
SECTION
  2
CLASSES
  0
CLASS
  1
ACDBDICTIONARYWDFLT
  2
AcDbDictionaryWithDefault
  3
AutoCAD 2000
 90
0
 91
1
280
0
281
0
  0
CLASS
  1
ACDBPLACEHOLDER
  2
AcDbPlaceHolder
  3
AutoCAD 2000
 90
0
 91
1
280
0
281
0
  0
CLASS
  1
LAYOUT
  2
AcDbLayout
  3
AutoCAD 2000
 90
0
 91
0
280
0
281
0
  0
ENDSEC
  0
SECTION
  2
TABLES
  0
TABLE
  2
VPORT
  5
8
100
AcDbSymbolTable
 70
2
  0
VPORT
  5
1F4
100
AcDbSymbolTableRecord
100
AcDbViewportTableRecord
  2
*ACTIVE
 70
0
 10
0.0
 20
0.0
 11
1.0
 21
1.0
 12
41.9478646801
 22
59.3262657619
 13
0.0
 23
0.0
 14
1.0
 24
1.0
 15
0.0
 25
0.0
 16
0.0
 26
0.0
 36
1.0
 17
0.0
 27
0.0
 37
0.0
 40
118.6525315238
 41
0.7070707071
 42
50.0
 43
0.0
 44
0.0
 50
0.0
 51
0.0
 71
0
 72
100
 73
1
 74
1
 75
0
 76
0
 77
0
 78
0
  0
ENDTAB
  0
TABLE
  2
LTYPE
  5
5
100
AcDbSymbolTable
 70
6
  0
LTYPE
  5
14
100
AcDbSymbolTableRecord
100
AcDbLinetypeTableRecord
  2
BYBLOCK
 70
0
  3

 72
65
 73
0
 40
0.0
  0
LTYPE
  5
15
100
AcDbSymbolTableRecord
100
AcDbLinetypeTableRecord
  2
BYLAYER
 70
0
  3

 72
65
 73
0
 40
0.0
  0
LTYPE
  5
16
100
AcDbSymbolTableRecord
100
AcDbLinetypeTableRecord
  2
CONTINUOUS
 70
64
  3
Solid line
 72
65
 73
0
 40
0.0
  0
LTYPE
  5
1F5
100
AcDbSymbolTableRecord
100
AcDbLinetypeTableRecord
  2
CENTER
 70
64
  3
____ _ ____ _ ____ _ ____ _ ____ _ ____ _ ____
 72
65
 73
4
 40
0.6
 49
0.375
 74
0
 49
-0.075
 74
0
 49
0.075
 74
0
 49
-0.075
 74
0
  0
LTYPE
  5
1F6
100
AcDbSymbolTableRecord
100
AcDbLinetypeTableRecord
  2
HIDDEN
 70
64
  3
- - - - - - - - - - - - - - - - - - - -
 72
65
 73
2
 40
0.2
 49
0.1
 74
0
 49
-0.1
 74
0
  0
LTYPE
  5
1F7
100
AcDbSymbolTableRecord
100
AcDbLinetypeTableRecord
  2
PHANTOM
 70
64
  3
_____ _ _ _____ _ _ _____ _ _ _____
 72
65
 73
6
 40
0.8
 49
0.45
 74
0
 49
-0.05
 74
0
 49
0.1
 74
0
 49
-0.05
 74
0
 49
0.1
 74
0
 49
-0.05
 74
0
  0
LTYPE
  5
1F8
100
AcDbSymbolTableRecord
100
AcDbLinetypeTableRecord
  2
DOT
 70
64
  3
. . . . . . . . . . . . . . . . . . . .
 72
65
 73
2
 40
0.2
 49
0.1
 74
0
 49
-0.1
 74
0
  0
LTYPE
  5
1F9
100
AcDbSymbolTableRecord
100
AcDbLinetypeTableRecord
  2
DASHED
 70
64
  3
- - - - - - - - - - - - - - - - - - - -
 72
65
 73
2
 40
0.2
 49
0.1
 74
0
 49
-0.1
 74
0
  0
ENDTAB
  0
TABLE
  2
LAYER
  5
2
100
AcDbSymbolTable
 70
36
  0
LAYER
  5
10
100
AcDbSymbolTableRecord
100
AcDbLayerTableRecord
  2
0
 70
0
 62
7
  6
CONTINUOUS
370
-3
390
F
  0
LAYER
  5
1FA
100
AcDbSymbolTableRecord
100
AcDbLayerTableRecord
  2
DEFAULT_1
 70
0
 62
7
  6
CENTER
370
-3
390
F
  0
LAYER
  5
1FB
100
AcDbSymbolTableRecord
100
AcDbLayerTableRecord
  2
DEFAULT_2
 70
0
 62
8
  6
HIDDEN
370
-3
390
F
  0
LAYER
  5
1FC
100
AcDbSymbolTableRecord
100
AcDbLayerTableRecord
  2
DEFAULT_3
 70
0
 62
7
  6
PHANTOM
370
-3
390
F
  0
LAYER
  5
1FD
100
AcDbSymbolTableRecord
100
AcDbLayerTableRecord
  2
00_COMPONENTS
 70
0
 62
7
  6
CONTINUOUS
370
-3
390
F
  0
LAYER
  5
1FE
100
AcDbSymbolTableRecord
100
AcDbLayerTableRecord
  2
01_1_DEFAULT_DATUMS
 70
0
 62
7
  6
CONTINUOUS
370
-3
390
F
  0
LAYER
  5
1FF
100
AcDbSymbolTableRecord
100
AcDbLayerTableRecord
  2
01_PLANES
 70
0
 62
7
  6
CONTINUOUS
370
-3
390
F
  0
LAYER
  5
200
100
AcDbSymbolTableRecord
100
AcDbLayerTableRecord
  2
02_COORD_SYS
 70
0
 62
7
  6
CONTINUOUS
370
-3
390
F
  0
LAYER
  5
201
100
AcDbSymbolTableRecord
100
AcDbLayerTableRecord
  2
03_AXES
 70
0
 62
7
  6
CONTINUOUS
370
-3
390
F
  0
LAYER
  5
202
100
AcDbSymbolTableRecord
100
AcDbLayerTableRecord
  2
04_POINTS
 70
0
 62
7
  6
CONTINUOUS
370
-3
390
F
  0
LAYER
  5
203
100
AcDbSymbolTableRecord
100
AcDbLayerTableRecord
  2
05_CURVES
 70
0
 62
7
  6
CONTINUOUS
370
-3
390
F
  0
LAYER
  5
204
100
AcDbSymbolTableRecord
100
AcDbLayerTableRecord
  2
06_SURFS
 70
0
 62
7
  6
CONTINUOUS
370
-3
390
F
  0
LAYER
  5
205
100
AcDbSymbolTableRecord
100
AcDbLayerTableRecord
  2
07_COSMETICS
 70
0
 62
7
  6
CONTINUOUS
370
-3
390
F
  0
LAYER
  5
206
100
AcDbSymbolTableRecord
100
AcDbLayerTableRecord
  2
10_NOTES
 70
0
 62
7
  6
CONTINUOUS
370
-3
390
F
  0
LAYER
  5
207
100
AcDbSymbolTableRecord
100
AcDbLayerTableRecord
  2
11_NOTES_PUB
 70
0
 62
7
  6
CONTINUOUS
370
-3
390
F
  0
LAYER
  5
208
100
AcDbSymbolTableRecord
100
AcDbLayerTableRecord
  2
13_REF_GTOL
 70
0
 62
7
  6
CONTINUOUS
370
-3
390
F
  0
LAYER
  5
209
100
AcDbSymbolTableRecord
100
AcDbLayerTableRecord
  2
16_MISC
 70
0
 62
7
  6
CONTINUOUS
370
-3
390
F
  0
LAYER
  5
20A
100
AcDbSymbolTableRecord
100
AcDbLayerTableRecord
  2
17_NO_PRINT
 70
0
 62
7
  6
CONTINUOUS
370
-3
390
F
  0
LAYER
  5
20B
100
AcDbSymbolTableRecord
100
AcDbLayerTableRecord
  2
18_DATUM_CAMS_JOINTS
 70
0
 62
7
  6
CONTINUOUS
370
-3
390
F
  0
LAYER
  5
20C
100
AcDbSymbolTableRecord
100
AcDbLayerTableRecord
  2
19_DATUM_FUNCTIONAL
 70
0
 62
7
  6
CONTINUOUS
370
-3
390
F
  0
LAYER
  5
20D
100
AcDbSymbolTableRecord
100
AcDbLayerTableRecord
  2
20_DATUM_KINEMATIC_SCHEME
 70
0
 62
7
  6
CONTINUOUS
370
-3
390
F
  0
ENDTAB
  0
TABLE
  2
STYLE
  5
3
100
AcDbSymbolTable
 70
1
  0
STYLE
  5
11
100
AcDbSymbolTableRecord
100
AcDbTextStyleTableRecord
  2
STANDARD
 70
0
 40
0.0
 41
0.8
 50
0.0
 71
0
 42
0.2
  3
txt
  4

  0
STYLE
  5
20E
100
AcDbSymbolTableRecord
100
AcDbTextStyleTableRecord
  2
TEXTSTYLE_1
 70
0
 40
0.0
 41
0.8
 50
0.0
 71
0
 42
0.2
  3
gdt
  4

  0
ENDTAB
  0
TABLE
  2
VIEW
  5
6
100
AcDbSymbolTable
 70
0
  0
ENDTAB
  0
TABLE
  2
UCS
  5
7
100
AcDbSymbolTable
 70
0
  0
ENDTAB
  0
TABLE
  2
APPID
  5
9
100
AcDbSymbolTable
 70
1
  0
APPID
  5
20F
100
AcDbSymbolTableRecord
100
AcDbRegAppTableRecord
  2
ACAD
 70
0
  0
ENDTAB
  0
TABLE
  2
BLOCK_RECORD
  5
1
100
AcDbSymbolTable
 70
0
  0
BLOCK_RECORD
  5
210
100
AcDbSymbolTableRecord
100
AcDbBlockTableRecord
  2
*Model_Space
  0
BLOCK_RECORD
  5
211
100
AcDbSymbolTableRecord
100
AcDbBlockTableRecord
  2
*Paper_Space
  0
BLOCK_RECORD
  5
212
100
AcDbSymbolTableRecord
100
AcDbBlockTableRecord
  2
_FILLED
  0
ENDTAB
  0
TABLE
  2
DIMSTYLE
  5
A
100
AcDbSymbolTable
 70
1
100
AcDbDimStyleTable
 71
0
  0
DIMSTYLE
105
213
100
AcDbSymbolTableRecord
100
AcDbDimStyleTableRecord
  2
STANDARD
 70
0
  3

  4

 40
1.0
 41
0.9987586829
 42
1.0
 43
0.38
 44
1.0
 45
0.0
 46
0.0
 47
0.01
 48
0.01
140
1.398262156
141
0.09
142
0.0
143
25.4
144
1.0
145
0.0
146
1.0
147
0.625
 71
1
 72
0
 73
0
 74
0
 75
0
 76
0
 77
1
 78
8
 79
2
170
0
171
1
172
0
173
0
174
0
175
0
176
0
177
0
178
0
270
2
179
2
271
2
272
2
273
2
274
2
275
0
280
0
281
0
282
0
283
1
284
8
285
0
286
0
287
3
288
0
340
11
278
46
341
212
342
212
343
212
344
212
  0
ENDTAB
  0
ENDSEC
  0
SECTION
  2
BLOCKS
  0
BLOCK
  5
20
100
AcDbEntity
  8
0
100
AcDbBlockBegin
  2
*Model_Space
 70
0
 10
0.0
 20
0.0
 30
0.0
  3
*Model_Space
  1

  0
ENDBLK
  5
21
100
AcDbEntity
  8
0
100
AcDbBlockEnd
  0
BLOCK
  5
1C
100
AcDbEntity
  8
0
100
AcDbBlockBegin
  2
*Paper_Space
 70
0
 10
0.0
 20
0.0
 30
0.0
  3
*Paper_Space
  1

  0
ENDBLK
  5
1D
100
AcDbEntity
  8
0
100
AcDbBlockEnd
  0
BLOCK
  5
214
100
AcDbEntity
  8
0
100
AcDbBlockBegin
  2
_FILLED
 70
64
 10
0.0
 20
0.0
  3
_FILLED
  1

  0
SOLID
  5
215
100
AcDbEntity
  8
0
  6
BYBLOCK
 62
0
100
AcDbTrace
 10
0.0
 20
0.0
 11
-1.0
 21
0.25
 12
-1.0
 22
-0.25
 13
-1.0
 23
-0.25
  0
ENDBLK
  5
216
100
AcDbEntity
  8
0
  6
BYBLOCK
 62
0
100
AcDbBlockEnd
  0
ENDSEC
  0
SECTION
  2
ENTITIES
  0
LINE
  5
217
100
AcDbEntity
  8
0
100
AcDbLine
 62
7
  6
CONTINUOUS
 10
12.9037828275
 20
35.6084214568
 11
14.9245087697
 21
32.1084214568
  0
LINE
  5
218
100
AcDbEntity
  8
0
100
AcDbLine
 62
7
  6
CONTINUOUS
 10
9.2068886763
 20
82.6584214578
 11
9.2068781532
 21
35.558421457
  0
LINE
  5
219
100
AcDbEntity
  8
0
100
AcDbLine
 62
7
  6
CONTINUOUS
 10
57.5287811677
 20
27.4584214568
 11
27.5287845482
 21
27.4584214568
  0
LINE
  5
21A
100
AcDbEntity
  8
0
100
AcDbLine
 62
7
  6
CONTINUOUS
 10
20.9537828275
 20
35.6084214568
 11
18.9330568854
 21
39.1084214568
  0
LINE
  5
21B
100
AcDbEntity
  8
0
100
AcDbLine
 62
7
  6
CONTINUOUS
 10
14.9245087697
 20
32.1084214568
 11
18.9330568854
 21
32.1084214568
  0
LINE
  5
21C
100
AcDbEntity
  8
0
100
AcDbLine
 62
7
  6
CONTINUOUS
 10
18.9330568854
 20
39.1084214568
 11
14.9245087697
 21
39.1084214568
  0
LINE
  5
21D
100
AcDbEntity
  8
0
100
AcDbLine
 62
7
  6
CONTINUOUS
 10
27.5287845482
 20
27.4584214568
 11
27.5287845482
 21
25.6218578563
  0
LINE
  5
21E
100
AcDbEntity
  8
0
100
AcDbLine
 62
7
  6
CONTINUOUS
 10
27.5287844873
 20
90.7584214568
 11
27.5287844873
 21
92.59498563
  0
LINE
  5
21F
100
AcDbEntity
  8
0
100
AcDbLine
 62
7
  6
CONTINUOUS
 10
14.9245087697
 20
39.1084214568
 11
12.9037828275
 21
35.6084214568
  0
LINE
  5
220
100
AcDbEntity
  8
0
100
AcDbLine
 62
7
  6
CONTINUOUS
 10
18.9330568854
 20
32.1084214568
 11
20.9537828275
 21
35.6084214568
  0
LINE
  5
221
100
AcDbEntity
  8
0
100
AcDbLine
 62
7
  6
CONTINUOUS
 10
17.8797221811
 20
56.8449635348
 11
13.177843474
 21
56.8449635348
  0
LINE
  5
222
100
AcDbEntity
  8
0
100
AcDbLine
 62
7
  6
CONTINUOUS
 10
13.177843474
 20
61.3718793789
 11
17.8797221811
 21
61.3718793789
  0
LINE
  5
223
100
AcDbEntity
  8
0
100
AcDbLine
 62
7
  6
CONTINUOUS
 10
66.1245087697
 20
86.1084214568
 11
64.1037828275
 21
82.6084214568
  0
LINE
  5
224
100
AcDbEntity
  8
0
100
AcDbLine
 62
7
  6
CONTINUOUS
 10
57.5287811677
 20
27.4584214568
 11
57.5287811677
 21
25.6218572837
  0
LINE
  5
225
100
AcDbEntity
  8
0
100
AcDbLine
 62
7
  6
CONTINUOUS
 10
57.5287811069
 20
90.7584214568
 11
57.5287811069
 21
92.5949850574
  0
LINE
  5
226
100
AcDbEntity
  8
0
100
AcDbLine
 62
7
  6
CONTINUOUS
 10
70.1330568854
 20
79.1084214568
 11
72.1537828275
 21
82.6084214568
  0
LINE
  5
227
100
AcDbEntity
  8
0
100
AcDbLine
 62
7
  6
CONTINUOUS
 10
66.1245087697
 20
79.1084214568
 11
70.1330568854
 21
79.1084214568
  0
LINE
  5
228
100
AcDbEntity
  8
0
100
AcDbLine
 62
7
  6
CONTINUOUS
 10
67.2653249055
 20
56.7574821033
 11
67.2653249055
 21
61.4593608104
  0
LINE
  5
229
100
AcDbEntity
  8
0
100
AcDbLine
 62
7
  6
CONTINUOUS
 10
70.1330568854
 20
86.1084214568
 11
66.1245087697
 21
86.1084214568
  0
LINE
  5
22A
100
AcDbEntity
  8
0
100
AcDbLine
 62
7
  6
CONTINUOUS
 10
71.7922407496
 20
61.4593608104
 11
71.7922407496
 21
56.7574821033
  0
LINE
  5
22B
100
AcDbEntity
  8
0
100
AcDbLine
 62
7
  6
CONTINUOUS
 10
57.5287811069
 20
90.7584214568
 11
27.5287844873
 21
90.7584214568
  0
LINE
  5
22C
100
AcDbEntity
  8
0
100
AcDbLine
 62
7
  6
CONTINUOUS
 10
64.1037828275
 20
82.6084214568
 11
66.1245087697
 21
79.1084214568
  0
LINE
  5
22D
100
AcDbEntity
  8
0
100
AcDbLine
 62
7
  6
CONTINUOUS
 10
75.8506769782
 20
35.5584214559
 11
75.8506875022
 21
82.6584214567
  0
LINE
  5
22E
100
AcDbEntity
  8
0
100
AcDbLine
 62
7
  6
CONTINUOUS
 10
72.1537828275
 20
82.6084214568
 11
70.1330568854
 21
86.1084214568
  0
ARC
  5
22F
100
AcDbEntity
  8
0
100
AcDbCircle
 62
7
  6
CONTINUOUS
 10
37.9291027976
 20
-586.8070747998
 40
679.4816600448
100
AcDbArc
 50
90.8770179537
 51
91.0456891469
  0
ARC
  5
230
100
AcDbEntity
  8
0
100
AcDbCircle
 62
7
  6
CONTINUOUS
 10
-517.9354963229
 20
35.5827189682
 40
527.1423685049
100
AcDbArc
 50
359.6794669892
 51
359.9973590724
  0
ARC
  5
231
100
AcDbEntity
  8
0
100
AcDbCircle
 62
7
  6
CONTINUOUS
 10
35.3779615229
 20
-55.737817607
 40
150.3321452956
100
AcDbArc
 50
75.7063584025
 51
77.3973134191
  0
ARC
  5
232
100
AcDbEntity
  8
0
100
AcDbCircle
 62
7
  6
CONTINUOUS
 10
41.1168298114
 20
-2.1779313153
 40
96.1174313077
100
AcDbArc
 50
100.2139878009
 51
101.1385925756
  0
ARC
  5
233
100
AcDbEntity
  8
0
100
AcDbCircle
 62
7
  6
CONTINUOUS
 10
25.7053660128
 20
34.8006016177
 40
9.1468882332
100
AcDbArc
 50
259.7186166797
 51
268.8938205529
  0
ARC
  5
234
100
AcDbEntity
  8
0
100
AcDbCircle
 62
7
  6
CONTINUOUS
 10
13.6629942376
 20
32.6032959663
 40
4.4644097521
100
AcDbArc
 50
179.6096458058
 51
255.7474496701
  0
CIRCLE
  5
235
100
AcDbEntity
  8
0
100
AcDbCircle
 62
7
  6
CONTINUOUS
 10
16.9287828275
 20
35.6084214568
 40
4.197694612
  0
ARC
  5
236
100
AcDbEntity
  8
0
100
AcDbCircle
 62
7
  6
CONTINUOUS
 10
16.9287828275
 20
35.6084214568
 40
3.5
100
AcDbArc
 50
335.1715911585
 51
24.8284088414
  0
ARC
  5
237
100
AcDbEntity
  8
0
100
AcDbCircle
 62
7
  6
CONTINUOUS
 10
16.9287828275
 20
35.6084214568
 40
3.5
100
AcDbArc
 50
215.1715911586
 51
324.8284088415
  0
ARC
  5
238
100
AcDbEntity
  8
0
100
AcDbCircle
 62
7
  6
CONTINUOUS
 10
16.9287828275
 20
35.6084214568
 40
3.5
100
AcDbArc
 50
35.1715911586
 51
144.8284088415
  0
ARC
  5
239
100
AcDbEntity
  8
0
100
AcDbCircle
 62
7
  6
CONTINUOUS
 10
16.9287828275
 20
35.6084214568
 40
3.5
100
AcDbArc
 50
155.1715911585
 51
204.8284088414
  0
CIRCLE
  5
23A
100
AcDbEntity
  8
0
100
AcDbCircle
 62
7
  6
CONTINUOUS
 10
16.9287828275
 20
35.6084214568
 40
2.0
  0
CIRCLE
  5
23B
100
AcDbEntity
  8
0
100
AcDbCircle
 62
7
  6
CONTINUOUS
 10
16.9287828275
 20
35.6084214568
 40
1.7320508076
  0
CIRCLE
  5
23C
100
AcDbEntity
  8
0
100
AcDbCircle
 62
7
  6
CONTINUOUS
 10
16.9287828275
 20
35.6084214568
 40
1.65
  0
ARC
  5
23D
100
AcDbEntity
  8
0
100
AcDbCircle
 62
7
  6
CONTINUOUS
 10
37.9280483155
 20
704.9727001446
 40
679.4304317623
100
AcDbArc
 50
268.9543226385
 51
269.1230048541
  0
ARC
  5
23E
100
AcDbEntity
  8
0
100
AcDbCircle
 62
7
  6
CONTINUOUS
 10
-530.4651599024
 20
82.5987928798
 40
539.6720451553
100
AcDbArc
 50
0.0063306333
 51
0.3168624528
  0
ARC
  5
23F
100
AcDbEntity
  8
0
100
AcDbCircle
 62
7
  6
CONTINUOUS
 10
35.3779377585
 20
173.9547595419
 40
150.3322471193
100
AcDbArc
 50
282.6026871855
 51
284.2936420692
  0
ARC
  5
240
100
AcDbEntity
  8
0
100
AcDbCircle
 62
7
  6
CONTINUOUS
 10
41.0563518162
 20
120.0739513223
 40
95.7909669576
100
AcDbArc
 50
258.8598291064
 51
259.7875850732
  0
ARC
  5
241
100
AcDbEntity
  8
0
100
AcDbCircle
 62
7
  6
CONTINUOUS
 10
25.7055634995
 20
83.4142610321
 40
9.1488733508
100
AcDbArc
 50
91.1073027863
 51
100.2803867539
  0
ARC
  5
242
100
AcDbEntity
  8
0
100
AcDbCircle
 62
7
  6
CONTINUOUS
 10
13.6629932314
 20
85.6135470282
 40
4.4644089388
100
AcDbArc
 50
104.2525723989
 51
180.3879000271
  0
CIRCLE
  5
243
100
AcDbEntity
  8
0
100
AcDbCircle
 62
7
  6
CONTINUOUS
 10
16.9287828275
 20
82.6084214568
 40
4.197694612
  0
ARC
  5
244
100
AcDbEntity
  8
0
100
AcDbCircle
 62
7
  6
CONTINUOUS
 10
15.5287828275
 20
59.1084214568
 40
3.263457922
100
AcDbArc
 50
136.0861042372
 51
223.9138957628
  0
ARC
  5
245
100
AcDbEntity
  8
0
100
AcDbCircle
 62
7
  6
CONTINUOUS
 10
15.5287828275
 20
59.1084214568
 40
3.263457922
100
AcDbArc
 50
316.0861042372
 51
43.9138957628
  0
ARC
  5
246
100
AcDbEntity
  8
0
100
AcDbCircle
 62
7
  6
CONTINUOUS
 10
47.1295173396
 20
-586.7558572288
 40
679.4304317602
100
AcDbArc
 50
88.9543226385
 51
89.1230048541
  0
ARC
  5
247
100
AcDbEntity
  8
0
100
AcDbCircle
 62
7
  6
CONTINUOUS
 10
615.522725558
 20
35.6180500339
 40
539.6720451558
100
AcDbArc
 50
180.0063306333
 51
180.3168624519
  0
ARC
  5
248
100
AcDbEntity
  8
0
100
AcDbCircle
 62
7
  6
CONTINUOUS
 10
49.6796279139
 20
-55.7379167024
 40
150.3322471955
100
AcDbArc
 50
102.6026871858
 51
104.2936420777
  0
ARC
  5
249
100
AcDbEntity
  8
0
100
AcDbCircle
 62
7
  6
CONTINUOUS
 10
44.0012113025
 20
-1.8571218995
 40
95.7909806844
100
AcDbArc
 50
78.8598291769
 51
79.7875850108
  0
ARC
  5
24A
100
AcDbEntity
  8
0
100
AcDbCircle
 62
7
  6
CONTINUOUS
 10
59.3520021556
 20
34.8025818818
 40
9.148873351
100
AcDbArc
 50
271.1073034522
 51
280.2803867538
  0
ARC
  5
24B
100
AcDbEntity
  8
0
100
AcDbCircle
 62
7
  6
CONTINUOUS
 10
71.3945724173
 20
32.6032958888
 40
4.4644089454
100
AcDbArc
 50
284.2525721633
 51
0.3879001015
  0
CIRCLE
  5
24C
100
AcDbEntity
  8
0
100
AcDbCircle
 62
7
  6
CONTINUOUS
 10
68.1287828275
 20
35.6084214568
 40
4.197694612
  0
ARC
  5
24D
100
AcDbEntity
  8
0
100
AcDbCircle
 62
7
  6
CONTINUOUS
 10
47.1284628969
 20
705.0239152948
 40
679.4816576258
100
AcDbArc
 50
270.8770179535
 51
271.0456891562
  0
ARC
  5
24E
100
AcDbEntity
  8
0
100
AcDbCircle
 62
7
  6
CONTINUOUS
 10
602.9930619763
 20
82.6341239455
 40
527.1423685033
100
AcDbArc
 50
179.6794669884
 51
179.9973590724
  0
ARC
  5
24F
100
AcDbEntity
  8
0
100
AcDbCircle
 62
7
  6
CONTINUOUS
 10
49.6796041283
 20
173.9546605216
 40
150.3321452957
100
AcDbArc
 50
255.706358402
 51
257.3973134207
  0
ARC
  5
250
100
AcDbEntity
  8
0
100
AcDbCircle
 62
7
  6
CONTINUOUS
 10
43.940733522
 20
120.3947863661
 40
96.1174436644
100
AcDbArc
 50
280.21398788
 51
281.1385925358
  0
ARC
  5
251
100
AcDbEntity
  8
0
100
AcDbCircle
 62
7
  6
CONTINUOUS
 10
59.3521996421
 20
83.4162412943
 40
9.1468882348
100
AcDbArc
 50
79.7186166807
 51
88.8938205522
  0
ARC
  5
252
100
AcDbEntity
  8
0
100
AcDbCircle
 62
7
  6
CONTINUOUS
 10
71.3945714156
 20
85.613546946
 40
4.4644097545
100
AcDbArc
 50
359.609645918
 51
75.7474497186
  0
CIRCLE
  5
253
100
AcDbEntity
  8
0
100
AcDbCircle
 62
7
  6
CONTINUOUS
 10
68.1287828275
 20
82.6084214568
 40
4.197694612
  0
ARC
  5
254
100
AcDbEntity
  8
0
100
AcDbCircle
 62
7
  6
CONTINUOUS
 10
68.1287828275
 20
82.6084214568
 40
3.5
100
AcDbArc
 50
335.1715911585
 51
24.8284088414
  0
ARC
  5
255
100
AcDbEntity
  8
0
100
AcDbCircle
 62
7
  6
CONTINUOUS
 10
68.1287828275
 20
82.6084214568
 40
3.5
100
AcDbArc
 50
215.1715911586
 51
324.8284088415
  0
ARC
  5
256
100
AcDbEntity
  8
0
100
AcDbCircle
 62
7
  6
CONTINUOUS
 10
68.1287828275
 20
82.6084214568
 40
3.5
100
AcDbArc
 50
35.1715911586
 51
144.8284088415
  0
ARC
  5
257
100
AcDbEntity
  8
0
100
AcDbCircle
 62
7
  6
CONTINUOUS
 10
68.1287828275
 20
82.6084214568
 40
3.5
100
AcDbArc
 50
155.1715911585
 51
204.8284088414
  0
ARC
  5
258
100
AcDbEntity
  8
0
100
AcDbCircle
 62
7
  6
CONTINUOUS
 10
69.5287828275
 20
59.1084214568
 40
3.263457922
100
AcDbArc
 50
226.0861042372
 51
313.9138957628
  0
ARC
  5
259
100
AcDbEntity
  8
0
100
AcDbCircle
 62
7
  6
CONTINUOUS
 10
69.5287828275
 20
59.1084214568
 40
3.263457922
100
AcDbArc
 50
46.0861042372
 51
133.9138957628
  0
CIRCLE
  5
25A
100
AcDbEntity
  8
0
100
AcDbCircle
 62
7
  6
CONTINUOUS
 10
68.1287828275
 20
82.6084214568
 40
2.0
  0
CIRCLE
  5
25B
100
AcDbEntity
  8
0
100
AcDbCircle
 62
7
  6
CONTINUOUS
 10
68.1287828275
 20
82.6084214568
 40
1.7320508076
  0
CIRCLE
  5
25C
100
AcDbEntity
  8
0
100
AcDbCircle
 62
7
  6
CONTINUOUS
 10
68.1287828275
 20
82.6084214568
 40
1.65
  0
SPLINE
  5
25D
100
AcDbEntity
  8
0
100
AcDbSpline
 62
7
  6
CONTINUOUS
 70
0
 71
3
 72
10
 73
6
 74
0
 42
0.0000001
 43
0.0000001
 44
0.0000000001
 40
0.0
 40
0.0
 40
0.0
 40
0.0
 40
0.324445283
 40
0.6581971786
 40
1.0
 40
1.0
 40
1.0
 40
1.0
 10
65.8304997456
 20
91.4721530379
 30
0.0
 10
65.4715909683
 20
91.5447262826
 30
0.0
 10
64.7432012718
 20
91.6905881413
 30
0.0
 10
63.6358328445
 20
91.9085355485
 30
0.0
 10
62.8874715704
 20
92.0543741996
 30
0.0
 10
62.5089795214
 20
92.1289161359
 30
0.0
  0
SPLINE
  5
25E
100
AcDbEntity
  8
0
100
AcDbSpline
 62
7
  6
CONTINUOUS
 70
0
 71
3
 72
10
 73
6
 74
0
 42
0.0000001
 43
0.0000001
 44
0.0000000001
 40
0.0
 40
0.0
 40
0.0
 40
0.0
 40
0.3419166264
 40
0.6756620869
 40
1.0
 40
1.0
 40
1.0
 40
1.0
 10
62.5089795213
 20
26.0879267777
 30
0.0
 10
62.8875975912
 20
26.1624935333
 30
0.0
 10
63.6360778708
 20
26.3083550372
 30
0.0
 10
64.7434460833
 20
26.5263035411
 30
0.0
 10
65.4717097433
 20
26.672140648
 30
0.0
 10
65.8304997456
 20
26.7446898758
 30
0.0
  0
SPLINE
  5
25F
100
AcDbEntity
  8
0
100
AcDbSpline
 62
7
  6
CONTINUOUS
 70
0
 71
3
 72
10
 73
6
 74
0
 42
0.0000001
 43
0.0000001
 44
0.0000000001
 40
0.0
 40
0.0
 40
0.0
 40
0.0
 40
0.3241563993
 40
0.6579069489
 40
1.0
 40
1.0
 40
1.0
 40
1.0
 10
19.2270659094
 20
26.7446898758
 30
0.0
 10
19.5856551171
 20
26.6721812498
 30
0.0
 10
20.3137233666
 20
26.5263823958
 30
0.0
 10
21.4210912484
 20
26.3084322014
 30
0.0
 10
22.1697727015
 20
26.1625320088
 30
0.0
 10
22.5485861336
 20
26.0879267778
 30
0.0
  0
SPLINE
  5
260
100
AcDbEntity
  8
0
100
AcDbSpline
 62
7
  6
CONTINUOUS
 70
0
 71
3
 72
10
 73
6
 74
0
 42
0.0000001
 43
0.0000001
 44
0.0000000001
 40
0.0
 40
0.0
 40
0.0
 40
0.0
 40
0.3422079252
 40
0.6759519673
 40
1.0
 40
1.0
 40
1.0
 40
1.0
 10
22.5485861338
 20
92.128916136
 30
0.0
 10
22.1696454969
 20
92.0542858526
 30
0.0
 10
21.4208439337
 20
91.9083625951
 30
0.0
 10
20.3134762687
 20
91.6904112931
 30
0.0
 10
19.5855352396
 20
91.5446374241
 30
0.0
 10
19.2270659094
 20
91.4721530379
 30
0.0
  0
SPLINE
  5
261
100
AcDbEntity
  8
0
100
AcDbSpline
 62
7
  6
CONTINUOUS
 70
0
 71
3
 72
15
 73
11
 74
0
 42
0.0000001
 43
0.0000001
 44
0.0000000001
 40
0.0
 40
0.0
 40
0.0
 40
0.0
 40
0.0510712896
 40
0.1889024467
 40
0.3400977344
 40
0.4982786
 40
0.6566750657
 40
0.8085206406
 40
0.9474251696
 40
1.0
 40
1.0
 40
1.0
 40
1.0
 10
57.5287828275
 20
92.594985031
 30
0.0
 10
57.0181120045
 20
92.6028191463
 30
0.0
 10
55.1292119505
 20
92.629810161
 30
0.0
 10
51.7283074384
 20
92.6666488187
 30
0.0
 10
47.2561588087
 20
92.6951343678
 30
0.0
 10
42.5782707716
 20
92.7051787769
 30
0.0
 10
37.8938787531
 20
92.6955357079
 30
0.0
 10
33.4023347617
 20
92.667301997
 30
0.0
 10
29.9691563043
 20
92.6303502347
 30
0.0
 10
28.0544878272
 20
92.6030504744
 30
0.0
 10
27.5287828275
 20
92.5949856045
 30
0.0
  0
SPLINE
  5
262
100
AcDbEntity
  8
0
100
AcDbSpline
 62
7
  6
CONTINUOUS
 70
0
 71
3
 72
15
 73
11
 74
0
 42
0.0000001
 43
0.0000001
 44
0.0000000001
 40
0.0
 40
0.0
 40
0.0
 40
0.0
 40
0.0510712896
 40
0.1889024467
 40
0.3400977344
 40
0.4982786
 40
0.6566750657
 40
0.8085206406
 40
0.9474251696
 40
1.0
 40
1.0
 40
1.0
 40
1.0
 10
27.5287828275
 20
25.6218578827
 30
0.0
 10
28.0394536506
 20
25.6140237674
 30
0.0
 10
29.9283537046
 20
25.5870327527
 30
0.0
 10
33.3292582167
 20
25.550194095
 30
0.0
 10
37.8014068463
 20
25.5217085459
 30
0.0
 10
42.4792948835
 20
25.5116641368
 30
0.0
 10
47.163686902
 20
25.5213072058
 30
0.0
 10
51.6552308933
 20
25.5495409167
 30
0.0
 10
55.0884093508
 20
25.586492679
 30
0.0
 10
57.0030778279
 20
25.6137924393
 30
0.0
 10
57.5287828275
 20
25.6218573092
 30
0.0
  0
SPLINE
  5
263
100
AcDbEntity
  8
0
100
AcDbSpline
 62
7
  6
CONTINUOUS
 70
0
 71
3
 72
49
 73
45
 74
0
 42
0.0000001
 43
0.0000001
 44
0.0000000001
 40
0.0
 40
0.0
 40
0.0
 40
0.0
 40
0.024600062
 40
0.0485986493
 40
0.0723309957
 40
0.0960874934
 40
0.1199130626
 40
0.1437807837
 40
0.1676206685
 40
0.1913940764
 40
0.2151100317
 40
0.2388116172
 40
0.2625047935
 40
0.2862112159
 40
0.3099272304
 40
0.3336831023
 40
0.3574516561
 40
0.3812065236
 40
0.4049463531
 40
0.4287071394
 40
0.4524901684
 40
0.4762709922
 40
0.5000447638
 40
0.5238088856
 40
0.5475660101
 40
0.5713191754
 40
0.5950516909
 40
0.6187690594
 40
0.6425075322
 40
0.6662672331
 40
0.6900251399
 40
0.7137528953
 40
0.7374716446
 40
0.7611722974
 40
0.7848729984
 40
0.8085796123
 40
0.8323535116
 40
0.8562141833
 40
0.8801096314
 40
0.9039542465
 40
0.9277117909
 40
0.9514327267
 40
0.9754147969
 40
1.0
 40
1.0
 40
1.0
 40
1.0
 10
14.9287828275
 20
35.6084214568
 30
0.0
 10
14.9289627282
 20
35.5569119404
 30
0.0
 10
14.9328573667
 20
35.4551178998
 30
0.0
 10
14.9501164945
 20
35.3045100985
 30
0.0
 10
14.9783862696
 20
35.1573709147
 30
0.0
 10
15.017553292
 20
35.0131308401
 30
0.0
 10
15.0673903661
 20
34.8719228472
 30
0.0
 10
15.1276544975
 20
34.7346449046
 30
0.0
 10
15.1980399835
 20
34.6023934409
 30
0.0
 10
15.2779562627
 20
34.4760527472
 30
0.0
 10
15.366896019
 20
34.3562541689
 30
0.0
 10
15.4644087775
 20
34.2435472201
 30
0.0
 10
15.5699913504
 20
34.1383922197
 30
0.0
 10
15.6831111863
 20
34.0413417547
 30
0.0
 10
15.8032747641
 20
33.9529401162
 30
0.0
 10
15.9297918269
 20
33.8736551155
 30
0.0
 10
16.0619350743
 20
33.8039728281
 30
0.0
 10
16.1988910424
 20
33.7443875952
 30
0.0
 10
16.3398828515
 20
33.6951606318
 30
0.0
 10
16.4842055215
 20
33.6565455252
 30
0.0
 10
16.6310993752
 20
33.6288305987
 30
0.0
 10
16.7796754734
 20
33.6121351616
 30
0.0
 10
16.9290442746
 20
33.6065559291
 30
0.0
 10
17.0783618258
 20
33.6121731302
 30
0.0
 10
17.2268024357
 20
33.6288853601
 30
0.0
 10
17.3735238068
 20
33.6565874966
 30
0.0
 10
17.517681502
 20
33.6951643747
 30
0.0
 10
17.6585422758
 20
33.7443390587
 30
0.0
 10
17.7954124855
 20
33.8038702839
 30
0.0
 10
17.9275225349
 20
33.8735110016
 30
0.0
 10
18.054060442
 20
33.9527822112
 30
0.0
 10
18.174279836
 20
34.0412005325
 30
0.0
 10
18.2874590516
 20
34.1382835444
 30
0.0
 10
18.3930762971
 20
34.2434600439
 30
0.0
 10
18.4905911282
 20
34.3561575678
 30
0.0
 10
18.5795268149
 20
34.4759336071
 30
0.0
 10
18.6594668214
 20
34.6022888917
 30
0.0
 10
18.7299071387
 20
34.7346278139
 30
0.0
 10
18.7902244809
 20
34.8720374003
 30
0.0
 10
18.8400808147
 20
35.0133451107
 30
0.0
 10
18.879233492
 20
35.1576079556
 30
0.0
 10
18.9074751216
 20
35.3046950251
 30
0.0
 10
18.9247132768
 20
35.455214779
 30
0.0
 10
18.9286027362
 20
35.5569430542
 30
0.0
 10
18.9287828275
 20
35.6084214568
 30
0.0
  0
SPLINE
  5
264
100
AcDbEntity
  8
0
100
AcDbSpline
 62
7
  6
CONTINUOUS
 70
0
 71
3
 72
49
 73
45
 74
0
 42
0.0000001
 43
0.0000001
 44
0.0000000001
 40
0.0
 40
0.0
 40
0.0
 40
0.0
 40
0.024600062
 40
0.0485986493
 40
0.0723309957
 40
0.0960874934
 40
0.1199130626
 40
0.1437807837
 40
0.1676206685
 40
0.1913940764
 40
0.2151100317
 40
0.2388116172
 40
0.2625047935
 40
0.2862112159
 40
0.3099272304
 40
0.3336831023
 40
0.3574516561
 40
0.3812065236
 40
0.4049463531
 40
0.4287071394
 40
0.4524901684
 40
0.4762709922
 40
0.5000447638
 40
0.5238088856
 40
0.5475660101
 40
0.5713191754
 40
0.5950516909
 40
0.6187690594
 40
0.6425075322
 40
0.6662672331
 40
0.6900251399
 40
0.7137528953
 40
0.7374716446
 40
0.7611722974
 40
0.7848729984
 40
0.8085796123
 40
0.8323535116
 40
0.8562141833
 40
0.8801096314
 40
0.9039542465
 40
0.9277117909
 40
0.9514327267
 40
0.9754147969
 40
1.0
 40
1.0
 40
1.0
 40
1.0
 10
18.9287828275
 20
35.6084214568
 30
0.0
 10
18.9286029268
 20
35.6599309733
 30
0.0
 10
18.9247082884
 20
35.7617250139
 30
0.0
 10
18.9074491605
 20
35.9123328152
 30
0.0
 10
18.8791793854
 20
36.059471999
 30
0.0
 10
18.8400123631
 20
36.2037120736
 30
0.0
 10
18.7901752889
 20
36.3449200665
 30
0.0
 10
18.7299111576
 20
36.4821980091
 30
0.0
 10
18.6595256715
 20
36.6144494728
 30
0.0
 10
18.5796093924
 20
36.7407901665
 30
0.0
 10
18.490669636
 20
36.8605887448
 30
0.0
 10
18.3931568775
 20
36.9732956936
 30
0.0
 10
18.2875743046
 20
37.078450694
 30
0.0
 10
18.1744544688
 20
37.175501159
 30
0.0
 10
18.0542908909
 20
37.2639027975
 30
0.0
 10
17.9277738281
 20
37.3431877982
 30
0.0
 10
17.7956305808
 20
37.4128700856
 30
0.0
 10
17.6586746127
 20
37.4724553185
 30
0.0
 10
17.5176828036
 20
37.5216822819
 30
0.0
 10
17.3733601336
 20
37.5602973885
 30
0.0
 10
17.2264662799
 20
37.588012315
 30
0.0
 10
17.0778901817
 20
37.6047077521
 30
0.0
 10
16.9285213804
 20
37.6102869845
 30
0.0
 10
16.7792038292
 20
37.6046697835
 30
0.0
 10
16.6307632194
 20
37.5879575536
 30
0.0
 10
16.4840418483
 20
37.5602554171
 30
0.0
 10
16.3398841531
 20
37.521678539
 30
0.0
 10
16.1990233792
 20
37.472503855
 30
0.0
 10
16.0621531695
 20
37.4129726298
 30
0.0
 10
15.9300431202
 20
37.3433319121
 30
0.0
 10
15.8035052131
 20
37.2640607025
 30
0.0
 10
15.6832858191
 20
37.1756423812
 30
0.0
 10
15.5701066034
 20
37.0785593693
 30
0.0
 10
15.4644893579
 20
36.9733828697
 30
0.0
 10
15.3669745269
 20
36.8606853459
 30
0.0
 10
15.2780388401
 20
36.7409093066
 30
0.0
 10
15.1980988337
 20
36.614554022
 30
0.0
 10
15.1276585164
 20
36.4822150998
 30
0.0
 10
15.0673411742
 20
36.3448055134
 30
0.0
 10
15.0174848404
 20
36.203497803
 30
0.0
 10
14.9783321631
 20
36.0592349581
 30
0.0
 10
14.9500905335
 20
35.9121478886
 30
0.0
 10
14.9328523783
 20
35.7616281347
 30
0.0
 10
14.9289629189
 20
35.6598998595
 30
0.0
 10
14.9287828275
 20
35.6084214568
 30
0.0
  0
SPLINE
  5
265
100
AcDbEntity
  8
0
100
AcDbSpline
 62
7
  6
CONTINUOUS
 70
0
 71
3
 72
49
 73
45
 74
0
 42
0.0000001
 43
0.0000001
 44
0.0000000001
 40
0.0
 40
0.0
 40
0.0
 40
0.0
 40
0.024600062
 40
0.0485986493
 40
0.0723309957
 40
0.0960874934
 40
0.1199130626
 40
0.1437807837
 40
0.1676206685
 40
0.1913940764
 40
0.2151100317
 40
0.2388116172
 40
0.2625047935
 40
0.2862112159
 40
0.3099272304
 40
0.3336831023
 40
0.3574516561
 40
0.3812065236
 40
0.404946353
 40
0.4287071394
 40
0.4524901684
 40
0.4762709922
 40
0.5000447638
 40
0.5238088856
 40
0.5475660101
 40
0.5713191754
 40
0.5950516909
 40
0.6187690594
 40
0.6425075322
 40
0.6662672331
 40
0.6900251399
 40
0.7137528953
 40
0.7374716446
 40
0.7611722974
 40
0.7848729984
 40
0.8085796123
 40
0.8323535116
 40
0.8562141833
 40
0.8801096314
 40
0.9039542465
 40
0.9277117909
 40
0.9514327267
 40
0.9754147969
 40
1.0
 40
1.0
 40
1.0
 40
1.0
 10
66.1287828275
 20
82.6084214568
 30
0.0
 10
66.1289627282
 20
82.5569119404
 30
0.0
 10
66.1328573667
 20
82.4551178998
 30
0.0
 10
66.1501164945
 20
82.3045100985
 30
0.0
 10
66.1783862696
 20
82.1573709147
 30
0.0
 10
66.217553292
 20
82.0131308401
 30
0.0
 10
66.2673903661
 20
81.8719228472
 30
0.0
 10
66.3276544975
 20
81.7346449046
 30
0.0
 10
66.3980399835
 20
81.6023934409
 30
0.0
 10
66.4779562627
 20
81.4760527472
 30
0.0
 10
66.566896019
 20
81.3562541689
 30
0.0
 10
66.6644087775
 20
81.2435472201
 30
0.0
 10
66.7699913504
 20
81.1383922197
 30
0.0
 10
66.8831111863
 20
81.0413417547
 30
0.0
 10
67.0032747641
 20
80.9529401162
 30
0.0
 10
67.1297918269
 20
80.8736551155
 30
0.0
 10
67.2619350743
 20
80.8039728281
 30
0.0
 10
67.3988910424
 20
80.7443875952
 30
0.0
 10
67.5398828514
 20
80.6951606318
 30
0.0
 10
67.6842055215
 20
80.6565455252
 30
0.0
 10
67.8310993752
 20
80.6288305987
 30
0.0
 10
67.9796754734
 20
80.6121351616
 30
0.0
 10
68.1290442746
 20
80.6065559291
 30
0.0
 10
68.2783618258
 20
80.6121731302
 30
0.0
 10
68.4268024357
 20
80.6288853601
 30
0.0
 10
68.5735238068
 20
80.6565874966
 30
0.0
 10
68.717681502
 20
80.6951643747
 30
0.0
 10
68.8585422758
 20
80.7443390587
 30
0.0
 10
68.9954124855
 20
80.8038702839
 30
0.0
 10
69.1275225349
 20
80.8735110016
 30
0.0
 10
69.254060442
 20
80.9527822112
 30
0.0
 10
69.374279836
 20
81.0412005325
 30
0.0
 10
69.4874590516
 20
81.1382835444
 30
0.0
 10
69.5930762971
 20
81.2434600439
 30
0.0
 10
69.6905911282
 20
81.3561575678
 30
0.0
 10
69.7795268149
 20
81.475933607
 30
0.0
 10
69.8594668214
 20
81.6022888917
 30
0.0
 10
69.9299071387
 20
81.7346278139
 30
0.0
 10
69.9902244809
 20
81.8720374003
 30
0.0
 10
70.0400808147
 20
82.0133451107
 30
0.0
 10
70.079233492
 20
82.1576079556
 30
0.0
 10
70.1074751216
 20
82.3046950251
 30
0.0
 10
70.1247132768
 20
82.455214779
 30
0.0
 10
70.1286027362
 20
82.5569430542
 30
0.0
 10
70.1287828275
 20
82.6084214568
 30
0.0
  0
SPLINE
  5
266
100
AcDbEntity
  8
0
100
AcDbSpline
 62
7
  6
CONTINUOUS
 70
0
 71
3
 72
49
 73
45
 74
0
 42
0.0000001
 43
0.0000001
 44
0.0000000001
 40
0.0
 40
0.0
 40
0.0
 40
0.0
 40
0.024600062
 40
0.0485986493
 40
0.0723309957
 40
0.0960874934
 40
0.1199130626
 40
0.1437807837
 40
0.1676206685
 40
0.1913940764
 40
0.2151100317
 40
0.2388116172
 40
0.2625047935
 40
0.2862112159
 40
0.3099272304
 40
0.3336831023
 40
0.3574516561
 40
0.3812065236
 40
0.4049463531
 40
0.4287071394
 40
0.4524901684
 40
0.4762709922
 40
0.5000447638
 40
0.5238088856
 40
0.5475660101
 40
0.5713191754
 40
0.5950516909
 40
0.6187690594
 40
0.6425075322
 40
0.6662672331
 40
0.6900251399
 40
0.7137528953
 40
0.7374716446
 40
0.7611722974
 40
0.7848729984
 40
0.8085796123
 40
0.8323535116
 40
0.8562141833
 40
0.8801096314
 40
0.9039542465
 40
0.9277117909
 40
0.9514327267
 40
0.9754147969
 40
1.0
 40
1.0
 40
1.0
 40
1.0
 10
70.1287828275
 20
82.6084214568
 30
0.0
 10
70.1286029268
 20
82.6599309733
 30
0.0
 10
70.1247082884
 20
82.7617250139
 30
0.0
 10
70.1074491605
 20
82.9123328152
 30
0.0
 10
70.0791793854
 20
83.059471999
 30
0.0
 10
70.0400123631
 20
83.2037120736
 30
0.0
 10
69.9901752889
 20
83.3449200665
 30
0.0
 10
69.9299111576
 20
83.4821980091
 30
0.0
 10
69.8595256715
 20
83.6144494728
 30
0.0
 10
69.7796093924
 20
83.7407901665
 30
0.0
 10
69.690669636
 20
83.8605887448
 30
0.0
 10
69.5931568775
 20
83.9732956936
 30
0.0
 10
69.4875743046
 20
84.0784506941
 30
0.0
 10
69.3744544688
 20
84.175501159
 30
0.0
 10
69.2542908909
 20
84.2639027975
 30
0.0
 10
69.1277738281
 20
84.3431877982
 30
0.0
 10
68.9956305808
 20
84.4128700856
 30
0.0
 10
68.8586746127
 20
84.4724553185
 30
0.0
 10
68.7176828036
 20
84.5216822819
 30
0.0
 10
68.5733601336
 20
84.5602973885
 30
0.0
 10
68.4264662799
 20
84.588012315
 30
0.0
 10
68.2778901817
 20
84.6047077521
 30
0.0
 10
68.1285213804
 20
84.6102869845
 30
0.0
 10
67.9792038292
 20
84.6046697835
 30
0.0
 10
67.8307632194
 20
84.5879575536
 30
0.0
 10
67.6840418483
 20
84.5602554171
 30
0.0
 10
67.5398841531
 20
84.521678539
 30
0.0
 10
67.3990233792
 20
84.472503855
 30
0.0
 10
67.2621531695
 20
84.4129726298
 30
0.0
 10
67.1300431202
 20
84.3433319121
 30
0.0
 10
67.0035052131
 20
84.2640607025
 30
0.0
 10
66.8832858191
 20
84.1756423812
 30
0.0
 10
66.7701066034
 20
84.0785593693
 30
0.0
 10
66.6644893579
 20
83.9733828697
 30
0.0
 10
66.5669745269
 20
83.8606853459
 30
0.0
 10
66.4780388401
 20
83.7409093066
 30
0.0
 10
66.3980988337
 20
83.614554022
 30
0.0
 10
66.3276585164
 20
83.4822150998
 30
0.0
 10
66.2673411742
 20
83.3448055134
 30
0.0
 10
66.2174848404
 20
83.203497803
 30
0.0
 10
66.1783321631
 20
83.0592349581
 30
0.0
 10
66.1500905335
 20
82.9121478886
 30
0.0
 10
66.1328523783
 20
82.7616281347
 30
0.0
 10
66.1289629189
 20
82.6598998595
 30
0.0
 10
66.1287828275
 20
82.6084214568
 30
0.0
  0
ELLIPSE
  5
267
100
AcDbEntity
  8
0
100
AcDbEllipse
 62
7
  6
CONTINUOUS
 10
42.5287828275
 20
-23.7921258648
 30
0.0
 11
0.0
 21
-117.5965481464
 31
0.0
 40
0.9998857097
 41
2.921680822
 42
2.9420997503
  0
ELLIPSE
  5
268
100
AcDbEntity
  8
0
100
AcDbEllipse
 62
7
  6
CONTINUOUS
 10
42.5287828275
 20
142.0089687785
 30
0.0
 11
0.0
 21
-117.5965481464
 31
0.0
 40
0.9998857097
 41
0.1994929033
 42
0.2199118316
  0
ELLIPSE
  5
269
100
AcDbEntity
  8
0
100
AcDbEllipse
 62
7
  6
CONTINUOUS
 10
42.5287828275
 20
142.0089687785
 30
0.0
 11
0.0
 21
-117.5965481464
 31
0.0
 40
0.9998857097
 41
-0.2199118316
 42
-0.1994929033
  0
ELLIPSE
  5
26A
100
AcDbEntity
  8
0
100
AcDbEllipse
 62
7
  6
CONTINUOUS
 10
42.5287828275
 20
-23.7921258648
 30
0.0
 11
0.0
 21
-117.5965481464
 31
0.0
 40
0.9998857097
 41
-2.9420997503
 42
-2.921680822
  0
ENDSEC
  0
SECTION
  2
OBJECTS
  0
DICTIONARY
  5
C
100
AcDbDictionary
280
0
281
1
  3
ACAD_GROUP
350
D
  3
ACAD_MLINESTYLE
350
17
  3
ACAD_LAYOUT
350
1A
  3
ACAD_PLOTSETTINGS
350
19
  3
ACAD_PLOTSTYLENAME
350
E
  0
DICTIONARY
  5
D
102
{ACAD_REACTORS
330
C
102
}
100
AcDbDictionary
280
0
281
1
  0
ACDBDICTIONARYWDFLT
  5
E
102
{ACAD_REACTORS
330
C
102
}
100
AcDbDictionary
281
1
  3
Normal
350
F
100
AcDbDictionaryWithDefault
340
F
  0
DICTIONARY
  5
17
102
{ACAD_REACTORS
330
C
102
}
100
AcDbDictionary
280
0
281
1
  3
Standard
350
18
  0
DICTIONARY
  5
19
102
{ACAD_REACTORS
330
C
102
}
100
AcDbDictionary
281
1
  0
DICTIONARY
  5
1A
102
{ACAD_REACTORS
330
C
102
}
100
AcDbDictionary
281
1
  3
Model
350
26B
  3
Layout1
350
26C
  0
ACDBPLACEHOLDER
  5
F
102
{ACAD_REACTORS
330
E
102
}
  0
MLINESTYLE
  5
18
102
{ACAD_REACTORS
330
17
102
}
100
AcDbMlineStyle
  2
STANDARD
 70
0
  3

 62
256
 51
90.0
 52
90.0
 71
2
 49
0.5
 62
256
  6
BYLAYER
 49
-0.5
 62
256
  6
BYLAYER
  0
LAYOUT
  5
26B
102
{ACAD_REACTORS
330
1A
102
}
100
AcDbPlotSettings
  1

  2
none_device
  4

  6

 40
0.0
 41
0.0
 42
0.0
 43
0.0
 44
210.0
 45
297.0
 46
0.0
 47
0.0
 48
0.0
 49
0.0
140
0.0
141
0.0
142
1.0
143
1.0
 70
1024
 72
1
 73
0
 74
0
  7

 75
0
147
1.0
148
0.0
149
0.0
100
AcDbLayout
  1
Model
 70
0
 71
0
 10
0.0
 20
0.0
 11
210.0
 21
297.0
 12
0.0
 22
0.0
 32
0.0
 14
0.0
 24
0.0
 34
0.0
 15
0.0
 25
0.0
 35
0.0
146
0.0
 13
0.0
 23
0.0
 33
0.0
 16
1.0
 26
0.0
 36
0.0
 17
0.0
 27
1.0
 37
0.0
 76
0
330
210
345
0
346
0
  0
LAYOUT
  5
26C
102
{ACAD_REACTORS
330
1A
102
}
100
AcDbPlotSettings
  1

  2
none_device
  4

  6

 40
0.0
 41
0.0
 42
0.0
 43
0.0
 44
210.0
 45
297.0
 46
0.0
 47
0.0
 48
0.0
 49
0.0
140
0.0
141
0.0
142
1.0
143
1.0
 70
0
 72
1
 73
0
 74
0
  7

 75
0
147
1.0
148
0.0
149
0.0
100
AcDbLayout
  1
Layout1
 70
0
 71
1
 10
0.0
 20
0.0
 11
210.0
 21
297.0
 12
0.0
 22
0.0
 32
0.0
 14
0.0
 24
0.0
 34
0.0
 15
0.0
 25
0.0
 35
0.0
146
0.0
 13
0.0
 23
0.0
 33
0.0
 16
1.0
 26
0.0
 36
0.0
 17
0.0
 27
1.0
 37
0.0
 76
0
330
211
345
0
346
0
  0
ENDSEC
  0
EOF
