999
DXF file: C:\Users\sesa63760\Dev\_Creo\CAD\MCADID0000249_3D-CAD\drw0001_5.dxf
999
Pro/ENGINEER 2019471 by Parametric Technology Corporation
  0
SECTION
  2
HEADER
  9
$ACADVER
  1
AC1024
  9
$DWGCODEPAGE
  3
ANSI_1252
  9
$EXTMAX
 10
422.8744966
 20
598.0653594771
 30
0.0
  9
$EXTMIN
 10
0.0
 20
0.0
 30
0.0
  9
$LIMMIN
 10
0.0
 20
0.0
  9
$LIMMAX
 10
422.8744966
 20
598.0653594771
  9
$VIEWCTR
 10
211.4372483
 20
299.0326797386
  9
$VIEWSIZE
 40
598.0653594771
  9
$CLAYER
  8
0
  9
$LTSCALE
 40
38.9850012104
  9
$CELTYPE
  6
BYLAYER
  9
$DIMSCALE
 40
1.0
  9
$DIMASZ
 40
5.0342201976
  9
$DIMEXO
 40
1.0
  9
$DIMDLI
 40
26.9350917453
  9
$DIMEXE
 40
1.0
  9
$DIMCEN
 40
6.3793638344
  9
$DIMLFAC
 40
1.0
  9
$DIMBLK
  1
_FILLED
  9
$DIMALT
 70
0
  9
$DIMALTF
 40
0.0393700787
  9
$DIMTXT
 40
7.0479082767
  9
$DIMTOL
 70
1
  9
$DIMLIM
 70
0
  9
$DIMTFAC
 40
1.0
  9
$DIMTP
 40
0.01
  9
$DIMTM
 40
0.01
  9
$DIMGAP
 40
0.625
  9
$DIMDSEP
 70
46
  9
$AUNITS
 70
0
  9
$PDMODE
 70
3
  9
$PDSIZE
 40
0.3125
  9
$HANDSEED
  5
4BD
  9
$TILEMODE
 70
1
  9
$MEASUREMENT
 70
1
  9
$INSUNITS
 70
4
  0
ENDSEC
  0
SECTION
  2
CLASSES
  0
CLASS
  1
ACDBDICTIONARYWDFLT
  2
AcDbDictionaryWithDefault
  3
AutoCAD 2000
 90
0
 91
1
280
0
281
0
  0
CLASS
  1
ACDBPLACEHOLDER
  2
AcDbPlaceHolder
  3
AutoCAD 2000
 90
0
 91
1
280
0
281
0
  0
CLASS
  1
LAYOUT
  2
AcDbLayout
  3
AutoCAD 2000
 90
0
 91
0
280
0
281
0
  0
ENDSEC
  0
SECTION
  2
TABLES
  0
TABLE
  2
VPORT
  5
8
100
AcDbSymbolTable
 70
2
  0
VPORT
  5
1F4
100
AcDbSymbolTableRecord
100
AcDbViewportTableRecord
  2
*ACTIVE
 70
0
 10
0.0
 20
0.0
 11
1.0
 21
1.0
 12
211.4372483
 22
299.0326797386
 13
0.0
 23
0.0
 14
1.0
 24
1.0
 15
0.0
 25
0.0
 16
0.0
 26
0.0
 36
1.0
 17
0.0
 27
0.0
 37
0.0
 40
598.0653594771
 41
0.7070707071
 42
50.0
 43
0.0
 44
0.0
 50
0.0
 51
0.0
 71
0
 72
100
 73
1
 74
1
 75
0
 76
0
 77
0
 78
0
  0
ENDTAB
  0
TABLE
  2
LTYPE
  5
5
100
AcDbSymbolTable
 70
6
  0
LTYPE
  5
14
100
AcDbSymbolTableRecord
100
AcDbLinetypeTableRecord
  2
BYBLOCK
 70
0
  3

 72
65
 73
0
 40
0.0
  0
LTYPE
  5
15
100
AcDbSymbolTableRecord
100
AcDbLinetypeTableRecord
  2
BYLAYER
 70
0
  3

 72
65
 73
0
 40
0.0
  0
LTYPE
  5
16
100
AcDbSymbolTableRecord
100
AcDbLinetypeTableRecord
  2
CONTINUOUS
 70
64
  3
Solid line
 72
65
 73
0
 40
0.0
  0
LTYPE
  5
1F5
100
AcDbSymbolTableRecord
100
AcDbLinetypeTableRecord
  2
CENTER
 70
64
  3
____ _ ____ _ ____ _ ____ _ ____ _ ____ _ ____
 72
65
 73
4
 40
0.6
 49
0.375
 74
0
 49
-0.075
 74
0
 49
0.075
 74
0
 49
-0.075
 74
0
  0
LTYPE
  5
1F6
100
AcDbSymbolTableRecord
100
AcDbLinetypeTableRecord
  2
HIDDEN
 70
64
  3
- - - - - - - - - - - - - - - - - - - -
 72
65
 73
2
 40
0.2
 49
0.1
 74
0
 49
-0.1
 74
0
  0
LTYPE
  5
1F7
100
AcDbSymbolTableRecord
100
AcDbLinetypeTableRecord
  2
PHANTOM
 70
64
  3
_____ _ _ _____ _ _ _____ _ _ _____
 72
65
 73
6
 40
0.8
 49
0.45
 74
0
 49
-0.05
 74
0
 49
0.1
 74
0
 49
-0.05
 74
0
 49
0.1
 74
0
 49
-0.05
 74
0
  0
LTYPE
  5
1F8
100
AcDbSymbolTableRecord
100
AcDbLinetypeTableRecord
  2
DOT
 70
64
  3
. . . . . . . . . . . . . . . . . . . .
 72
65
 73
2
 40
0.2
 49
0.1
 74
0
 49
-0.1
 74
0
  0
LTYPE
  5
1F9
100
AcDbSymbolTableRecord
100
AcDbLinetypeTableRecord
  2
DASHED
 70
64
  3
- - - - - - - - - - - - - - - - - - - -
 72
65
 73
2
 40
0.2
 49
0.1
 74
0
 49
-0.1
 74
0
  0
ENDTAB
  0
TABLE
  2
LAYER
  5
2
100
AcDbSymbolTable
 70
36
  0
LAYER
  5
10
100
AcDbSymbolTableRecord
100
AcDbLayerTableRecord
  2
0
 70
0
 62
7
  6
CONTINUOUS
370
-3
390
F
  0
LAYER
  5
1FA
100
AcDbSymbolTableRecord
100
AcDbLayerTableRecord
  2
DEFAULT_1
 70
0
 62
7
  6
CENTER
370
-3
390
F
  0
LAYER
  5
1FB
100
AcDbSymbolTableRecord
100
AcDbLayerTableRecord
  2
DEFAULT_2
 70
0
 62
8
  6
HIDDEN
370
-3
390
F
  0
LAYER
  5
1FC
100
AcDbSymbolTableRecord
100
AcDbLayerTableRecord
  2
DEFAULT_3
 70
0
 62
7
  6
PHANTOM
370
-3
390
F
  0
LAYER
  5
1FD
100
AcDbSymbolTableRecord
100
AcDbLayerTableRecord
  2
00_COMPONENTS
 70
0
 62
7
  6
CONTINUOUS
370
-3
390
F
  0
LAYER
  5
1FE
100
AcDbSymbolTableRecord
100
AcDbLayerTableRecord
  2
01_1_DEFAULT_DATUMS
 70
0
 62
7
  6
CONTINUOUS
370
-3
390
F
  0
LAYER
  5
1FF
100
AcDbSymbolTableRecord
100
AcDbLayerTableRecord
  2
01_PLANES
 70
0
 62
7
  6
CONTINUOUS
370
-3
390
F
  0
LAYER
  5
200
100
AcDbSymbolTableRecord
100
AcDbLayerTableRecord
  2
02_COORD_SYS
 70
0
 62
7
  6
CONTINUOUS
370
-3
390
F
  0
LAYER
  5
201
100
AcDbSymbolTableRecord
100
AcDbLayerTableRecord
  2
03_AXES
 70
0
 62
7
  6
CONTINUOUS
370
-3
390
F
  0
LAYER
  5
202
100
AcDbSymbolTableRecord
100
AcDbLayerTableRecord
  2
04_POINTS
 70
0
 62
7
  6
CONTINUOUS
370
-3
390
F
  0
LAYER
  5
203
100
AcDbSymbolTableRecord
100
AcDbLayerTableRecord
  2
05_CURVES
 70
0
 62
7
  6
CONTINUOUS
370
-3
390
F
  0
LAYER
  5
204
100
AcDbSymbolTableRecord
100
AcDbLayerTableRecord
  2
06_SURFS
 70
0
 62
7
  6
CONTINUOUS
370
-3
390
F
  0
LAYER
  5
205
100
AcDbSymbolTableRecord
100
AcDbLayerTableRecord
  2
07_COSMETICS
 70
0
 62
7
  6
CONTINUOUS
370
-3
390
F
  0
LAYER
  5
206
100
AcDbSymbolTableRecord
100
AcDbLayerTableRecord
  2
10_NOTES
 70
0
 62
7
  6
CONTINUOUS
370
-3
390
F
  0
LAYER
  5
207
100
AcDbSymbolTableRecord
100
AcDbLayerTableRecord
  2
11_NOTES_PUB
 70
0
 62
7
  6
CONTINUOUS
370
-3
390
F
  0
LAYER
  5
208
100
AcDbSymbolTableRecord
100
AcDbLayerTableRecord
  2
13_REF_GTOL
 70
0
 62
7
  6
CONTINUOUS
370
-3
390
F
  0
LAYER
  5
209
100
AcDbSymbolTableRecord
100
AcDbLayerTableRecord
  2
16_MISC
 70
0
 62
7
  6
CONTINUOUS
370
-3
390
F
  0
LAYER
  5
20A
100
AcDbSymbolTableRecord
100
AcDbLayerTableRecord
  2
17_NO_PRINT
 70
0
 62
7
  6
CONTINUOUS
370
-3
390
F
  0
LAYER
  5
20B
100
AcDbSymbolTableRecord
100
AcDbLayerTableRecord
  2
18_DATUM_CAMS_JOINTS
 70
0
 62
7
  6
CONTINUOUS
370
-3
390
F
  0
LAYER
  5
20C
100
AcDbSymbolTableRecord
100
AcDbLayerTableRecord
  2
19_DATUM_FUNCTIONAL
 70
0
 62
7
  6
CONTINUOUS
370
-3
390
F
  0
LAYER
  5
20D
100
AcDbSymbolTableRecord
100
AcDbLayerTableRecord
  2
20_DATUM_KINEMATIC_SCHEME
 70
0
 62
7
  6
CONTINUOUS
370
-3
390
F
  0
ENDTAB
  0
TABLE
  2
STYLE
  5
3
100
AcDbSymbolTable
 70
1
  0
STYLE
  5
11
100
AcDbSymbolTableRecord
100
AcDbTextStyleTableRecord
  2
STANDARD
 70
0
 40
0.0
 41
0.8
 50
0.0
 71
0
 42
0.2
  3
txt
  4

  0
STYLE
  5
20E
100
AcDbSymbolTableRecord
100
AcDbTextStyleTableRecord
  2
TEXTSTYLE_1
 70
0
 40
0.0
 41
0.8
 50
0.0
 71
0
 42
0.2
  3
gdt
  4

  0
ENDTAB
  0
TABLE
  2
VIEW
  5
6
100
AcDbSymbolTable
 70
0
  0
ENDTAB
  0
TABLE
  2
UCS
  5
7
100
AcDbSymbolTable
 70
0
  0
ENDTAB
  0
TABLE
  2
APPID
  5
9
100
AcDbSymbolTable
 70
1
  0
APPID
  5
20F
100
AcDbSymbolTableRecord
100
AcDbRegAppTableRecord
  2
ACAD
 70
0
  0
ENDTAB
  0
TABLE
  2
BLOCK_RECORD
  5
1
100
AcDbSymbolTable
 70
0
  0
BLOCK_RECORD
  5
210
100
AcDbSymbolTableRecord
100
AcDbBlockTableRecord
  2
*Model_Space
  0
BLOCK_RECORD
  5
211
100
AcDbSymbolTableRecord
100
AcDbBlockTableRecord
  2
*Paper_Space
  0
BLOCK_RECORD
  5
212
100
AcDbSymbolTableRecord
100
AcDbBlockTableRecord
  2
_FILLED
  0
ENDTAB
  0
TABLE
  2
DIMSTYLE
  5
A
100
AcDbSymbolTable
 70
1
100
AcDbDimStyleTable
 71
0
  0
DIMSTYLE
105
213
100
AcDbSymbolTableRecord
100
AcDbDimStyleTableRecord
  2
STANDARD
 70
0
  3

  4

 40
1.0
 41
5.0342201976
 42
1.0
 43
0.38
 44
1.0
 45
0.0
 46
0.0
 47
0.01
 48
0.01
140
7.0479082767
141
0.09
142
0.0
143
25.4
144
1.0
145
0.0
146
1.0
147
0.625
 71
1
 72
0
 73
0
 74
0
 75
0
 76
0
 77
1
 78
8
 79
2
170
0
171
1
172
0
173
0
174
0
175
0
176
0
177
0
178
0
270
2
179
2
271
2
272
2
273
2
274
2
275
0
280
0
281
0
282
0
283
1
284
8
285
0
286
0
287
3
288
0
340
11
278
46
341
212
342
212
343
212
344
212
  0
ENDTAB
  0
ENDSEC
  0
SECTION
  2
BLOCKS
  0
BLOCK
  5
20
100
AcDbEntity
  8
0
100
AcDbBlockBegin
  2
*Model_Space
 70
0
 10
0.0
 20
0.0
 30
0.0
  3
*Model_Space
  1

  0
ENDBLK
  5
21
100
AcDbEntity
  8
0
100
AcDbBlockEnd
  0
BLOCK
  5
1C
100
AcDbEntity
  8
0
100
AcDbBlockBegin
  2
*Paper_Space
 70
0
 10
0.0
 20
0.0
 30
0.0
  3
*Paper_Space
  1

  0
ENDBLK
  5
1D
100
AcDbEntity
  8
0
100
AcDbBlockEnd
  0
BLOCK
  5
214
100
AcDbEntity
  8
0
100
AcDbBlockBegin
  2
_FILLED
 70
64
 10
0.0
 20
0.0
  3
_FILLED
  1

  0
SOLID
  5
215
100
AcDbEntity
  8
0
  6
BYBLOCK
 62
0
100
AcDbTrace
 10
0.0
 20
0.0
 11
-1.0
 21
0.25
 12
-1.0
 22
-0.25
 13
-1.0
 23
-0.25
  0
ENDBLK
  5
216
100
AcDbEntity
  8
0
  6
BYBLOCK
 62
0
100
AcDbBlockEnd
  0
ENDSEC
  0
SECTION
  2
ENTITIES
  0
LINE
  5
217
100
AcDbEntity
  8
0
100
AcDbLine
 62
7
  6
CONTINUOUS
 10
49.2934574503
 20
265.7647192121
 11
49.2934574503
 21
284.7646925526
  0
LINE
  5
218
100
AcDbEntity
  8
0
100
AcDbLine
 62
7
  6
CONTINUOUS
 10
85.7934574503
 20
227.7647321416
 11
85.7934574503
 21
322.7646796231
  0
LINE
  5
219
100
AcDbEntity
  8
0
100
AcDbLine
 62
7
  6
CONTINUOUS
 10
89.2934574503
 20
225.2647058824
 11
89.2934574503
 21
325.2647058824
  0
LINE
  5
21A
100
AcDbEntity
  8
0
100
AcDbLine
 62
7
  6
CONTINUOUS
 10
101.2934574503
 20
225.2647058824
 11
101.2934574503
 21
325.2647058824
  0
LINE
  5
21B
100
AcDbEntity
  8
0
100
AcDbLine
 62
7
  6
CONTINUOUS
 10
136.6234574503
 20
228.9366624878
 11
136.6234574503
 21
300.6047407528
  0
LINE
  5
21C
100
AcDbEntity
  8
0
100
AcDbLine
 62
7
  6
CONTINUOUS
 10
339.3611049867
 20
258.7431135248
 11
338.6040491963
 21
258.5304649075
  0
LINE
  5
21D
100
AcDbEntity
  8
0
100
AcDbLine
 62
7
  6
CONTINUOUS
 10
341.3391615196
 20
254.3311771288
 11
340.8207564618
 21
254.1950914926
  0
LINE
  5
21E
100
AcDbEntity
  8
0
100
AcDbLine
 62
7
  6
CONTINUOUS
 10
346.0553894482
 20
248.3308927893
 11
345.7465523925
 21
248.2564409991
  0
LINE
  5
21F
100
AcDbEntity
  8
0
100
AcDbLine
 62
7
  6
CONTINUOUS
 10
312.9776395985
 20
246.5403875544
 11
313.4151731225
 21
246.6359512527
  0
LINE
  5
220
100
AcDbEntity
  8
0
100
AcDbLine
 62
7
  6
CONTINUOUS
 10
345.8403064987
 20
247.7352353821
 11
346.0471170271
 21
247.7766405733
  0
LINE
  5
221
100
AcDbEntity
  8
0
100
AcDbLine
 62
7
  6
CONTINUOUS
 10
89.2934574503
 20
225.2647058824
 11
364.5934574503
 21
225.2647058824
  0
LINE
  5
222
100
AcDbEntity
  8
0
100
AcDbLine
 62
7
  6
CONTINUOUS
 10
160.1494546955
 20
227.7037172168
 11
101.2934574503
 21
227.7037172168
  0
LINE
  5
223
100
AcDbEntity
  8
0
100
AcDbLine
 62
7
  6
CONTINUOUS
 10
85.7934574503
 20
227.7647058824
 11
89.2934574503
 21
227.7647058824
  0
LINE
  5
224
100
AcDbEntity
  8
0
100
AcDbLine
 62
7
  6
CONTINUOUS
 10
206.6885633505
 20
225.2647058824
 11
136.6234574503
 21
228.9366624878
  0
LINE
  5
225
100
AcDbEntity
  8
0
100
AcDbLine
 62
7
  6
CONTINUOUS
 10
151.7954290237
 20
351.7833166172
 11
151.6471952855
 21
357.4468620406
  0
LINE
  5
226
100
AcDbEntity
  8
0
100
AcDbLine
 62
7
  6
CONTINUOUS
 10
149.5934574503
 20
357.1764823252
 11
149.5934848717
 21
338.527005557
  0
LINE
  5
227
100
AcDbEntity
  8
0
100
AcDbLine
 62
7
  6
CONTINUOUS
 10
324.3751401528
 20
258.7431135248
 11
323.6180843752
 21
258.5304649112
  0
LINE
  5
228
100
AcDbEntity
  8
0
100
AcDbLine
 62
7
  6
CONTINUOUS
 10
314.5880042461
 20
254.04437832
 11
314.0034198192
 21
253.8862975224
  0
LINE
  5
229
100
AcDbEntity
  8
0
100
AcDbLine
 62
7
  6
CONTINUOUS
 10
326.3531966924
 20
254.3311771288
 11
325.8347916346
 21
254.1950914926
  0
LINE
  5
22A
100
AcDbEntity
  8
0
100
AcDbLine
 62
7
  6
CONTINUOUS
 10
308.5730061992
 20
254.5793282201
 11
307.8946676662
 21
254.4028499025
  0
LINE
  5
22B
100
AcDbEntity
  8
0
100
AcDbLine
 62
7
  6
CONTINUOUS
 10
318.4080101328
 20
257.5776069408
 11
318.5550610357
 21
257.6144019806
  0
LINE
  5
22C
100
AcDbEntity
  8
0
100
AcDbLine
 62
7
  6
CONTINUOUS
 10
332.7799631184
 20
258.7431350676
 11
332.3240751599
 21
258.6328361191
  0
LINE
  5
22D
100
AcDbEntity
  8
0
100
AcDbLine
 62
7
  6
CONTINUOUS
 10
312.2606748906
 20
257.4709918049
 11
312.4445208333
 21
257.5114491145
  0
LINE
  5
22E
100
AcDbEntity
  8
0
100
AcDbLine
 62
7
  6
CONTINUOUS
 10
314.5695851833
 20
254.8936586804
 11
315.1321098206
 21
255.0076629842
  0
LINE
  5
22F
100
AcDbEntity
  8
0
100
AcDbLine
 62
7
  6
CONTINUOUS
 10
307.7237042958
 20
253.2061063097
 11
308.3689531447
 21
253.3329501015
  0
LINE
  5
230
100
AcDbEntity
  8
0
100
AcDbLine
 62
7
  6
CONTINUOUS
 10
301.2822457049
 20
254.722716853
 11
300.8373876418
 21
254.6399926417
  0
LINE
  5
231
100
AcDbEntity
  8
0
100
AcDbLine
 62
7
  6
CONTINUOUS
 10
332.110844888
 20
247.7350199544
 11
332.3167075348
 21
247.7720304219
  0
LINE
  5
232
100
AcDbEntity
  8
0
100
AcDbLine
 62
7
  6
CONTINUOUS
 10
301.171946759
 20
253.2061063097
 11
301.9844967147
 21
253.3458326597
  0
LINE
  5
233
100
AcDbEntity
  8
0
100
AcDbLine
 62
7
  6
CONTINUOUS
 10
340.5743934199
 20
253.2097685814
 11
341.1626832021
 21
253.3053753653
  0
LINE
  5
234
100
AcDbEntity
  8
0
100
AcDbLine
 62
7
  6
CONTINUOUS
 10
325.5884285927
 20
253.2097685814
 11
326.1767183749
 21
253.3053753653
  0
LINE
  5
235
100
AcDbEntity
  8
0
100
AcDbLine
 62
7
  6
CONTINUOUS
 10
327.5922502706
 20
247.702188783
 11
328.007724005
 21
247.7646627968
  0
LINE
  5
236
100
AcDbEntity
  8
0
100
AcDbLine
 62
7
  6
CONTINUOUS
 10
159.0934521123
 20
348.7648417983
 11
158.9832565327
 21
352.9731091375
  0
LINE
  5
237
100
AcDbEntity
  8
0
100
AcDbLine
 62
7
  6
CONTINUOUS
 10
159.5934574503
 20
338.003978539
 11
159.5934574503
 21
374.2647058824
  0
LINE
  5
238
100
AcDbEntity
  8
0
100
AcDbLine
 62
7
  6
CONTINUOUS
 10
300.2094681642
 20
259.7632475792
 11
300.5154658222
 21
259.8408765173
  0
LINE
  5
239
100
AcDbEntity
  8
0
100
AcDbLine
 62
7
  6
CONTINUOUS
 10
307.0177910254
 20
257.4360709853
 11
307.398322398
 21
257.5132802494
  0
LINE
  5
23A
100
AcDbEntity
  8
0
100
AcDbLine
 62
7
  6
CONTINUOUS
 10
300.3300124849
 20
261.2799893999
 11
299.6240992079
 21
261.1696904151
  0
LINE
  5
23B
100
AcDbEntity
  8
0
100
AcDbLine
 62
7
  6
CONTINUOUS
 10
315.0843495142
 20
254.1179253142
 11
314.5880042461
 21
254.04437832
  0
LINE
  5
23C
100
AcDbEntity
  8
0
100
AcDbLine
 62
7
  6
CONTINUOUS
 10
311.5014863666
 20
249.7041146978
 11
310.1227495108
 21
249.6765399606
  0
LINE
  5
23D
100
AcDbEntity
  8
0
100
AcDbLine
 62
7
  6
CONTINUOUS
 10
364.5934574503
 20
242.4197109156
 11
136.6234574503
 21
242.4197109156
  0
LINE
  5
23E
100
AcDbEntity
  8
0
100
AcDbLine
 62
7
  6
CONTINUOUS
 10
101.2934574503
 20
243.1147058824
 11
136.6234574503
 21
243.1147058824
  0
LINE
  5
23F
100
AcDbEntity
  8
0
100
AcDbLine
 62
7
  6
CONTINUOUS
 10
311.8195006395
 20
246.5403875544
 11
312.9776395985
 21
246.5403875544
  0
LINE
  5
240
100
AcDbEntity
  8
0
100
AcDbLine
 62
7
  6
CONTINUOUS
 10
327.2282637406
 20
247.702188783
 11
327.5922502706
 21
247.702188783
  0
LINE
  5
241
100
AcDbEntity
  8
0
100
AcDbLine
 62
7
  6
CONTINUOUS
 10
335.4114978355
 20
247.7297635202
 11
335.9492482948
 21
247.7297635202
  0
LINE
  5
242
100
AcDbEntity
  8
0
100
AcDbLine
 62
7
  6
CONTINUOUS
 10
331.4637433618
 20
247.7350199544
 11
332.110844888
 21
247.7350199544
  0
LINE
  5
243
100
AcDbEntity
  8
0
100
AcDbLine
 62
7
  6
CONTINUOUS
 10
345.12060586
 20
247.7352353821
 11
345.8403064987
 21
247.7352353821
  0
LINE
  5
244
100
AcDbEntity
  8
0
100
AcDbLine
 62
7
  6
CONTINUOUS
 10
319.606649487
 20
247.7646627968
 11
322.2464566251
 21
247.7646627968
  0
LINE
  5
245
100
AcDbEntity
  8
0
100
AcDbLine
 62
7
  6
CONTINUOUS
 10
323.8108490158
 20
247.7646627968
 11
324.3788886004
 21
247.7646627968
  0
LINE
  5
246
100
AcDbEntity
  8
0
100
AcDbLine
 62
7
  6
CONTINUOUS
 10
337.9677190517
 20
247.7647058824
 11
338.5412735838
 21
247.7647058824
  0
LINE
  5
247
100
AcDbEntity
  8
0
100
AcDbLine
 62
7
  6
CONTINUOUS
 10
341.7564879317
 20
247.7647058824
 11
342.3521022534
 21
247.7647058824
  0
LINE
  5
248
100
AcDbEntity
  8
0
100
AcDbLine
 62
7
  6
CONTINUOUS
 10
313.0254429904
 20
248.014645023
 11
311.0915491224
 21
248.014645023
  0
LINE
  5
249
100
AcDbEntity
  8
0
100
AcDbLine
 62
7
  6
CONTINUOUS
 10
335.9216735577
 20
248.2205938409
 11
335.5962916597
 21
248.2205938409
  0
LINE
  5
24A
100
AcDbEntity
  8
0
100
AcDbLine
 62
7
  6
CONTINUOUS
 10
345.7465523925
 20
248.2564409991
 11
345.3136290198
 21
248.2564409991
  0
LINE
  5
24B
100
AcDbEntity
  8
0
100
AcDbLine
 62
7
  6
CONTINUOUS
 10
332.1071395327
 20
248.2610080649
 11
331.5887344749
 21
248.2610080649
  0
LINE
  5
24C
100
AcDbEntity
  8
0
100
AcDbLine
 62
7
  6
CONTINUOUS
 10
327.8312456874
 20
248.2610511505
 11
327.324646064
 21
248.2610511505
  0
LINE
  5
24D
100
AcDbEntity
  8
0
100
AcDbLine
 62
7
  6
CONTINUOUS
 10
322.2464566251
 20
248.3087899141
 11
320.2537079276
 21
248.3087899141
  0
LINE
  5
24E
100
AcDbEntity
  8
0
100
AcDbLine
 62
7
  6
CONTINUOUS
 10
336.4207332139
 20
248.4356767904
 11
336.3490388974
 21
248.4356767904
  0
LINE
  5
24F
100
AcDbEntity
  8
0
100
AcDbLine
 62
7
  6
CONTINUOUS
 10
316.8638679399
 20
249.0956608891
 11
315.5954300325
 21
249.0956608891
  0
LINE
  5
250
100
AcDbEntity
  8
0
100
AcDbLine
 62
7
  6
CONTINUOUS
 10
311.3636342238
 20
249.1103099682
 11
312.5254354525
 21
249.1103099682
  0
LINE
  5
251
100
AcDbEntity
  8
0
100
AcDbLine
 62
7
  6
CONTINUOUS
 10
326.5370426351
 20
249.1801946925
 11
328.6511201759
 21
249.1801946925
  0
LINE
  5
252
100
AcDbEntity
  8
0
100
AcDbLine
 62
7
  6
CONTINUOUS
 10
328.0620117687
 20
249.5673181503
 11
326.5518640563
 21
249.5673181503
  0
LINE
  5
253
100
AcDbEntity
  8
0
100
AcDbLine
 62
7
  6
CONTINUOUS
 10
315.8012926793
 20
249.7831766393
 11
317.2903284836
 21
249.7831766393
  0
LINE
  5
254
100
AcDbEntity
  8
0
100
AcDbLine
 62
7
  6
CONTINUOUS
 10
320.2537079276
 20
249.8015310737
 11
322.1287900516
 21
249.8015310737
  0
LINE
  5
255
100
AcDbEntity
  8
0
100
AcDbLine
 62
7
  6
CONTINUOUS
 10
338.5909081106
 20
250.1011909122
 11
338.5385161101
 21
250.1011909122
  0
LINE
  5
256
100
AcDbEntity
  8
0
100
AcDbLine
 62
7
  6
CONTINUOUS
 10
334.188127389
 20
250.2647866573
 11
334.7139000719
 21
250.2647866573
  0
LINE
  5
257
100
AcDbEntity
  8
0
100
AcDbLine
 62
7
  6
CONTINUOUS
 10
335.287454604
 20
250.2721542824
 11
336.2360255608
 21
250.2721542824
  0
LINE
  5
258
100
AcDbEntity
  8
0
100
AcDbLine
 62
7
  6
CONTINUOUS
 10
339.0982832736
 20
250.2749117561
 11
339.3850605396
 21
250.2749117561
  0
LINE
  5
259
100
AcDbEntity
  8
0
100
AcDbLine
 62
7
  6
CONTINUOUS
 10
345.2419347033
 20
250.3080014406
 11
345.6996322539
 21
250.3080014406
  0
LINE
  5
25A
100
AcDbEntity
  8
0
100
AcDbLine
 62
7
  6
CONTINUOUS
 10
331.5483202509
 20
250.3088631512
 11
331.9490587351
 21
250.3088631512
  0
LINE
  5
25B
100
AcDbEntity
  8
0
100
AcDbLine
 62
7
  6
CONTINUOUS
 10
310.3268025654
 20
250.3438485989
 11
311.727599211
 21
250.3438485989
  0
LINE
  5
25C
100
AcDbEntity
  8
0
100
AcDbLine
 62
7
  6
CONTINUOUS
 10
327.1716493585
 20
250.3445810528
 11
327.5552398031
 21
250.3445810528
  0
LINE
  5
25D
100
AcDbEntity
  8
0
100
AcDbLine
 62
7
  6
CONTINUOUS
 10
322.1287900516
 20
250.3750856058
 11
320.2537079276
 21
250.3750856058
  0
LINE
  5
25E
100
AcDbEntity
  8
0
100
AcDbLine
 62
7
  6
CONTINUOUS
 10
317.5697812101
 20
250.3787909611
 11
315.9483866676
 21
250.3787909611
  0
LINE
  5
25F
100
AcDbEntity
  8
0
100
AcDbLine
 62
7
  6
CONTINUOUS
 10
336.2360255608
 20
250.7657420768
 11
335.2901689921
 21
250.7657420768
  0
LINE
  5
260
100
AcDbEntity
  8
0
100
AcDbLine
 62
7
  6
CONTINUOUS
 10
338.5385161101
 20
250.7979269653
 11
337.9677190517
 21
250.7979269653
  0
LINE
  5
261
100
AcDbEntity
  8
0
100
AcDbLine
 62
7
  6
CONTINUOUS
 10
331.9637939853
 20
250.8310166498
 11
331.4122992429
 21
250.8310166498
  0
LINE
  5
262
100
AcDbEntity
  8
0
100
AcDbLine
 62
7
  6
CONTINUOUS
 10
327.5941029482
 20
250.8310166498
 11
327.0959050025
 21
250.8310166498
  0
LINE
  5
263
100
AcDbEntity
  8
0
100
AcDbLine
 62
7
  6
CONTINUOUS
 10
345.7079477605
 20
250.8346789196
 11
345.1426656496
 21
250.8346789196
  0
LINE
  5
264
100
AcDbEntity
  8
0
100
AcDbLine
 62
7
  6
CONTINUOUS
 10
342.3521022534
 20
250.8346789196
 11
341.7564879317
 21
250.8346789196
  0
LINE
  5
265
100
AcDbEntity
  8
0
100
AcDbLine
 62
7
  6
CONTINUOUS
 10
339.6029009628
 20
250.8346789196
 11
339.3078512756
 21
250.8346789196
  0
LINE
  5
266
100
AcDbEntity
  8
0
100
AcDbLine
 62
7
  6
CONTINUOUS
 10
311.8158383698
 20
250.9835825
 11
310.6190947789
 21
250.9835825
  0
LINE
  5
267
100
AcDbEntity
  8
0
100
AcDbLine
 62
7
  6
CONTINUOUS
 10
316.13589488
 20
251.0773366062
 11
317.7793492122
 21
251.0773366062
  0
LINE
  5
268
100
AcDbEntity
  8
0
100
AcDbLine
 62
7
  6
CONTINUOUS
 10
341.8539043076
 20
251.3695857341
 11
341.9991456183
 21
251.3695857341
  0
LINE
  5
269
100
AcDbEntity
  8
0
100
AcDbLine
 62
7
  6
CONTINUOUS
 10
316.5770691311
 20
251.6324936183
 11
315.4924771663
 21
251.6324936183
  0
LINE
  5
26A
100
AcDbEntity
  8
0
100
AcDbLine
 62
7
  6
CONTINUOUS
 10
311.0658055202
 20
251.6508911382
 11
312.0309213193
 21
251.6508911382
  0
LINE
  5
26B
100
AcDbEntity
  8
0
100
AcDbLine
 62
7
  6
CONTINUOUS
 10
320.2537079276
 20
251.7722199816
 11
322.1802772561
 21
251.7722199816
  0
LINE
  5
26C
100
AcDbEntity
  8
0
100
AcDbLine
 62
7
  6
CONTINUOUS
 10
342.210566298
 20
251.9982897404
 11
342.0322353028
 21
251.9982897404
  0
LINE
  5
26D
100
AcDbEntity
  8
0
100
AcDbLine
 62
7
  6
CONTINUOUS
 10
324.3788886004
 20
252.3457745136
 11
323.8163639632
 21
252.3457745136
  0
LINE
  5
26E
100
AcDbEntity
  8
0
100
AcDbLine
 62
7
  6
CONTINUOUS
 10
322.1802772561
 20
252.3457745136
 11
319.606649487
 21
252.3457745136
  0
LINE
  5
26F
100
AcDbEntity
  8
0
100
AcDbLine
 62
7
  6
CONTINUOUS
 10
345.0323236157
 20
258.6328145763
 11
343.3613376319
 21
258.6254469512
  0
LINE
  5
270
100
AcDbEntity
  8
0
100
AcDbLine
 62
7
  6
CONTINUOUS
 10
314.7534742116
 20
252.5957998253
 11
316.7609150737
 21
252.5957998253
  0
LINE
  5
271
100
AcDbEntity
  8
0
100
AcDbLine
 62
7
  6
CONTINUOUS
 10
332.7579033287
 20
253.2024009563
 11
333.4142251576
 21
253.2024009563
  0
LINE
  5
272
100
AcDbEntity
  8
0
100
AcDbLine
 62
7
  6
CONTINUOUS
 10
300.2233758004
 20
253.2061063097
 11
301.171946759
 21
253.2061063097
  0
LINE
  5
273
100
AcDbEntity
  8
0
100
AcDbLine
 62
7
  6
CONTINUOUS
 10
306.9185219724
 20
253.2061063097
 11
307.7237042958
 21
253.2061063097
  0
LINE
  5
274
100
AcDbEntity
  8
0
100
AcDbLine
 62
7
  6
CONTINUOUS
 10
324.7318021499
 20
253.2097685814
 11
325.5884285927
 21
253.2097685814
  0
LINE
  5
275
100
AcDbEntity
  8
0
100
AcDbLine
 62
7
  6
CONTINUOUS
 10
339.7177669771
 20
253.2097685814
 11
340.5743934199
 21
253.2097685814
  0
LINE
  5
276
100
AcDbEntity
  8
0
100
AcDbLine
 62
7
  6
CONTINUOUS
 10
309.8010083398
 20
253.30167001
 11
311.4554925668
 21
253.30167001
  0
LINE
  5
277
100
AcDbEntity
  8
0
100
AcDbLine
 62
7
  6
CONTINUOUS
 10
319.613930941
 20
253.30167001
 11
321.3125347474
 21
253.30167001
  0
LINE
  5
278
100
AcDbEntity
  8
0
100
AcDbLine
 62
7
  6
CONTINUOUS
 10
328.2209111913
 20
253.309037635
 11
329.8753954184
 21
253.309037635
  0
LINE
  5
279
100
AcDbEntity
  8
0
100
AcDbLine
 62
7
  6
CONTINUOUS
 10
343.3613376319
 20
253.309037635
 11
345.0525738132
 21
253.309037635
  0
LINE
  5
27A
100
AcDbEntity
  8
0
100
AcDbLine
 62
7
  6
CONTINUOUS
 10
334.577879064
 20
253.3090807206
 11
336.2360255608
 21
253.3090807206
  0
LINE
  5
27B
100
AcDbEntity
  8
0
100
AcDbLine
 62
7
  6
CONTINUOUS
 10
315.8638097786
 20
254.1179253142
 11
315.0843495142
 21
254.1179253142
  0
LINE
  5
27C
100
AcDbEntity
  8
0
100
AcDbLine
 62
7
  6
CONTINUOUS
 10
340.8207564618
 20
254.1950914926
 11
340.0448292106
 21
254.1950914926
  0
LINE
  5
27D
100
AcDbEntity
  8
0
100
AcDbLine
 62
7
  6
CONTINUOUS
 10
325.8347916346
 20
254.1950914926
 11
325.0588643835
 21
254.1950914926
  0
LINE
  5
27E
100
AcDbEntity
  8
0
100
AcDbLine
 62
7
  6
CONTINUOUS
 10
333.841719754
 20
254.3288720531
 11
333.2744557089
 21
254.3288720531
  0
LINE
  5
27F
100
AcDbEntity
  8
0
100
AcDbLine
 62
7
  6
CONTINUOUS
 10
307.8946676662
 20
254.4028499025
 11
307.2825085022
 21
254.4028499025
  0
LINE
  5
280
100
AcDbEntity
  8
0
100
AcDbLine
 62
7
  6
CONTINUOUS
 10
300.8373876418
 20
254.6399926417
 11
300.4035163875
 21
254.6399926417
  0
LINE
  5
281
100
AcDbEntity
  8
0
100
AcDbLine
 62
7
  6
CONTINUOUS
 10
323.7097272845
 20
255.7025463596
 11
327.5517498754
 21
255.7025463596
  0
LINE
  5
282
100
AcDbEntity
  8
0
100
AcDbLine
 62
7
  6
CONTINUOUS
 10
338.6956921116
 20
255.7025463596
 11
342.5377147026
 21
255.7025463596
  0
LINE
  5
283
100
AcDbEntity
  8
0
100
AcDbLine
 62
7
  6
CONTINUOUS
 10
341.0597518787
 20
256.5555105326
 11
338.732444066
 21
256.5555105326
  0
LINE
  5
284
100
AcDbEntity
  8
0
100
AcDbLine
 62
7
  6
CONTINUOUS
 10
326.0737870515
 20
256.5555105326
 11
323.7464792388
 21
256.5555105326
  0
LINE
  5
285
100
AcDbEntity
  8
0
100
AcDbLine
 62
7
  6
CONTINUOUS
 10
345.0985029847
 20
257.1217189823
 11
345.0323236157
 21
257.1217189823
  0
LINE
  5
286
100
AcDbEntity
  8
0
100
AcDbLine
 62
7
  6
CONTINUOUS
 10
346.2373396277
 20
257.1934132988
 11
346.5792663679
 21
257.1934132988
  0
LINE
  5
287
100
AcDbEntity
  8
0
100
AcDbLine
 62
7
  6
CONTINUOUS
 10
312.4445208333
 20
257.5114491145
 11
312.8085073632
 21
257.5114491145
  0
LINE
  5
288
100
AcDbEntity
  8
0
100
AcDbLine
 62
7
  6
CONTINUOUS
 10
307.398322398
 20
257.5132802494
 11
308.0159965095
 21
257.5132802494
  0
LINE
  5
289
100
AcDbEntity
  8
0
100
AcDbLine
 62
7
  6
CONTINUOUS
 10
318.5550610357
 20
257.6144019806
 11
319.0514063038
 21
257.6144019806
  0
LINE
  5
28A
100
AcDbEntity
  8
0
100
AcDbLine
 62
7
  6
CONTINUOUS
 10
333.3113369198
 20
257.6162115728
 11
333.9094071165
 21
257.6162115728
  0
LINE
  5
28B
100
AcDbEntity
  8
0
100
AcDbLine
 62
7
  6
CONTINUOUS
 10
324.5884566025
 20
257.7541068011
 11
325.1840709242
 21
257.7541068011
  0
LINE
  5
28C
100
AcDbEntity
  8
0
100
AcDbLine
 62
7
  6
CONTINUOUS
 10
339.5744214296
 20
257.7541068011
 11
340.1700357514
 21
257.7541068011
  0
LINE
  5
28D
100
AcDbEntity
  8
0
100
AcDbLine
 62
7
  6
CONTINUOUS
 10
311.4996121462
 20
257.8680680194
 11
311.4591548366
 21
257.8680680194
  0
LINE
  5
28E
100
AcDbEntity
  8
0
100
AcDbLine
 62
7
  6
CONTINUOUS
 10
317.6506096582
 20
257.8974738914
 11
317.6101523486
 21
257.8974738914
  0
LINE
  5
28F
100
AcDbEntity
  8
0
100
AcDbLine
 62
7
  6
CONTINUOUS
 10
334.577879064
 20
258.4269303868
 11
334.5043320698
 21
258.4269303868
  0
LINE
  5
290
100
AcDbEntity
  8
0
100
AcDbLine
 62
7
  6
CONTINUOUS
 10
329.8753954184
 20
258.6328145763
 11
328.2209111913
 21
258.6328145763
  0
LINE
  5
291
100
AcDbEntity
  8
0
100
AcDbLine
 62
7
  6
CONTINUOUS
 10
307.6134053476
 20
258.7375985774
 11
306.7254988124
 21
258.7375985774
  0
LINE
  5
292
100
AcDbEntity
  8
0
100
AcDbLine
 62
7
  6
CONTINUOUS
 10
319.7697712845
 20
258.7386972583
 11
318.9659461547
 21
258.7386972583
  0
LINE
  5
293
100
AcDbEntity
  8
0
100
AcDbLine
 62
7
  6
CONTINUOUS
 10
347.0011598458
 20
258.7403345083
 11
346.5792663679
 21
258.7403345083
  0
LINE
  5
294
100
AcDbEntity
  8
0
100
AcDbLine
 62
7
  6
CONTINUOUS
 10
340.1074755665
 20
258.7431135248
 11
339.3611049867
 21
258.7431135248
  0
LINE
  5
295
100
AcDbEntity
  8
0
100
AcDbLine
 62
7
  6
CONTINUOUS
 10
325.1215107326
 20
258.7431135248
 11
324.3751401528
 21
258.7431135248
  0
LINE
  5
296
100
AcDbEntity
  8
0
100
AcDbLine
 62
7
  6
CONTINUOUS
 10
333.5520988432
 20
258.7431350676
 11
332.7799631184
 21
258.7431350676
  0
LINE
  5
297
100
AcDbEntity
  8
0
100
AcDbLine
 62
7
  6
CONTINUOUS
 10
328.5738678264
 20
259.4526890648
 11
328.9231621918
 21
259.4526890648
  0
LINE
  5
298
100
AcDbEntity
  8
0
100
AcDbLine
 62
7
  6
CONTINUOUS
 10
300.5154658222
 20
259.8408765173
 11
301.4807302019
 21
259.8408765173
  0
LINE
  5
299
100
AcDbEntity
  8
0
100
AcDbLine
 62
7
  6
CONTINUOUS
 10
336.2360255608
 20
261.2138315133
 11
334.577879064
 21
261.2138315133
  0
LINE
  5
29A
100
AcDbEntity
  8
0
100
AcDbLine
 62
7
  6
CONTINUOUS
 10
311.4591548366
 20
261.2211560528
 11
309.8010083398
 21
261.2211560528
  0
LINE
  5
29B
100
AcDbEntity
  8
0
100
AcDbLine
 62
7
  6
CONTINUOUS
 10
301.4182667462
 20
261.2799893999
 11
300.3300124849
 21
261.2799893999
  0
LINE
  5
29C
100
AcDbEntity
  8
0
100
AcDbLine
 62
7
  6
CONTINUOUS
 10
329.5371740334
 20
261.2836516094
 11
329.1400978189
 21
261.2836516094
  0
LINE
  5
29D
100
AcDbEntity
  8
0
100
AcDbLine
 62
7
  6
CONTINUOUS
 10
317.6101523486
 20
258.6364768461
 11
315.9464909044
 21
258.6383295238
  0
LINE
  5
29E
100
AcDbEntity
  8
0
100
AcDbLine
 62
7
  6
CONTINUOUS
 10
136.6234574503
 20
265.113885127
 11
101.2934574503
 21
265.113885127
  0
LINE
  5
29F
100
AcDbEntity
  8
0
100
AcDbLine
 62
7
  6
CONTINUOUS
 10
364.5934574503
 20
265.5647058824
 11
385.2934574503
 21
265.5647058824
  0
LINE
  5
2A0
100
AcDbEntity
  8
0
100
AcDbLine
 62
7
  6
CONTINUOUS
 10
49.2934574503
 20
265.7647058824
 11
85.7934574503
 21
265.7647058824
  0
LINE
  5
2A1
100
AcDbEntity
  8
0
100
AcDbLine
 62
7
  6
CONTINUOUS
 10
136.6234574503
 20
275.2647058824
 11
89.2934574503
 21
275.2647058824
  0
LINE
  5
2A2
100
AcDbEntity
  8
0
100
AcDbLine
 62
7
  6
CONTINUOUS
 10
300.4035163875
 20
254.6399926417
 11
299.7601202166
 21
254.7227168531
  0
LINE
  5
2A3
100
AcDbEntity
  8
0
100
AcDbLine
 62
7
  6
CONTINUOUS
 10
299.5726120041
 20
253.3053753644
 11
300.2233758004
 21
253.2061063097
  0
LINE
  5
2A4
100
AcDbEntity
  8
0
100
AcDbLine
 62
7
  6
CONTINUOUS
 10
324.1582476179
 20
253.30167001
 11
324.7318021499
 21
253.2097685814
  0
LINE
  5
2A5
100
AcDbEntity
  8
0
100
AcDbLine
 62
7
  6
CONTINUOUS
 10
339.1442124451
 20
253.30167001
 11
339.7177669771
 21
253.2097685814
  0
LINE
  5
2A6
100
AcDbEntity
  8
0
100
AcDbLine
 62
7
  6
CONTINUOUS
 10
316.0917753006
 20
254.0811302743
 11
315.8638097786
 21
254.1179253142
  0
LINE
  5
2A7
100
AcDbEntity
  8
0
100
AcDbLine
 62
7
  6
CONTINUOUS
 10
308.3857995855
 20
258.6003927174
 11
307.6134053476
 21
258.7375985774
  0
LINE
  5
2A8
100
AcDbEntity
  8
0
100
AcDbLine
 62
7
  6
CONTINUOUS
 10
332.1475968424
 20
250.7978838797
 11
331.9637939853
 21
250.8310166498
  0
LINE
  5
2A9
100
AcDbEntity
  8
0
100
AcDbLine
 62
7
  6
CONTINUOUS
 10
315.9464909044
 20
255.0076414415
 11
316.5460690946
 21
254.8936802232
  0
LINE
  5
2AA
100
AcDbEntity
  8
0
100
AcDbLine
 62
7
  6
CONTINUOUS
 10
306.116377178
 20
253.365608931
 11
306.9185219724
 21
253.2061063097
  0
LINE
  5
2AB
100
AcDbEntity
  8
0
100
AcDbLine
 62
7
  6
CONTINUOUS
 10
331.0628325355
 20
247.8289894883
 11
331.4637433618
 21
247.7350199544
  0
LINE
  5
2AC
100
AcDbEntity
  8
0
100
AcDbLine
 62
7
  6
CONTINUOUS
 10
299.0100873669
 20
253.4487639979
 11
299.5726120041
 21
253.3053753644
  0
LINE
  5
2AD
100
AcDbEntity
  8
0
100
AcDbLine
 62
7
  6
CONTINUOUS
 10
311.4775738993
 20
246.6359943382
 11
311.8195006395
 21
246.5403875544
  0
LINE
  5
2AE
100
AcDbEntity
  8
0
100
AcDbLine
 62
7
  6
CONTINUOUS
 10
158.9832565327
 20
352.9731091375
 11
156.5934574503
 21
358.0980498083
  0
LINE
  5
2AF
100
AcDbEntity
  8
0
100
AcDbLine
 62
7
  6
CONTINUOUS
 10
197.5934574503
 20
325.2647058824
 11
197.5934574503
 21
303.6896885882
  0
LINE
  5
2B0
100
AcDbEntity
  8
0
100
AcDbLine
 62
7
  6
CONTINUOUS
 10
197.5934574503
 20
225.7413601849
 11
197.5934574503
 21
225.2647058824
  0
LINE
  5
2B1
100
AcDbEntity
  8
0
100
AcDbLine
 62
7
  6
CONTINUOUS
 10
49.2934574503
 20
284.7647058824
 11
85.7934574503
 21
284.7647058824
  0
LINE
  5
2B2
100
AcDbEntity
  8
0
100
AcDbLine
 62
7
  6
CONTINUOUS
 10
101.2934574503
 20
285.4155266377
 11
136.6234574503
 21
285.4155266377
  0
LINE
  5
2B3
100
AcDbEntity
  8
0
100
AcDbLine
 62
7
  6
CONTINUOUS
 10
325.5443090209
 20
258.6695665281
 11
325.1215107326
 21
258.7431135248
  0
LINE
  5
2B4
100
AcDbEntity
  8
0
100
AcDbLine
 62
7
  6
CONTINUOUS
 10
340.5302738405
 20
258.6695665306
 11
340.1074755665
 21
258.7431135248
  0
LINE
  5
2B5
100
AcDbEntity
  8
0
100
AcDbLine
 62
7
  6
CONTINUOUS
 10
302.4183250263
 20
261.0740839469
 11
301.4182667462
 21
261.2799893999
  0
LINE
  5
2B6
100
AcDbEntity
  8
0
100
AcDbLine
 62
7
  6
CONTINUOUS
 10
332.4270064833
 20
253.275991036
 11
332.7579033287
 21
253.2024009563
  0
LINE
  5
2B7
100
AcDbEntity
  8
0
100
AcDbLine
 62
7
  6
CONTINUOUS
 10
334.044738756
 20
258.6328361191
 11
333.5520988432
 21
258.7431350676
  0
LINE
  5
2B8
100
AcDbEntity
  8
0
100
AcDbLine
 62
7
  6
CONTINUOUS
 10
301.4807302019
 20
259.8408765173
 11
302.0653882334
 21
259.6973223983
  0
LINE
  5
2B9
100
AcDbEntity
  8
0
100
AcDbLine
 62
7
  6
CONTINUOUS
 10
314.0328256911
 20
258.5960410793
 11
313.4789177828
 21
258.7387429069
  0
LINE
  5
2BA
100
AcDbEntity
  8
0
100
AcDbLine
 62
7
  6
CONTINUOUS
 10
345.9533198353
 20
250.7657420768
 11
345.7079477605
 21
250.8346789196
  0
LINE
  5
2BB
100
AcDbEntity
  8
0
100
AcDbLine
 62
7
  6
CONTINUOUS
 10
326.7797003217
 20
247.8308852514
 11
327.2282637406
 21
247.702188783
  0
LINE
  5
2BC
100
AcDbEntity
  8
0
100
AcDbLine
 62
7
  6
CONTINUOUS
 10
308.0159965095
 20
257.5132802494
 11
308.4957969353
 21
257.3698916164
  0
LINE
  5
2BD
100
AcDbEntity
  8
0
100
AcDbLine
 62
7
  6
CONTINUOUS
 10
323.6692268893
 20
253.4487639983
 11
324.1582476179
 21
253.30167001
  0
LINE
  5
2BE
100
AcDbEntity
  8
0
100
AcDbLine
 62
7
  6
CONTINUOUS
 10
344.7814365934
 20
247.8400624686
 11
345.12060586
 21
247.7352353821
  0
LINE
  5
2BF
100
AcDbEntity
  8
0
100
AcDbLine
 62
7
  6
CONTINUOUS
 10
332.3681947393
 20
250.7279991553
 11
332.1475968424
 21
250.7978838797
  0
LINE
  5
2C0
100
AcDbEntity
  8
0
100
AcDbLine
 62
7
  6
CONTINUOUS
 10
331.9490587351
 20
250.3088631512
 11
332.1733619874
 21
250.2353592425
  0
LINE
  5
2C1
100
AcDbEntity
  8
0
100
AcDbLine
 62
7
  6
CONTINUOUS
 10
316.4778216202
 20
253.9488146217
 11
316.0917753006
 21
254.0811302743
  0
LINE
  5
2C2
100
AcDbEntity
  8
0
100
AcDbLine
 62
7
  6
CONTINUOUS
 10
307.2825085022
 20
254.4028499025
 11
306.7420436547
 21
254.5903581149
  0
LINE
  5
2C3
100
AcDbEntity
  8
0
100
AcDbLine
 62
7
  6
CONTINUOUS
 10
331.5887344749
 20
248.2610080649
 11
331.2946326694
 21
248.3639393883
  0
LINE
  5
2C4
100
AcDbEntity
  8
0
100
AcDbLine
 62
7
  6
CONTINUOUS
 10
299.7601202166
 20
254.7227168531
 11
299.0817816835
 21
254.9708894872
  0
LINE
  5
2C5
100
AcDbEntity
  8
0
100
AcDbLine
 62
7
  6
CONTINUOUS
 10
299.5340073722
 20
256.7246427678
 11
299.9862330611
 21
256.5536793976
  0
LINE
  5
2C6
100
AcDbEntity
  8
0
100
AcDbLine
 62
7
  6
CONTINUOUS
 10
311.076835415
 20
246.8124726558
 11
311.4775738993
 21
246.6359943382
  0
LINE
  5
2C7
100
AcDbEntity
  8
0
100
AcDbLine
 62
7
  6
CONTINUOUS
 10
210.5934574503
 20
304.431962036
 11
210.5934574503
 21
328.2647058824
  0
LINE
  5
2C8
100
AcDbEntity
  8
0
100
AcDbLine
 62
7
  6
CONTINUOUS
 10
333.9094071165
 20
257.6162115728
 11
334.1569334676
 21
257.5424060655
  0
LINE
  5
2C9
100
AcDbEntity
  8
0
100
AcDbLine
 62
7
  6
CONTINUOUS
 10
346.5792663679
 20
257.1934132988
 11
346.827439002
 21
257.1189399658
  0
LINE
  5
2CA
100
AcDbEntity
  8
0
100
AcDbLine
 62
7
  6
CONTINUOUS
 10
338.6551917165
 20
253.4487639983
 11
339.1442124451
 21
253.30167001
  0
LINE
  5
2CB
100
AcDbEntity
  8
0
100
AcDbLine
 62
7
  6
CONTINUOUS
 10
325.8678813192
 20
258.5629298519
 11
325.5443090209
 21
258.6695665281
  0
LINE
  5
2CC
100
AcDbEntity
  8
0
100
AcDbLine
 62
7
  6
CONTINUOUS
 10
340.8538461464
 20
258.5629298519
 11
340.5302738405
 21
258.6695665306
  0
LINE
  5
2CD
100
AcDbEntity
  8
0
100
AcDbLine
 62
7
  6
CONTINUOUS
 10
309.0858963097
 20
258.3684417842
 11
308.3857995855
 21
258.6003927174
  0
LINE
  5
2CE
100
AcDbEntity
  8
0
100
AcDbLine
 62
7
  6
CONTINUOUS
 10
320.1892950738
 20
258.5960626168
 11
319.7697712845
 21
258.7386972583
  0
LINE
  5
2CF
100
AcDbEntity
  8
0
100
AcDbLine
 62
7
  6
CONTINUOUS
 10
346.2649574503
 20
250.658200602
 11
345.9533198353
 21
250.7657420768
  0
LINE
  5
2D0
100
AcDbEntity
  8
0
100
AcDbLine
 62
7
  6
CONTINUOUS
 10
325.0588643835
 20
254.1950914926
 11
324.4818199237
 21
254.3973564979
  0
LINE
  5
2D1
100
AcDbEntity
  8
0
100
AcDbLine
 62
7
  6
CONTINUOUS
 10
340.0448292106
 20
254.1950914926
 11
339.4677847509
 21
254.3973564979
  0
LINE
  5
2D2
100
AcDbEntity
  8
0
100
AcDbLine
 62
7
  6
CONTINUOUS
 10
302.0653882334
 20
259.6973223983
 11
302.5672507417
 21
259.5207898936
  0
LINE
  5
2D3
100
AcDbEntity
  8
0
100
AcDbLine
 62
7
  6
CONTINUOUS
 10
327.9893264851
 20
250.6912902866
 11
327.5941029482
 21
250.8310166498
  0
LINE
  5
2D4
100
AcDbEntity
  8
0
100
AcDbLine
 62
7
  6
CONTINUOUS
 10
325.1840709242
 20
257.7541068011
 11
325.3752414064
 21
257.6842220767
  0
LINE
  5
2D5
100
AcDbEntity
  8
0
100
AcDbLine
 62
7
  6
CONTINUOUS
 10
301.8006687489
 20
257.9766008145
 11
300.874264197
 21
258.3187303403
  0
LINE
  5
2D6
100
AcDbEntity
  8
0
100
AcDbLine
 62
7
  6
CONTINUOUS
 10
303.4330807736
 20
260.6990666836
 11
302.4183250263
 21
261.0740839469
  0
LINE
  5
2D7
100
AcDbEntity
  8
0
100
AcDbLine
 62
7
  6
CONTINUOUS
 10
332.1402292173
 20
253.3825846292
 11
332.4270064833
 21
253.275991036
  0
LINE
  5
2D8
100
AcDbEntity
  8
0
100
AcDbLine
 62
7
  6
CONTINUOUS
 10
345.6996322539
 20
250.3080014406
 11
346.0140273426
 21
250.189430071
  0
LINE
  5
2D9
100
AcDbEntity
  8
0
100
AcDbLine
 62
7
  6
CONTINUOUS
 10
327.324646064
 20
248.2610511505
 11
327.0334309887
 21
248.3713500989
  0
LINE
  5
2DA
100
AcDbEntity
  8
0
100
AcDbLine
 62
7
  6
CONTINUOUS
 10
333.2744557089
 20
254.3288720531
 11
332.9946152125
 21
254.4349701628
  0
LINE
  5
2DB
100
AcDbEntity
  8
0
100
AcDbLine
 62
7
  6
CONTINUOUS
 10
308.4957969353
 20
257.3698916164
 11
309.0858963097
 21
257.143778772
  0
LINE
  5
2DC
100
AcDbEntity
  8
0
100
AcDbLine
 62
7
  6
CONTINUOUS
 10
345.3136290198
 20
248.2564409991
 11
345.0213368063
 21
248.372254895
  0
LINE
  5
2DD
100
AcDbEntity
  8
0
100
AcDbLine
 62
7
  6
CONTINUOUS
 10
339.3850605396
 20
250.2749117561
 11
339.5587813834
 21
250.2059749133
  0
LINE
  5
2DE
100
AcDbEntity
  8
0
100
AcDbLine
 62
7
  6
CONTINUOUS
 10
316.5460690946
 20
254.8936802232
 11
316.9888159674
 21
254.7172019057
  0
LINE
  5
2DF
100
AcDbEntity
  8
0
100
AcDbLine
 62
7
  6
CONTINUOUS
 10
300.6011281602
 20
256.3055067619
 11
301.2987905477
 21
256.024244445
  0
LINE
  5
2E0
100
AcDbEntity
  8
0
100
AcDbLine
 62
7
  6
CONTINUOUS
 10
299.9862330611
 20
256.5536793976
 11
300.6011281602
 21
256.3055067619
  0
LINE
  5
2E1
100
AcDbEntity
  8
0
100
AcDbLine
 62
7
  6
CONTINUOUS
 10
305.5011804843
 20
253.6197273682
 11
306.116377178
 21
253.365608931
  0
LINE
  5
2E2
100
AcDbEntity
  8
0
100
AcDbLine
 62
7
  6
CONTINUOUS
 10
302.5672507417
 20
259.5207898936
 11
303.4330807736
 21
259.1549087201
  0
LINE
  5
2E3
100
AcDbEntity
  8
0
100
AcDbLine
 62
7
  6
CONTINUOUS
 10
300.874264197
 20
258.3187303403
 11
300.240345035
 21
258.5947388983
  0
LINE
  5
2E4
100
AcDbEntity
  8
0
100
AcDbLine
 62
7
  6
CONTINUOUS
 10
312.8085073632
 20
257.5114491145
 11
313.0437974248
 21
257.4084747056
  0
LINE
  5
2E5
100
AcDbEntity
  8
0
100
AcDbLine
 62
7
  6
CONTINUOUS
 10
297.9126128297
 20
253.9395943188
 11
299.0100873669
 21
253.4487639979
  0
LINE
  5
2E6
100
AcDbEntity
  8
0
100
AcDbLine
 62
7
  6
CONTINUOUS
 10
298.9990574721
 20
256.9728154019
 11
299.5340073722
 21
256.7246427678
  0
LINE
  5
2E7
100
AcDbEntity
  8
0
100
AcDbLine
 62
7
  6
CONTINUOUS
 10
316.7939832155
 20
253.8017206334
 11
316.4778216202
 21
253.9488146217
  0
LINE
  5
2E8
100
AcDbEntity
  8
0
100
AcDbLine
 62
7
  6
CONTINUOUS
 10
302.2584063056
 20
257.7614867097
 11
301.8006687489
 21
257.9766008145
  0
LINE
  5
2E9
100
AcDbEntity
  8
0
100
AcDbLine
 62
7
  6
CONTINUOUS
 10
302.808038956
 20
257.4820172326
 11
302.2584063056
 21
257.7614867097
  0
LINE
  5
2EA
100
AcDbEntity
  8
0
100
AcDbLine
 62
7
  6
CONTINUOUS
 10
299.0817816835
 20
254.9708894872
 11
297.9126128297
 21
255.6271682306
  0
LINE
  5
2EB
100
AcDbEntity
  8
0
100
AcDbLine
 62
7
  6
CONTINUOUS
 10
209.828174344
 20
304.3087383405
 11
136.6234574503
 21
300.6047407528
  0
LINE
  5
2EC
100
AcDbEntity
  8
0
100
AcDbLine
 62
7
  6
CONTINUOUS
 10
210.5934574503
 20
307.4147058824
 11
101.2934574503
 21
307.4147058824
  0
LINE
  5
2ED
100
AcDbEntity
  8
0
100
AcDbLine
 62
7
  6
CONTINUOUS
 10
340.1700357514
 20
257.7541068011
 11
340.3612062335
 21
257.6842220767
  0
LINE
  5
2EE
100
AcDbEntity
  8
0
100
AcDbLine
 62
7
  6
CONTINUOUS
 10
347.4313257449
 20
258.5638561908
 11
347.0011598458
 21
258.7403345083
  0
LINE
  5
2EF
100
AcDbEntity
  8
0
100
AcDbLine
 62
7
  6
CONTINUOUS
 10
334.1569334676
 20
257.5424060655
 11
334.3337133839
 21
257.4685790154
  0
LINE
  5
2F0
100
AcDbEntity
  8
0
100
AcDbLine
 62
7
  6
CONTINUOUS
 10
342.2822606145
 20
251.9670527335
 11
342.210566298
 21
251.9982897404
  0
LINE
  5
2F1
100
AcDbEntity
  8
0
100
AcDbLine
 62
7
  6
CONTINUOUS
 10
339.9172529659
 20
250.6940477603
 11
339.6029009628
 21
250.8346789196
  0
LINE
  5
2F2
100
AcDbEntity
  8
0
100
AcDbLine
 62
7
  6
CONTINUOUS
 10
334.5043320698
 20
258.4269303868
 11
334.044738756
 21
258.6328361191
  0
LINE
  5
2F3
100
AcDbEntity
  8
0
100
AcDbLine
 62
7
  6
CONTINUOUS
 10
335.0392819699
 20
247.9007268903
 11
335.4114978355
 21
247.7297635202
  0
LINE
  5
2F4
100
AcDbEntity
  8
0
100
AcDbLine
 62
7
  6
CONTINUOUS
 10
332.1733619874
 20
250.2353592425
 11
332.3939598843
 21
250.1287225638
  0
LINE
  5
2F5
100
AcDbEntity
  8
0
100
AcDbLine
 62
7
  6
CONTINUOUS
 10
319.0514063038
 20
257.6144019806
 11
319.2619868158
 21
257.5114275717
  0
LINE
  5
2F6
100
AcDbEntity
  8
0
100
AcDbLine
 62
7
  6
CONTINUOUS
 10
332.5704382018
 20
250.6287301017
 11
332.3681947393
 21
250.7279991553
  0
LINE
  5
2F7
100
AcDbEntity
  8
0
100
AcDbLine
 62
7
  6
CONTINUOUS
 10
323.1728816211
 20
253.6951054975
 11
323.6692268893
 21
253.4487639983
  0
LINE
  5
2F8
100
AcDbEntity
  8
0
100
AcDbLine
 62
7
  6
CONTINUOUS
 10
338.1588464482
 20
253.6951054975
 11
338.6551917165
 21
253.4487639983
  0
LINE
  5
2F9
100
AcDbEntity
  8
0
100
AcDbLine
 62
7
  6
CONTINUOUS
 10
326.3568589622
 20
258.3166098956
 11
325.8678813192
 21
258.5629298519
  0
LINE
  5
2FA
100
AcDbEntity
  8
0
100
AcDbLine
 62
7
  6
CONTINUOUS
 10
327.5552398031
 20
250.3445810528
 11
327.6985853506
 21
250.2718957692
  0
LINE
  5
2FB
100
AcDbEntity
  8
0
100
AcDbLine
 62
7
  6
CONTINUOUS
 10
331.7541828974
 20
253.5848280919
 11
332.1402292173
 21
253.3825846292
  0
LINE
  5
2FC
100
AcDbEntity
  8
0
100
AcDbLine
 62
7
  6
CONTINUOUS
 10
314.4629915903
 20
258.3497211228
 11
314.0328256911
 21
258.5960410793
  0
LINE
  5
2FD
100
AcDbEntity
  8
0
100
AcDbLine
 62
7
  6
CONTINUOUS
 10
300.240345035
 20
258.5947388983
 11
299.9763614772
 21
258.7654553463
  0
LINE
  5
2FE
100
AcDbEntity
  8
0
100
AcDbLine
 62
7
  6
CONTINUOUS
 10
310.7533061947
 20
247.0330705527
 11
311.076835415
 21
246.8124726558
  0
LINE
  5
2FF
100
AcDbEntity
  8
0
100
AcDbLine
 62
7
  6
CONTINUOUS
 10
305.0324099533
 20
253.9395943189
 11
305.5011804843
 21
253.6197273682
  0
LINE
  5
300
100
AcDbEntity
  8
0
100
AcDbLine
 62
7
  6
CONTINUOUS
 10
298.5358018885
 20
257.2926823524
 11
298.9990574721
 21
256.9728154019
  0
LINE
  5
301
100
AcDbEntity
  8
0
100
AcDbLine
 62
7
  6
CONTINUOUS
 10
210.5934574503
 20
314.5614934364
 11
223.3359567009
 21
314.5614934364
  0
LINE
  5
302
100
AcDbEntity
  8
0
100
AcDbLine
 62
7
  6
CONTINUOUS
 10
360.5934574503
 20
319.6947058824
 11
224.5927786873
 21
319.6947058824
  0
LINE
  5
303
100
AcDbEntity
  8
0
100
AcDbLine
 62
7
  6
CONTINUOUS
 10
85.7934574503
 20
322.7647058824
 11
89.2934574503
 21
322.7647058824
  0
LINE
  5
304
100
AcDbEntity
  8
0
100
AcDbLine
 62
7
  6
CONTINUOUS
 10
89.2934574503
 20
325.2647058824
 11
210.5934574503
 21
325.2647058824
  0
LINE
  5
305
100
AcDbEntity
  8
0
100
AcDbLine
 62
7
  6
CONTINUOUS
 10
341.3428237893
 20
258.3166098956
 11
340.8538461464
 21
258.5629298519
  0
LINE
  5
306
100
AcDbEntity
  8
0
100
AcDbLine
 62
7
  6
CONTINUOUS
 10
346.827439002
 20
257.1189399658
 11
347.4368406923
 21
256.7990730153
  0
LINE
  5
307
100
AcDbEntity
  8
0
100
AcDbLine
 62
7
  6
CONTINUOUS
 10
344.5249484527
 20
247.9779361542
 11
344.7814365934
 21
247.8400624686
  0
LINE
  5
308
100
AcDbEntity
  8
0
100
AcDbLine
 62
7
  6
CONTINUOUS
 10
339.5587813834
 20
250.2059749133
 11
339.696655069
 21
250.1287656494
  0
LINE
  5
309
100
AcDbEntity
  8
0
100
AcDbLine
 62
7
  6
CONTINUOUS
 10
329.8496733589
 20
261.103511022
 11
329.5371740334
 21
261.2836516094
  0
LINE
  5
30A
100
AcDbEntity
  8
0
100
AcDbLine
 62
7
  6
CONTINUOUS
 10
334.3337133839
 20
257.4685790154
 11
334.5759833008
 21
257.3256427804
  0
LINE
  5
30B
100
AcDbEntity
  8
0
100
AcDbLine
 62
7
  6
CONTINUOUS
 10
325.3752414064
 20
257.6842220767
 11
325.6105314679
 21
257.544538799
  0
LINE
  5
30C
100
AcDbEntity
  8
0
100
AcDbLine
 62
7
  6
CONTINUOUS
 10
320.5973150034
 20
258.3496995801
 11
320.1892950738
 21
258.5960626168
  0
LINE
  5
30D
100
AcDbEntity
  8
0
100
AcDbLine
 62
7
  6
CONTINUOUS
 10
330.6990183476
 20
248.0551023326
 11
331.0628325355
 21
247.8289894883
  0
LINE
  5
30E
100
AcDbEntity
  8
0
100
AcDbLine
 62
7
  6
CONTINUOUS
 10
332.3939598843
 20
250.1287225638
 11
332.5704382018
 21
250.0184236154
  0
LINE
  5
30F
100
AcDbEntity
  8
0
100
AcDbLine
 62
7
  6
CONTINUOUS
 10
328.2577062312
 20
259.651227172
 11
328.5738678264
 21
259.4526890648
  0
LINE
  5
310
100
AcDbEntity
  8
0
100
AcDbLine
 62
7
  6
CONTINUOUS
 10
335.5962916597
 20
248.2205938409
 11
335.4225277303
 21
248.3336071775
  0
LINE
  5
311
100
AcDbEntity
  8
0
100
AcDbLine
 62
7
  6
CONTINUOUS
 10
316.9888159674
 20
254.7172019057
 11
317.6028278091
 21
254.2980659015
  0
LINE
  5
312
100
AcDbEntity
  8
0
100
AcDbLine
 62
7
  6
CONTINUOUS
 10
326.4598333711
 20
248.0514831484
 11
326.7797003217
 21
247.8308852514
  0
LINE
  5
313
100
AcDbEntity
  8
0
100
AcDbLine
 62
7
  6
CONTINUOUS
 10
328.2356464415
 20
250.514811969
 11
327.9893264851
 21
250.6912902866
  0
LINE
  5
314
100
AcDbEntity
  8
0
100
AcDbLine
 62
7
  6
CONTINUOUS
 10
327.0334309887
 20
248.3713500989
 11
326.8495850461
 21
248.5037088371
  0
LINE
  5
315
100
AcDbEntity
  8
0
100
AcDbLine
 62
7
  6
CONTINUOUS
 10
317.1873971602
 20
253.5149433674
 11
316.7939832155
 21
253.8017206334
  0
LINE
  5
316
100
AcDbEntity
  8
0
100
AcDbLine
 62
7
  6
CONTINUOUS
 10
331.2946326694
 20
248.3639393883
 11
331.0887269371
 21
248.5146956464
  0
LINE
  5
317
100
AcDbEntity
  8
0
100
AcDbLine
 62
7
  6
CONTINUOUS
 10
301.2987905477
 20
256.024244445
 11
301.5524781292
 21
255.8367362326
  0
LINE
  5
318
100
AcDbEntity
  8
0
100
AcDbLine
 62
7
  6
CONTINUOUS
 10
306.7420436547
 20
254.5903581149
 11
306.3504823876
 21
254.8936802232
  0
LINE
  5
319
100
AcDbEntity
  8
0
100
AcDbLine
 62
7
  6
CONTINUOUS
 10
303.3338093336
 20
257.0187505709
 11
302.808038956
 21
257.4820172326
  0
LINE
  5
31A
100
AcDbEntity
  8
0
100
AcDbLine
 62
7
  6
CONTINUOUS
 10
210.5934574503
 20
326.8145513425
 11
222.5490161154
 21
326.8145513425
  0
LINE
  5
31B
100
AcDbEntity
  8
0
100
AcDbLine
 62
7
  6
CONTINUOUS
 10
210.5934574503
 20
328.2647058824
 11
221.8759573599
 21
328.2647058824
  0
LINE
  5
31C
100
AcDbEntity
  8
0
100
AcDbLine
 62
7
  6
CONTINUOUS
 10
360.5934574503
 20
334.6947058824
 11
213.6440008613
 21
334.6947058824
  0
LINE
  5
31D
100
AcDbEntity
  8
0
100
AcDbLine
 62
7
  6
CONTINUOUS
 10
159.5934574503
 20
338.003978539
 11
209.856209943
 21
335.3698193002
  0
LINE
  5
31E
100
AcDbEntity
  8
0
100
AcDbLine
 62
7
  6
CONTINUOUS
 10
149.5934848717
 20
338.527005557
 11
159.593471161
 21
338.003452433
  0
LINE
  5
31F
100
AcDbEntity
  8
0
100
AcDbLine
 62
7
  6
CONTINUOUS
 10
340.3612062335
 20
257.6842220767
 11
340.5964962951
 21
257.544538799
  0
LINE
  5
320
100
AcDbEntity
  8
0
100
AcDbLine
 62
7
  6
CONTINUOUS
 10
346.0140273426
 20
250.189430071
 11
346.2649574503
 21
250.0239816483
  0
LINE
  5
321
100
AcDbEntity
  8
0
100
AcDbLine
 62
7
  6
CONTINUOUS
 10
347.869764065
 20
258.2743429938
 11
347.4313257449
 21
258.5638561908
  0
LINE
  5
322
100
AcDbEntity
  8
0
100
AcDbLine
 62
7
  6
CONTINUOUS
 10
332.9946152125
 20
254.4349701628
 11
332.7486830261
 21
254.6133442433
  0
LINE
  5
323
100
AcDbEntity
  8
0
100
AcDbLine
 62
7
  6
CONTINUOUS
 10
340.1571531789
 20
250.514811969
 11
339.9172529659
 21
250.6940477603
  0
LINE
  5
324
100
AcDbEntity
  8
0
100
AcDbLine
 62
7
  6
CONTINUOUS
 10
319.2619868158
 20
257.5114275717
 11
319.4080252087
 21
257.4011286232
  0
LINE
  5
325
100
AcDbEntity
  8
0
100
AcDbLine
 62
7
  6
CONTINUOUS
 10
324.4818199237
 20
254.3973564979
 11
324.1030981437
 21
254.6841337639
  0
LINE
  5
326
100
AcDbEntity
  8
0
100
AcDbLine
 62
7
  6
CONTINUOUS
 10
339.4677847509
 20
254.3973564979
 11
339.0890629708
 21
254.6841337639
  0
LINE
  5
327
100
AcDbEntity
  8
0
100
AcDbLine
 62
7
  6
CONTINUOUS
 10
345.0213368063
 20
248.372254895
 11
344.7455463496
 21
248.5818228971
  0
LINE
  5
328
100
AcDbEntity
  8
0
100
AcDbLine
 62
7
  6
CONTINUOUS
 10
322.7206559325
 20
254.0480621325
 11
323.1728816211
 21
253.6951054975
  0
LINE
  5
329
100
AcDbEntity
  8
0
100
AcDbLine
 62
7
  6
CONTINUOUS
 10
337.7066207597
 20
254.0480621325
 11
338.1588464482
 21
253.6951054975
  0
LINE
  5
32A
100
AcDbEntity
  8
0
100
AcDbLine
 62
7
  6
CONTINUOUS
 10
326.6694013732
 20
258.0702899391
 11
326.3568589622
 21
258.3166098956
  0
LINE
  5
32B
100
AcDbEntity
  8
0
100
AcDbLine
 62
7
  6
CONTINUOUS
 10
331.4416835723
 20
253.8311265053
 11
331.7541828974
 21
253.5848280919
  0
LINE
  5
32C
100
AcDbEntity
  8
0
100
AcDbLine
 62
7
  6
CONTINUOUS
 10
327.6985853506
 20
250.2718957692
 11
327.9125911619
 21
250.0922291227
  0
LINE
  5
32D
100
AcDbEntity
  8
0
100
AcDbLine
 62
7
  6
CONTINUOUS
 10
298.2214498854
 20
257.6125493029
 11
298.5358018885
 21
257.2926823524
  0
LINE
  5
32E
100
AcDbEntity
  8
0
100
AcDbLine
 62
7
  6
CONTINUOUS
 10
310.4738534682
 20
247.3382022531
 11
310.7533061947
 21
247.0330705527
  0
LINE
  5
32F
100
AcDbEntity
  8
0
100
AcDbLine
 62
7
  6
CONTINUOUS
 10
304.6518785812
 20
254.3697602179
 11
305.0324099533
 21
253.9395943189
  0
LINE
  5
330
100
AcDbEntity
  8
0
100
AcDbLine
 62
7
  6
CONTINUOUS
 10
301.5524781292
 20
255.8367362326
 11
301.7124116045
 21
255.6492280202
  0
LINE
  5
331
100
AcDbEntity
  8
0
100
AcDbLine
 62
7
  6
CONTINUOUS
 10
364.5934574503
 20
345.5647058824
 11
385.2934574503
 21
345.5647058824
  0
LINE
  5
332
100
AcDbEntity
  8
0
100
AcDbLine
 62
7
  6
CONTINUOUS
 10
154.8934574503
 20
348.7647058824
 11
165.3934574503
 21
348.7647058824
  0
LINE
  5
333
100
AcDbEntity
  8
0
100
AcDbLine
 62
7
  6
CONTINUOUS
 10
341.6553662004
 20
258.0702899391
 11
341.3428237893
 21
258.3166098956
  0
LINE
  5
334
100
AcDbEntity
  8
0
100
AcDbLine
 62
7
  6
CONTINUOUS
 10
344.3264103455
 20
248.1488564388
 11
344.5249484527
 21
247.9779361542
  0
LINE
  5
335
100
AcDbEntity
  8
0
100
AcDbLine
 62
7
  6
CONTINUOUS
 10
341.7822099911
 20
251.4321028334
 11
341.8539043076
 21
251.3695857341
  0
LINE
  5
336
100
AcDbEntity
  8
0
100
AcDbLine
 62
7
  6
CONTINUOUS
 10
320.9460707997
 20
258.0004483003
 11
320.5973150034
 21
258.3496995801
  0
LINE
  5
337
100
AcDbEntity
  8
0
100
AcDbLine
 62
7
  6
CONTINUOUS
 10
313.0437974248
 20
257.4084747056
 11
313.2974850064
 21
257.1474625844
  0
LINE
  5
338
100
AcDbEntity
  8
0
100
AcDbLine
 62
7
  6
CONTINUOUS
 10
314.7791531855
 20
258.0004267575
 11
314.4629915903
 21
258.3497211228
  0
LINE
  5
339
100
AcDbEntity
  8
0
100
AcDbLine
 62
7
  6
CONTINUOUS
 10
326.8495850461
 20
248.5037088371
 11
326.6731067285
 21
248.7095714839
  0
LINE
  5
33A
100
AcDbEntity
  8
0
100
AcDbLine
 62
7
  6
CONTINUOUS
 10
317.503601841
 20
253.1288970477
 11
317.1873971602
 21
253.5149433674
  0
LINE
  5
33B
100
AcDbEntity
  8
0
100
AcDbLine
 62
7
  6
CONTINUOUS
 10
299.9763614772
 20
258.7654553463
 11
299.7849272775
 21
259.0451652366
  0
LINE
  5
33C
100
AcDbEntity
  8
0
100
AcDbLine
 62
7
  6
CONTINUOUS
 10
297.9401875667
 20
258.0592600443
 11
298.2214498854
 21
257.6125493029
  0
LINE
  5
33D
100
AcDbEntity
  8
0
100
AcDbLine
 62
7
  6
CONTINUOUS
 10
230.7034574503
 20
366.2647058824
 11
165.3934574503
 21
348.7647058824
  0
LINE
  5
33E
100
AcDbEntity
  8
0
100
AcDbLine
 62
7
  6
CONTINUOUS
 10
364.5934574503
 20
353.4647058824
 11
360.5934574503
 21
353.4647058824
  0
LINE
  5
33F
100
AcDbEntity
  8
0
100
AcDbLine
 62
7
  6
CONTINUOUS
 10
308.2934574503
 20
353.7647058824
 11
360.5934574503
 21
353.7647058824
  0
LINE
  5
340
100
AcDbEntity
  8
0
100
AcDbLine
 62
7
  6
CONTINUOUS
 10
339.696655069
 20
250.1287656494
 11
339.8290138072
 21
249.9936494375
  0
LINE
  5
341
100
AcDbEntity
  8
0
100
AcDbLine
 62
7
  6
CONTINUOUS
 10
342.3521022534
 20
251.895358417
 11
342.2822606145
 21
251.9670527335
  0
LINE
  5
342
100
AcDbEntity
  8
0
100
AcDbLine
 62
7
  6
CONTINUOUS
 10
326.9929305936
 20
257.7209955738
 11
326.6694013732
 21
258.0702899391
  0
LINE
  5
343
100
AcDbEntity
  8
0
100
AcDbLine
 62
7
  6
CONTINUOUS
 10
341.7142210299
 20
251.5056498276
 11
341.7822099911
 21
251.4321028334
  0
LINE
  5
344
100
AcDbEntity
  8
0
100
AcDbLine
 62
7
  6
CONTINUOUS
 10
325.6105314679
 20
257.544538799
 11
325.8973087339
 21
257.2173042234
  0
LINE
  5
345
100
AcDbEntity
  8
0
100
AcDbLine
 62
7
  6
CONTINUOUS
 10
330.5188346748
 20
248.2610080649
 11
330.6990183476
 21
248.0551023326
  0
LINE
  5
346
100
AcDbEntity
  8
0
100
AcDbLine
 62
7
  6
CONTINUOUS
 10
334.832428356
 20
248.1433845769
 11
335.0392819699
 21
247.9007268903
  0
LINE
  5
347
100
AcDbEntity
  8
0
100
AcDbLine
 62
7
  6
CONTINUOUS
 10
331.0409450879
 20
254.3274717735
 11
331.4416835723
 21
253.8311265053
  0
LINE
  5
348
100
AcDbEntity
  8
0
100
AcDbLine
 62
7
  6
CONTINUOUS
 10
326.2171756845
 20
248.352952579
 11
326.4598333711
 21
248.0514831484
  0
LINE
  5
349
100
AcDbEntity
  8
0
100
AcDbLine
 62
7
  6
CONTINUOUS
 10
332.7486830261
 20
254.6133442433
 11
332.498140688
 21
254.931573944
  0
LINE
  5
34A
100
AcDbEntity
  8
0
100
AcDbLine
 62
7
  6
CONTINUOUS
 10
322.3714046527
 20
254.4928986534
 11
322.7206559325
 21
254.0480621325
  0
LINE
  5
34B
100
AcDbEntity
  8
0
100
AcDbLine
 62
7
  6
CONTINUOUS
 10
331.0887269371
 20
248.5146956464
 11
330.9085863497
 21
248.757353333
  0
LINE
  5
34C
100
AcDbEntity
  8
0
100
AcDbLine
 62
7
  6
CONTINUOUS
 10
328.4415521738
 20
250.2317400583
 11
328.2356464415
 21
250.514811969
  0
LINE
  5
34D
100
AcDbEntity
  8
0
100
AcDbLine
 62
7
  6
CONTINUOUS
 10
306.3504823876
 20
254.8936802232
 11
306.0857649113
 21
255.3183311748
  0
LINE
  5
34E
100
AcDbEntity
  8
0
100
AcDbLine
 62
7
  6
CONTINUOUS
 10
310.2642854661
 20
247.6911588882
 11
310.4738534682
 21
247.3382022531
  0
LINE
  5
34F
100
AcDbEntity
  8
0
100
AcDbLine
 62
7
  6
CONTINUOUS
 10
303.6279531661
 20
256.5187389441
 11
303.3338093336
 21
257.0187505709
  0
LINE
  5
350
100
AcDbEntity
  8
0
100
AcDbLine
 62
7
  6
CONTINUOUS
 10
304.4037059471
 20
254.8275008541
 11
304.6518785812
 21
254.3697602179
  0
LINE
  5
351
100
AcDbEntity
  8
0
100
AcDbLine
 62
7
  6
CONTINUOUS
 10
318.9659461547
 20
258.7386972583
 11
318.4911221255
 21
258.5629729442
  0
LINE
  5
352
100
AcDbEntity
  8
0
100
AcDbLine
 62
7
  6
CONTINUOUS
 10
299.6240992079
 20
261.1696904151
 11
298.9328781015
 21
260.9196650875
  0
LINE
  5
353
100
AcDbEntity
  8
0
100
AcDbLine
 62
7
  6
CONTINUOUS
 10
309.0858963097
 20
254.7558065376
 11
308.5730061992
 21
254.5793282201
  0
LINE
  5
354
100
AcDbEntity
  8
0
100
AcDbLine
 62
7
  6
CONTINUOUS
 10
314.0401502293
 20
254.7245479875
 11
314.5695851833
 21
254.8936586804
  0
LINE
  5
355
100
AcDbEntity
  8
0
100
AcDbLine
 62
7
  6
CONTINUOUS
 10
308.3689531447
 20
253.3329501015
 11
309.0858963097
 21
253.5590629463
  0
LINE
  5
356
100
AcDbEntity
  8
0
100
AcDbLine
 62
7
  6
CONTINUOUS
 10
312.8758996516
 20
258.7382857245
 11
312.3121620951
 21
258.5629513947
  0
LINE
  5
357
100
AcDbEntity
  8
0
100
AcDbLine
 62
7
  6
CONTINUOUS
 10
314.4556670507
 20
252.5038553112
 11
314.7534742116
 21
252.5957998253
  0
LINE
  5
358
100
AcDbEntity
  8
0
100
AcDbLine
 62
7
  6
CONTINUOUS
 10
333.0622164041
 20
257.5424060654
 11
333.3113369198
 21
257.6162115728
  0
LINE
  5
359
100
AcDbEntity
  8
0
100
AcDbLine
 62
7
  6
CONTINUOUS
 10
306.7254988124
 20
258.7375985774
 11
305.8651670136
 21
258.4894259431
  0
LINE
  5
35A
100
AcDbEntity
  8
0
100
AcDbLine
 62
7
  6
CONTINUOUS
 10
156.5934574503
 20
358.0980498083
 11
149.5934574503
 21
357.1764823252
  0
LINE
  5
35B
100
AcDbEntity
  8
0
100
AcDbLine
 62
7
  6
CONTINUOUS
 10
230.7034574503
 20
366.2647058824
 11
295.7934574503
 21
366.2647058824
  0
LINE
  5
35C
100
AcDbEntity
  8
0
100
AcDbLine
 62
7
  6
CONTINUOUS
 10
364.5934574503
 20
374.2647058824
 11
159.5934574503
 21
374.2647058824
  0
LINE
  5
35D
100
AcDbEntity
  8
0
100
AcDbLine
 62
7
  6
CONTINUOUS
 10
341.9788954207
 20
257.7209955738
 11
341.6553662004
 21
258.0702899391
  0
LINE
  5
35E
100
AcDbEntity
  8
0
100
AcDbLine
 62
7
  6
CONTINUOUS
 10
340.5964962951
 20
257.544538799
 11
340.8832735611
 21
257.2173042234
  0
LINE
  5
35F
100
AcDbEntity
  8
0
100
AcDbLine
 62
7
  6
CONTINUOUS
 10
337.3573694799
 20
254.4928986534
 11
337.7066207597
 21
254.0480621325
  0
LINE
  5
360
100
AcDbEntity
  8
0
100
AcDbLine
 62
7
  6
CONTINUOUS
 10
344.1499320279
 20
248.3943146847
 11
344.3264103455
 21
248.1488564388
  0
LINE
  5
361
100
AcDbEntity
  8
0
100
AcDbLine
 62
7
  6
CONTINUOUS
 10
328.125347493
 20
259.8571329043
 11
328.2577062312
 21
259.651227172
  0
LINE
  5
362
100
AcDbEntity
  8
0
100
AcDbLine
 62
7
  6
CONTINUOUS
 10
335.4225277303
 20
248.3336071775
 11
335.287454604
 21
248.5459757388
  0
LINE
  5
363
100
AcDbEntity
  8
0
100
AcDbLine
 62
7
  6
CONTINUOUS
 10
327.22085303
 20
257.3606928564
 11
326.9929305936
 21
257.7209955738
  0
LINE
  5
364
100
AcDbEntity
  8
0
100
AcDbLine
 62
7
  6
CONTINUOUS
 10
324.1030981437
 20
254.6841337639
 11
323.8126586079
 21
255.1436624494
  0
LINE
  5
365
100
AcDbEntity
  8
0
100
AcDbLine
 62
7
  6
CONTINUOUS
 10
319.4080252087
 20
257.4011286232
 11
319.5521678384
 21
257.1474410418
  0
LINE
  5
366
100
AcDbEntity
  8
0
100
AcDbLine
 62
7
  6
CONTINUOUS
 10
330.3240019228
 20
248.6103024303
 11
330.5188346748
 21
248.2610080649
  0
LINE
  5
367
100
AcDbEntity
  8
0
100
AcDbLine
 62
7
  6
CONTINUOUS
 10
321.162446315
 20
257.6106966253
 11
320.9460707997
 21
258.0004483003
  0
LINE
  5
368
100
AcDbEntity
  8
0
100
AcDbLine
 62
7
  6
CONTINUOUS
 10
314.9924265429
 20
257.6107181681
 11
314.7791531855
 21
258.0004267575
  0
LINE
  5
369
100
AcDbEntity
  8
0
100
AcDbLine
 62
7
  6
CONTINUOUS
 10
326.6731067285
 20
248.7095714839
 11
326.5664700498
 21
248.9118149464
  0
LINE
  5
36A
100
AcDbEntity
  8
0
100
AcDbLine
 62
7
  6
CONTINUOUS
 10
327.9125911619
 20
250.0922291227
 11
328.0620117687
 21
249.8075630475
  0
LINE
  5
36B
100
AcDbEntity
  8
0
100
AcDbLine
 62
7
  6
CONTINUOUS
 10
317.7535840672
 20
252.5994620951
 11
317.503601841
 21
253.1288970477
  0
LINE
  5
36C
100
AcDbEntity
  8
0
100
AcDbLine
 62
7
  6
CONTINUOUS
 10
310.1135722936
 20
248.0845728329
 11
310.2642854661
 21
247.6911588882
  0
LINE
  5
36D
100
AcDbEntity
  8
0
100
AcDbLine
 62
7
  6
CONTINUOUS
 10
297.7692241963
 20
258.588694997
 11
297.9401875667
 21
258.0592600443
  0
LINE
  5
36E
100
AcDbEntity
  8
0
100
AcDbLine
 62
7
  6
CONTINUOUS
 10
301.7124116045
 20
255.6492280202
 11
301.7510162364
 21
255.5223842295
  0
LINE
  5
36F
100
AcDbEntity
  8
0
100
AcDbLine
 62
7
  6
CONTINUOUS
 10
304.194137945
 20
255.5223842295
 11
304.4037059471
 21
254.8275008541
  0
LINE
  5
370
100
AcDbEntity
  8
0
100
AcDbLine
 62
7
  6
CONTINUOUS
 10
303.8080923827
 20
255.9047258472
 11
303.6279531661
 21
256.5187389441
  0
LINE
  5
371
100
AcDbEntity
  8
0
100
AcDbLine
 62
7
  6
CONTINUOUS
 10
306.0857649113
 20
255.3183311748
 11
305.9864958576
 21
255.7043774945
  0
LINE
  5
372
100
AcDbEntity
  8
0
100
AcDbLine
 62
7
  6
CONTINUOUS
 10
297.7692241963
 20
259.4379969005
 11
297.7692241963
 21
258.588694997
  0
LINE
  5
373
100
AcDbEntity
  8
0
100
AcDbLine
 62
7
  6
CONTINUOUS
 10
297.9126128297
 20
255.6271682306
 11
297.9126128297
 21
253.9395943188
  0
LINE
  5
374
100
AcDbEntity
  8
0
100
AcDbLine
 62
7
  6
CONTINUOUS
 10
299.7849272775
 20
259.0451652366
 11
299.7849272775
 21
259.4145546307
  0
LINE
  5
375
100
AcDbEntity
  8
0
100
AcDbLine
 62
7
  6
CONTINUOUS
 10
301.7510162364
 20
255.5223842295
 11
301.7510162364
 21
255.163912647
  0
LINE
  5
376
100
AcDbEntity
  8
0
100
AcDbLine
 62
7
  6
CONTINUOUS
 10
303.4330807736
 20
259.1549087201
 11
303.4330807736
 21
260.6990666836
  0
LINE
  5
377
100
AcDbEntity
  8
0
100
AcDbLine
 62
7
  6
CONTINUOUS
 10
303.8080923827
 20
255.2649915181
 11
303.8080923827
 21
255.9047258472
  0
LINE
  5
378
100
AcDbEntity
  8
0
100
AcDbLine
 62
7
  6
CONTINUOUS
 10
304.194137945
 20
256.3606562379
 11
304.194137945
 21
255.5223842295
  0
LINE
  5
379
100
AcDbEntity
  8
0
100
AcDbLine
 62
7
  6
CONTINUOUS
 10
298.475137466
 20
260.6181956526
 11
298.1828452524
 21
260.3166831343
  0
LINE
  5
37A
100
AcDbEntity
  8
0
100
AcDbLine
 62
7
  6
CONTINUOUS
 10
298.9328781015
 20
260.9196650875
 11
298.475137466
 21
260.6181956526
  0
LINE
  5
37B
100
AcDbEntity
  8
0
100
AcDbLine
 62
7
  6
CONTINUOUS
 10
312.3121620951
 20
258.5629513947
 11
311.9812652497
 21
258.3460157676
  0
LINE
  5
37C
100
AcDbEntity
  8
0
100
AcDbLine
 62
7
  6
CONTINUOUS
 10
299.9465842893
 20
259.6073975304
 11
300.2094681642
 21
259.7632475792
  0
LINE
  5
37D
100
AcDbEntity
  8
0
100
AcDbLine
 62
7
  6
CONTINUOUS
 10
318.4911221255
 20
258.5629729442
 11
318.1248951368
 21
258.3496995802
  0
LINE
  5
37E
100
AcDbEntity
  8
0
100
AcDbLine
 62
7
  6
CONTINUOUS
 10
313.5328396961
 20
253.6914216849
 11
312.9041356898
 21
253.3421704051
  0
LINE
  5
37F
100
AcDbEntity
  8
0
100
AcDbLine
 62
7
  6
CONTINUOUS
 10
305.8651670136
 20
258.4894259431
 11
305.2805825879
 21
258.1695589932
  0
LINE
  5
380
100
AcDbEntity
  8
0
100
AcDbLine
 62
7
  6
CONTINUOUS
 10
301.4807838131
 20
254.8275008545
 11
301.2822457049
 21
254.722716853
  0
LINE
  5
381
100
AcDbEntity
  8
0
100
AcDbLine
 62
7
  6
CONTINUOUS
 10
324.2465298622
 20
257.5776284836
 11
324.5884566025
 21
257.7541068011
  0
LINE
  5
382
100
AcDbEntity
  8
0
100
AcDbLine
 62
7
  6
CONTINUOUS
 10
332.3240751599
 20
258.6328361191
 11
331.7983455625
 21
258.3901784324
  0
LINE
  5
383
100
AcDbEntity
  8
0
100
AcDbLine
 62
7
  6
CONTINUOUS
 10
313.4739633238
 20
254.4634927816
 11
314.0401502293
 21
254.7245479875
  0
LINE
  5
384
100
AcDbEntity
  8
0
100
AcDbLine
 62
7
  6
CONTINUOUS
 10
306.587625127
 20
257.2430478258
 11
307.0177910254
 21
257.4360709853
  0
LINE
  5
385
100
AcDbEntity
  8
0
100
AcDbLine
 62
7
  6
CONTINUOUS
 10
329.1400978189
 20
261.2836516094
 11
328.8202308684
 21
261.1439252461
  0
LINE
  5
386
100
AcDbEntity
  8
0
100
AcDbLine
 62
7
  6
CONTINUOUS
 10
301.9844967147
 20
253.3458326597
 11
302.6720124934
 21
253.6362721766
  0
LINE
  5
387
100
AcDbEntity
  8
0
100
AcDbLine
 62
7
  6
CONTINUOUS
 10
314.0365310465
 20
252.3273769937
 11
314.4556670507
 21
252.5038553112
  0
LINE
  5
388
100
AcDbEntity
  8
0
100
AcDbLine
 62
7
  6
CONTINUOUS
 10
313.7681513004
 20
248.2646703347
 11
313.4776686791
 21
248.1433414914
  0
LINE
  5
389
100
AcDbEntity
  8
0
100
AcDbLine
 62
7
  6
CONTINUOUS
 10
314.0034198192
 20
253.8862975224
 11
313.5328396961
 21
253.6914216849
  0
LINE
  5
38A
100
AcDbEntity
  8
0
100
AcDbLine
 62
7
  6
CONTINUOUS
 10
334.0154836833
 20
254.3995754025
 11
333.841719754
 21
254.3288720531
  0
LINE
  5
38B
100
AcDbEntity
  8
0
100
AcDbLine
 62
7
  6
CONTINUOUS
 10
328.9231621918
 20
259.4526890648
 11
329.2614266622
 21
259.5850478029
  0
LINE
  5
38C
100
AcDbEntity
  8
0
100
AcDbLine
 62
7
  6
CONTINUOUS
 10
331.2689106099
 20
250.202269558
 11
331.5483202509
 21
250.3088631512
  0
LINE
  5
38D
100
AcDbEntity
  8
0
100
AcDbLine
 62
7
  6
CONTINUOUS
 10
346.5792663679
 20
258.7403345083
 11
346.2676718385
 21
258.6300355598
  0
LINE
  5
38E
100
AcDbEntity
  8
0
100
AcDbLine
 62
7
  6
CONTINUOUS
 10
326.9596685669
 20
250.2718957692
 11
327.1716493585
 21
250.3445810528
  0
LINE
  5
38F
100
AcDbEntity
  8
0
100
AcDbLine
 62
7
  6
CONTINUOUS
 10
335.9492482948
 20
247.7297635202
 11
336.1698461917
 21
247.8041722249
  0
LINE
  5
390
100
AcDbEntity
  8
0
100
AcDbLine
 62
7
  6
CONTINUOUS
 10
326.1767183749
 20
253.3053753653
 11
326.8127469207
 21
253.5149433674
  0
LINE
  5
391
100
AcDbEntity
  8
0
100
AcDbLine
 62
7
  6
CONTINUOUS
 10
341.1626832021
 20
253.3053753653
 11
341.7987117479
 21
253.5149433674
  0
LINE
  5
392
100
AcDbEntity
  8
0
100
AcDbLine
 62
7
  6
CONTINUOUS
 10
345.1426656496
 20
250.8346789196
 11
344.8200412254
 21
250.7298949185
  0
LINE
  5
393
100
AcDbEntity
  8
0
100
AcDbLine
 62
7
  6
CONTINUOUS
 10
313.4151731225
 20
246.6359512527
 11
313.948270345
 21
246.8087673005
  0
LINE
  5
394
100
AcDbEntity
  8
0
100
AcDbLine
 62
7
  6
CONTINUOUS
 10
327.0959050025
 20
250.8310166498
 11
326.7760380519
 21
250.7280422409
  0
LINE
  5
395
100
AcDbEntity
  8
0
100
AcDbLine
 62
7
  6
CONTINUOUS
 10
332.3167075348
 20
247.7720304219
 11
332.6402798407
 21
247.8749617453
  0
LINE
  5
396
100
AcDbEntity
  8
0
100
AcDbLine
 62
7
  6
CONTINUOUS
 10
332.3737096867
 20
248.3406732039
 11
332.1071395327
 21
248.2610080649
  0
LINE
  5
397
100
AcDbEntity
  8
0
100
AcDbLine
 62
7
  6
CONTINUOUS
 10
333.4142251576
 20
253.2024009563
 11
333.7763590099
 21
253.3090807206
  0
LINE
  5
398
100
AcDbEntity
  8
0
100
AcDbLine
 62
7
  6
CONTINUOUS
 10
328.0849332689
 20
248.3345981446
 11
327.8312456874
 21
248.2610511505
  0
LINE
  5
399
100
AcDbEntity
  8
0
100
AcDbLine
 62
7
  6
CONTINUOUS
 10
331.4122992429
 20
250.8310166498
 11
331.0519749827
 21
250.7280422409
  0
LINE
  5
39A
100
AcDbEntity
  8
0
100
AcDbLine
 62
7
  6
CONTINUOUS
 10
313.4776686791
 20
248.1433414914
 11
313.0254429904
 21
248.014645023
  0
LINE
  5
39B
100
AcDbEntity
  8
0
100
AcDbLine
 62
7
  6
CONTINUOUS
 10
344.7455463496
 20
248.5818228971
 11
344.6104732233
 21
248.7913908992
  0
LINE
  5
39C
100
AcDbEntity
  8
0
100
AcDbLine
 62
7
  6
CONTINUOUS
 10
342.2068178572
 20
257.3606928564
 11
341.9788954207
 21
257.7209955738
  0
LINE
  5
39D
100
AcDbEntity
  8
0
100
AcDbLine
 62
7
  6
CONTINUOUS
 10
339.0890629708
 20
254.6841337639
 11
338.798623435
 21
255.1436624494
  0
LINE
  5
39E
100
AcDbEntity
  8
0
100
AcDbLine
 62
7
  6
CONTINUOUS
 10
329.9893997221
 20
260.8571479801
 11
329.8496733589
 21
261.103511022
  0
LINE
  5
39F
100
AcDbEntity
  8
0
100
AcDbLine
 62
7
  6
CONTINUOUS
 10
344.0369186912
 20
248.6038826868
 11
344.1499320279
 21
248.3943146847
  0
LINE
  5
3A0
100
AcDbEntity
  8
0
100
AcDbLine
 62
7
  6
CONTINUOUS
 10
330.7614923614
 20
254.893701766
 11
331.0409450879
 21
254.3274717735
  0
LINE
  5
3A1
100
AcDbEntity
  8
0
100
AcDbLine
 62
7
  6
CONTINUOUS
 10
322.1544690255
 20
254.959881135
 11
322.3714046527
 21
254.4928986534
  0
LINE
  5
3A2
100
AcDbEntity
  8
0
100
AcDbLine
 62
7
  6
CONTINUOUS
 10
332.498140688
 20
254.931573944
 11
332.3535887457
 21
255.251397809
  0
LINE
  5
3A3
100
AcDbEntity
  8
0
100
AcDbLine
 62
7
  6
CONTINUOUS
 10
326.0406973669
 20
248.7463665237
 11
326.2171756845
 21
248.352952579
  0
LINE
  5
3A4
100
AcDbEntity
  8
0
100
AcDbLine
 62
7
  6
CONTINUOUS
 10
327.3752715579
 20
257.0114415766
 11
327.22085303
 21
257.3606928564
  0
LINE
  5
3A5
100
AcDbEntity
  8
0
100
AcDbLine
 62
7
  6
CONTINUOUS
 10
328.5665432869
 20
249.941257437
 11
328.4415521738
 21
250.2317400583
  0
LINE
  5
3A6
100
AcDbEntity
  8
0
100
AcDbLine
 62
7
  6
CONTINUOUS
 10
325.8973087339
 20
257.2173042234
 11
326.0737870515
 21
256.7650785347
  0
LINE
  5
3A7
100
AcDbEntity
  8
0
100
AcDbLine
 62
7
  6
CONTINUOUS
 10
313.2974850064
 20
257.1474625844
 11
313.4739633238
 21
256.6290575269
  0
LINE
  5
3A8
100
AcDbEntity
  8
0
100
AcDbLine
 62
7
  6
CONTINUOUS
 10
315.1321098206
 20
257.0334582808
 11
314.9924265429
 21
257.6107181681
  0
LINE
  5
3A9
100
AcDbEntity
  8
0
100
AcDbLine
 62
7
  6
CONTINUOUS
 10
310.0179655097
 20
248.5128860543
 11
310.1135722936
 21
248.0845728329
  0
LINE
  5
3AA
100
AcDbEntity
  8
0
100
AcDbLine
 62
7
  6
CONTINUOUS
 10
305.9864958576
 20
255.7043774945
 11
305.9864958576
 21
256.2999918162
  0
LINE
  5
3AB
100
AcDbEntity
  8
0
100
AcDbLine
 62
7
  6
CONTINUOUS
 10
309.0858963097
 20
253.5590629463
 11
309.0858963097
 21
254.7558065376
  0
LINE
  5
3AC
100
AcDbEntity
  8
0
100
AcDbLine
 62
7
  6
CONTINUOUS
 10
309.0858963097
 20
257.143778772
 11
309.0858963097
 21
258.3684417842
  0
LINE
  5
3AD
100
AcDbEntity
  8
0
100
AcDbLine
 62
7
  6
CONTINUOUS
 10
309.8010083398
 20
261.2211560528
 11
309.8010083398
 21
253.30167001
  0
LINE
  5
3AE
100
AcDbEntity
  8
0
100
AcDbLine
 62
7
  6
CONTINUOUS
 10
310.0179655097
 20
249.1029854286
 11
310.0179655097
 21
248.5128860543
  0
LINE
  5
3AF
100
AcDbEntity
  8
0
100
AcDbLine
 62
7
  6
CONTINUOUS
 10
311.4554925668
 20
253.30167001
 11
311.4554925668
 21
256.6768393759
  0
LINE
  5
3B0
100
AcDbEntity
  8
0
100
AcDbLine
 62
7
  6
CONTINUOUS
 10
311.4591548366
 20
257.8680680194
 11
311.4591548366
 21
261.2211560528
  0
LINE
  5
3B1
100
AcDbEntity
  8
0
100
AcDbLine
 62
7
  6
CONTINUOUS
 10
313.4739633238
 20
256.6290575269
 11
313.4739633238
 21
254.4634927816
  0
LINE
  5
3B2
100
AcDbEntity
  8
0
100
AcDbLine
 62
7
  6
CONTINUOUS
 10
315.1321098206
 20
255.0076629842
 11
315.1321098206
 21
257.0334582808
  0
LINE
  5
3B3
100
AcDbEntity
  8
0
100
AcDbLine
 62
7
  6
CONTINUOUS
 10
315.9464909044
 20
258.6383295238
 11
315.9464909044
 21
255.0076414415
  0
LINE
  5
3B4
100
AcDbEntity
  8
0
100
AcDbLine
 62
7
  6
CONTINUOUS
 10
304.4257657368
 20
257.1492937194
 11
304.194137945
 21
256.3606562379
  0
LINE
  5
3B5
100
AcDbEntity
  8
0
100
AcDbLine
 62
7
  6
CONTINUOUS
 10
303.6591883828
 20
254.7944111285
 11
303.8080923827
 21
255.2649915181
  0
LINE
  5
3B6
100
AcDbEntity
  8
0
100
AcDbLine
 62
7
  6
CONTINUOUS
 10
297.9512174609
 20
259.9398571164
 11
297.7692241963
 21
259.4379969005
  0
LINE
  5
3B7
100
AcDbEntity
  8
0
100
AcDbLine
 62
7
  6
CONTINUOUS
 10
305.9864958576
 20
256.2999918162
 11
306.212608702
 21
256.8845762431
  0
LINE
  5
3B8
100
AcDbEntity
  8
0
100
AcDbLine
 62
7
  6
CONTINUOUS
 10
303.4882248779
 20
254.4469694159
 11
303.6591883828
 21
254.7944111285
  0
LINE
  5
3B9
100
AcDbEntity
  8
0
100
AcDbLine
 62
7
  6
CONTINUOUS
 10
301.7510162364
 20
255.163912647
 11
301.640717288
 21
254.9653745398
  0
LINE
  5
3BA
100
AcDbEntity
  8
0
100
AcDbLine
 62
7
  6
CONTINUOUS
 10
298.1828452524
 20
260.3166831343
 11
297.9512174609
 21
259.9398571164
  0
LINE
  5
3BB
100
AcDbEntity
  8
0
100
AcDbLine
 62
7
  6
CONTINUOUS
 10
304.7621775296
 20
257.6787286721
 11
304.4257657368
 21
257.1492937194
  0
LINE
  5
3BC
100
AcDbEntity
  8
0
100
AcDbLine
 62
7
  6
CONTINUOUS
 10
303.2381994862
 20
254.084792487
 11
303.4882248779
 21
254.4469694159
  0
LINE
  5
3BD
100
AcDbEntity
  8
0
100
AcDbLine
 62
7
  6
CONTINUOUS
 10
299.7849272775
 20
259.4145546307
 11
299.9465842893
 21
259.6073975304
  0
LINE
  5
3BE
100
AcDbEntity
  8
0
100
AcDbLine
 62
7
  6
CONTINUOUS
 10
311.4554925668
 20
256.6768393759
 11
311.9812652497
 21
257.2614238028
  0
LINE
  5
3BF
100
AcDbEntity
  8
0
100
AcDbLine
 62
7
  6
CONTINUOUS
 10
311.9812652497
 20
258.3460157676
 11
311.4996121462
 21
257.8680680194
  0
LINE
  5
3C0
100
AcDbEntity
  8
0
100
AcDbLine
 62
7
  6
CONTINUOUS
 10
306.212608702
 20
256.8845762431
 11
306.587625127
 21
257.2430478258
  0
LINE
  5
3C1
100
AcDbEntity
  8
0
100
AcDbLine
 62
7
  6
CONTINUOUS
 10
318.1248951368
 20
258.3496995802
 11
317.6506096582
 21
257.8974738914
  0
LINE
  5
3C2
100
AcDbEntity
  8
0
100
AcDbLine
 62
7
  6
CONTINUOUS
 10
305.2805825879
 20
258.1695589932
 11
304.7621775296
 21
257.6787286721
  0
LINE
  5
3C3
100
AcDbEntity
  8
0
100
AcDbLine
 62
7
  6
CONTINUOUS
 10
301.640717288
 20
254.9653745398
 11
301.4807838131
 21
254.8275008545
  0
LINE
  5
3C4
100
AcDbEntity
  8
0
100
AcDbLine
 62
7
  6
CONTINUOUS
 10
302.6720124934
 20
253.6362721766
 11
303.2381994862
 21
254.084792487
  0
LINE
  5
3C5
100
AcDbEntity
  8
0
100
AcDbLine
 62
7
  6
CONTINUOUS
 10
312.6357128582
 20
253.1693543573
 11
311.9849490622
 21
252.676671359
  0
LINE
  5
3C6
100
AcDbEntity
  8
0
100
AcDbLine
 62
7
  6
CONTINUOUS
 10
329.2614266622
 20
259.5850478029
 11
329.6401053568
 21
259.871825069
  0
LINE
  5
3C7
100
AcDbEntity
  8
0
100
AcDbLine
 62
7
  6
CONTINUOUS
 10
311.9812652497
 20
257.2614238028
 11
312.2606748906
 21
257.4709918049
  0
LINE
  5
3C8
100
AcDbEntity
  8
0
100
AcDbLine
 62
7
  6
CONTINUOUS
 10
314.290218628
 20
248.6103024303
 11
314.010808987
 21
248.4007344282
  0
LINE
  5
3C9
100
AcDbEntity
  8
0
100
AcDbLine
 62
7
  6
CONTINUOUS
 10
313.7276939908
 20
252.1067790967
 11
314.0365310465
 21
252.3273769937
  0
LINE
  5
3CA
100
AcDbEntity
  8
0
100
AcDbLine
 62
7
  6
CONTINUOUS
 10
328.8202308684
 20
261.1439252461
 11
328.5076884574
 21
260.9306949743
  0
LINE
  5
3CB
100
AcDbEntity
  8
0
100
AcDbLine
 62
7
  6
CONTINUOUS
 10
312.9041356898
 20
253.3421704051
 11
312.6357128582
 21
253.1693543573
  0
LINE
  5
3CC
100
AcDbEntity
  8
0
100
AcDbLine
 62
7
  6
CONTINUOUS
 10
318.238856355
 20
257.4710133478
 11
318.4080101328
 21
257.5776069408
  0
LINE
  5
3CD
100
AcDbEntity
  8
0
100
AcDbLine
 62
7
  6
CONTINUOUS
 10
327.1657035558
 20
253.731835909
 11
327.4451562823
 21
253.9067846903
  0
LINE
  5
3CE
100
AcDbEntity
  8
0
100
AcDbLine
 62
7
  6
CONTINUOUS
 10
327.4451562823
 20
254.9304537203
 11
326.8826316451
 21
254.5811378122
  0
LINE
  5
3CF
100
AcDbEntity
  8
0
100
AcDbLine
 62
7
  6
CONTINUOUS
 10
326.7760380519
 20
250.7280422409
 11
326.4892607859
 21
250.5516070088
  0
LINE
  5
3D0
100
AcDbEntity
  8
0
100
AcDbLine
 62
7
  6
CONTINUOUS
 10
326.8127469207
 20
253.5149433674
 11
327.1657035558
 21
253.731835909
  0
LINE
  5
3D1
100
AcDbEntity
  8
0
100
AcDbLine
 62
7
  6
CONTINUOUS
 10
323.6180843752
 20
258.5304649112
 11
323.108080989
 21
258.2286077071
  0
LINE
  5
3D2
100
AcDbEntity
  8
0
100
AcDbLine
 62
7
  6
CONTINUOUS
 10
338.6040491963
 20
258.5304649075
 11
338.0940458162
 21
258.2286077071
  0
LINE
  5
3D3
100
AcDbEntity
  8
0
100
AcDbLine
 62
7
  6
CONTINUOUS
 10
334.1697298691
 20
253.4745291433
 11
334.4344473454
 21
253.6289261284
  0
LINE
  5
3D4
100
AcDbEntity
  8
0
100
AcDbLine
 62
7
  6
CONTINUOUS
 10
314.5733120814
 20
247.0845146716
 11
315.1358367187
 21
247.4043816222
  0
LINE
  5
3D5
100
AcDbEntity
  8
0
100
AcDbLine
 62
7
  6
CONTINUOUS
 10
314.010808987
 20
248.4007344282
 11
313.7681513004
 21
248.2646703347
  0
LINE
  5
3D6
100
AcDbEntity
  8
0
100
AcDbLine
 62
7
  6
CONTINUOUS
 10
315.4924771663
 20
251.6324936183
 11
315.3968703825
 21
251.5810064139
  0
LINE
  5
3D7
100
AcDbEntity
  8
0
100
AcDbLine
 62
7
  6
CONTINUOUS
 10
312.5254354525
 20
249.1103099682
 11
312.5952770913
 21
249.1470619225
  0
LINE
  5
3D8
100
AcDbEntity
  8
0
100
AcDbLine
 62
7
  6
CONTINUOUS
 10
332.8593697442
 20
257.4362433275
 11
333.0622164041
 21
257.5424060654
  0
LINE
  5
3D9
100
AcDbEntity
  8
0
100
AcDbLine
 62
7
  6
CONTINUOUS
 10
328.3386208504
 20
247.9117567851
 11
328.6070005965
 21
248.0514831484
  0
LINE
  5
3DA
100
AcDbEntity
  8
0
100
AcDbLine
 62
7
  6
CONTINUOUS
 10
339.2324946894
 20
257.5776284836
 11
339.5744214296
 21
257.7541068011
  0
LINE
  5
3DB
100
AcDbEntity
  8
0
100
AcDbLine
 62
7
  6
CONTINUOUS
 10
339.3078512756
 20
250.8346789196
 11
339.0982832735
 21
250.7271374448
  0
LINE
  5
3DC
100
AcDbEntity
  8
0
100
AcDbLine
 62
7
  6
CONTINUOUS
 10
328.3643429099
 20
248.4742814223
 11
328.0849332689
 21
248.3345981446
  0
LINE
  5
3DD
100
AcDbEntity
  8
0
100
AcDbLine
 62
7
  6
CONTINUOUS
 10
334.1584845466
 20
254.4703002947
 11
334.0154836833
 21
254.3995754025
  0
LINE
  5
3DE
100
AcDbEntity
  8
0
100
AcDbLine
 62
7
  6
CONTINUOUS
 10
345.9450474142
 20
257.0500246658
 11
346.2373396277
 21
257.1934132988
  0
LINE
  5
3DF
100
AcDbEntity
  8
0
100
AcDbLine
 62
7
  6
CONTINUOUS
 10
326.8826316451
 20
254.5811378122
 11
326.3531966924
 21
254.3311771288
  0
LINE
  5
3E0
100
AcDbEntity
  8
0
100
AcDbLine
 62
7
  6
CONTINUOUS
 10
341.8685964722
 20
254.5811378122
 11
341.3391615196
 21
254.3311771288
  0
LINE
  5
3E1
100
AcDbEntity
  8
0
100
AcDbLine
 62
7
  6
CONTINUOUS
 10
328.007724005
 20
247.7646627968
 11
328.3386208504
 21
247.9117567851
  0
LINE
  5
3E2
100
AcDbEntity
  8
0
100
AcDbLine
 62
7
  6
CONTINUOUS
 10
313.948270345
 20
246.8087673005
 11
314.5733120814
 21
247.0845146716
  0
LINE
  5
3E3
100
AcDbEntity
  8
0
100
AcDbLine
 62
7
  6
CONTINUOUS
 10
336.1698461917
 20
247.8041722249
 11
336.4207332139
 21
247.9144711733
  0
LINE
  5
3E4
100
AcDbEntity
  8
0
100
AcDbLine
 62
7
  6
CONTINUOUS
 10
344.9965195429
 20
250.2032174396
 11
345.2419347033
 21
250.3080014406
  0
LINE
  5
3E5
100
AcDbEntity
  8
0
100
AcDbLine
 62
7
  6
CONTINUOUS
 10
333.7763590099
 20
253.3090807206
 11
334.1697298691
 21
253.4745291433
  0
LINE
  5
3E6
100
AcDbEntity
  8
0
100
AcDbLine
 62
7
  6
CONTINUOUS
 10
336.1946203696
 20
248.3308927893
 11
335.9216735577
 21
248.2205938409
  0
LINE
  5
3E7
100
AcDbEntity
  8
0
100
AcDbLine
 62
7
  6
CONTINUOUS
 10
332.6402798407
 20
248.444810922
 11
332.3737096867
 21
248.3406732039
  0
LINE
  5
3E8
100
AcDbEntity
  8
0
100
AcDbLine
 62
7
  6
CONTINUOUS
 10
346.3366517668
 20
248.4356767904
 11
346.0553894482
 21
248.3308927893
  0
LINE
  5
3E9
100
AcDbEntity
  8
0
100
AcDbLine
 62
7
  6
CONTINUOUS
 10
346.0471170271
 20
247.7766405733
 11
346.3366517668
 21
247.8759096269
  0
LINE
  5
3EA
100
AcDbEntity
  8
0
100
AcDbLine
 62
7
  6
CONTINUOUS
 10
337.1404338527
 20
254.959881135
 11
337.3573694799
 21
254.4928986534
  0
LINE
  5
3EB
100
AcDbEntity
  8
0
100
AcDbLine
 62
7
  6
CONTINUOUS
 10
342.3612363851
 20
257.0114415766
 11
342.2068178572
 21
257.3606928564
  0
LINE
  5
3EC
100
AcDbEntity
  8
0
100
AcDbLine
 62
7
  6
CONTINUOUS
 10
334.7139000719
 20
248.4853113172
 11
334.832428356
 21
248.1433845769
  0
LINE
  5
3ED
100
AcDbEntity
  8
0
100
AcDbLine
 62
7
  6
CONTINUOUS
 10
330.9085863497
 20
248.757353333
 11
330.8093172961
 21
249.0477928688
  0
LINE
  5
3EE
100
AcDbEntity
  8
0
100
AcDbLine
 62
7
  6
CONTINUOUS
 10
321.9816529778
 20
255.5444655619
 11
322.1544690255
 21
254.959881135
  0
LINE
  5
3EF
100
AcDbEntity
  8
0
100
AcDbLine
 62
7
  6
CONTINUOUS
 10
323.8126586079
 20
255.1436624494
 11
323.7097272845
 21
255.526068042
  0
LINE
  5
3F0
100
AcDbEntity
  8
0
100
AcDbLine
 62
7
  6
CONTINUOUS
 10
325.9414713989
 20
249.1176775932
 11
326.0406973669
 21
248.7463665237
  0
LINE
  5
3F1
100
AcDbEntity
  8
0
100
AcDbLine
 62
7
  6
CONTINUOUS
 10
321.3125347474
 20
257.0334798235
 11
321.162446315
 21
257.6106966253
  0
LINE
  5
3F2
100
AcDbEntity
  8
0
100
AcDbLine
 62
7
  6
CONTINUOUS
 10
330.2137029744
 20
249.036762974
 11
330.3240019228
 21
248.6103024303
  0
LINE
  5
3F3
100
AcDbEntity
  8
0
100
AcDbLine
 62
7
  6
CONTINUOUS
 10
330.5923816689
 20
255.5665253516
 11
330.7614923614
 21
254.893701766
  0
LINE
  5
3F4
100
AcDbEntity
  8
0
100
AcDbLine
 62
7
  6
CONTINUOUS
 10
327.5517498754
 20
256.2761008916
 11
327.3752715579
 21
257.0114415766
  0
LINE
  5
3F5
100
AcDbEntity
  8
0
100
AcDbLine
 62
7
  6
CONTINUOUS
 10
326.5664700498
 20
248.9118149464
 11
326.5370426351
 21
249.0404683293
  0
LINE
  5
3F6
100
AcDbEntity
  8
0
100
AcDbLine
 62
7
  6
CONTINUOUS
 10
328.6511201759
 20
249.5588733871
 11
328.5665432869
 21
249.941257437
  0
LINE
  5
3F7
100
AcDbEntity
  8
0
100
AcDbLine
 62
7
  6
CONTINUOUS
 10
319.5521678384
 20
257.1474410418
 11
319.613930941
 21
256.8044587061
  0
LINE
  5
3F8
100
AcDbEntity
  8
0
100
AcDbLine
 62
7
  6
CONTINUOUS
 10
317.849190851
 20
251.9817879836
 11
317.7535840672
 21
252.5994620951
  0
LINE
  5
3F9
100
AcDbEntity
  8
0
100
AcDbLine
 62
7
  6
CONTINUOUS
 10
317.6028278091
 20
254.2980659015
 11
317.6028278091
 21
256.7613947221
  0
LINE
  5
3FA
100
AcDbEntity
  8
0
100
AcDbLine
 62
7
  6
CONTINUOUS
 10
317.6101523486
 20
257.8974738914
 11
317.6101523486
 21
258.6364768461
  0
LINE
  5
3FB
100
AcDbEntity
  8
0
100
AcDbLine
 62
7
  6
CONTINUOUS
 10
317.849190851
 20
251.5295622949
 11
317.849190851
 21
251.9817879836
  0
LINE
  5
3FC
100
AcDbEntity
  8
0
100
AcDbLine
 62
7
  6
CONTINUOUS
 10
319.606649487
 20
252.3457745136
 11
319.606649487
 21
247.7646627968
  0
LINE
  5
3FD
100
AcDbEntity
  8
0
100
AcDbLine
 62
7
  6
CONTINUOUS
 10
319.613930941
 20
256.8044587061
 11
319.613930941
 21
253.30167001
  0
LINE
  5
3FE
100
AcDbEntity
  8
0
100
AcDbLine
 62
7
  6
CONTINUOUS
 10
320.2537079276
 20
248.3087899141
 11
320.2537079276
 21
249.8015310737
  0
LINE
  5
3FF
100
AcDbEntity
  8
0
100
AcDbLine
 62
7
  6
CONTINUOUS
 10
320.2537079276
 20
250.3750856058
 11
320.2537079276
 21
251.7722199816
  0
LINE
  5
400
100
AcDbEntity
  8
0
100
AcDbLine
 62
7
  6
CONTINUOUS
 10
321.3125347474
 20
253.30167001
 11
321.3125347474
 21
257.0334798235
  0
LINE
  5
401
100
AcDbEntity
  8
0
100
AcDbLine
 62
7
  6
CONTINUOUS
 10
321.9816529778
 20
256.2797416186
 11
321.9816529778
 21
255.5444655619
  0
LINE
  5
402
100
AcDbEntity
  8
0
100
AcDbLine
 62
7
  6
CONTINUOUS
 10
322.1287900516
 20
249.8015310737
 11
322.1287900516
 21
250.3750856058
  0
LINE
  5
403
100
AcDbEntity
  8
0
100
AcDbLine
 62
7
  6
CONTINUOUS
 10
322.1802772561
 20
251.7722199816
 11
322.1802772561
 21
252.3457745136
  0
LINE
  5
404
100
AcDbEntity
  8
0
100
AcDbLine
 62
7
  6
CONTINUOUS
 10
322.2464566251
 20
247.7646627968
 11
322.2464566251
 21
248.3087899141
  0
LINE
  5
405
100
AcDbEntity
  8
0
100
AcDbLine
 62
7
  6
CONTINUOUS
 10
323.7097272845
 20
255.526068042
 11
323.7097272845
 21
255.7025463596
  0
LINE
  5
406
100
AcDbEntity
  8
0
100
AcDbLine
 62
7
  6
CONTINUOUS
 10
323.7464792388
 20
256.5555105326
 11
323.7464792388
 21
256.75038637
  0
LINE
  5
407
100
AcDbEntity
  8
0
100
AcDbLine
 62
7
  6
CONTINUOUS
 10
324.3788886004
 20
247.7646627968
 11
324.3788886004
 21
252.3457745136
  0
LINE
  5
408
100
AcDbEntity
  8
0
100
AcDbLine
 62
7
  6
CONTINUOUS
 10
325.9414713989
 20
249.5000616431
 11
325.9414713989
 21
249.1176775932
  0
LINE
  5
409
100
AcDbEntity
  8
0
100
AcDbLine
 62
7
  6
CONTINUOUS
 10
326.0737870515
 20
256.7650785347
 11
326.0737870515
 21
256.5555105326
  0
LINE
  5
40A
100
AcDbEntity
  8
0
100
AcDbLine
 62
7
  6
CONTINUOUS
 10
326.5370426351
 20
249.0404683293
 11
326.5370426351
 21
249.1801946925
  0
LINE
  5
40B
100
AcDbEntity
  8
0
100
AcDbLine
 62
7
  6
CONTINUOUS
 10
326.5518640563
 20
249.5673181503
 11
326.5518640563
 21
249.7045886386
  0
LINE
  5
40C
100
AcDbEntity
  8
0
100
AcDbLine
 62
7
  6
CONTINUOUS
 10
327.4451562823
 20
253.9067846903
 11
327.4451562823
 21
254.9304537203
  0
LINE
  5
40D
100
AcDbEntity
  8
0
100
AcDbLine
 62
7
  6
CONTINUOUS
 10
327.5517498754
 20
255.7025463596
 11
327.5517498754
 21
256.2761008916
  0
LINE
  5
40E
100
AcDbEntity
  8
0
100
AcDbLine
 62
7
  6
CONTINUOUS
 10
328.0620117687
 20
249.8075630475
 11
328.0620117687
 21
249.5673181503
  0
LINE
  5
40F
100
AcDbEntity
  8
0
100
AcDbLine
 62
7
  6
CONTINUOUS
 10
328.125347493
 20
260.3350806525
 11
328.125347493
 21
259.8571329043
  0
LINE
  5
410
100
AcDbEntity
  8
0
100
AcDbLine
 62
7
  6
CONTINUOUS
 10
328.2209111913
 20
258.6328145763
 11
328.2209111913
 21
253.309037635
  0
LINE
  5
411
100
AcDbEntity
  8
0
100
AcDbLine
 62
7
  6
CONTINUOUS
 10
328.6070005965
 20
248.0514831484
 11
328.6070005965
 21
248.6176700553
  0
LINE
  5
412
100
AcDbEntity
  8
0
100
AcDbLine
 62
7
  6
CONTINUOUS
 10
328.6511201759
 20
249.1801946925
 11
328.6511201759
 21
249.5588733871
  0
LINE
  5
413
100
AcDbEntity
  8
0
100
AcDbLine
 62
7
  6
CONTINUOUS
 10
323.8163639632
 20
252.3457745136
 11
323.8108490158
 21
247.7646627968
  0
LINE
  5
414
100
AcDbEntity
  8
0
100
AcDbLine
 62
7
  6
CONTINUOUS
 10
317.7793492122
 20
251.0773366062
 11
317.849190851
 21
251.5295622949
  0
LINE
  5
415
100
AcDbEntity
  8
0
100
AcDbLine
 62
7
  6
CONTINUOUS
 10
310.1227495108
 20
249.6765399606
 11
310.0179655097
 21
249.1029854286
  0
LINE
  5
416
100
AcDbEntity
  8
0
100
AcDbLine
 62
7
  6
CONTINUOUS
 10
316.7609150737
 20
252.5957998253
 11
316.5770691311
 21
251.6324936183
  0
LINE
  5
417
100
AcDbEntity
  8
0
100
AcDbLine
 62
7
  6
CONTINUOUS
 10
322.1544690255
 20
257.0151038463
 11
321.9816529778
 21
256.2797416186
  0
LINE
  5
418
100
AcDbEntity
  8
0
100
AcDbLine
 62
7
  6
CONTINUOUS
 10
312.70191377
 20
249.3382754902
 11
313.1945967684
 21
251.3530408918
  0
LINE
  5
419
100
AcDbEntity
  8
0
100
AcDbLine
 62
7
  6
CONTINUOUS
 10
311.0915491224
 20
248.014645023
 11
311.3636342238
 21
249.1103099682
  0
LINE
  5
41A
100
AcDbEntity
  8
0
100
AcDbLine
 62
7
  6
CONTINUOUS
 10
315.3601184281
 20
251.5074594197
 11
314.8233158504
 21
249.4558989782
  0
LINE
  5
41B
100
AcDbEntity
  8
0
100
AcDbLine
 62
7
  6
CONTINUOUS
 10
315.9483866676
 20
250.3787909611
 11
316.13589488
 21
251.0773366062
  0
LINE
  5
41C
100
AcDbEntity
  8
0
100
AcDbLine
 62
7
  6
CONTINUOUS
 10
315.5954300325
 20
249.0956608891
 11
315.8012926793
 21
249.7831766393
  0
LINE
  5
41D
100
AcDbEntity
  8
0
100
AcDbLine
 62
7
  6
CONTINUOUS
 10
312.0309213193
 20
251.6508911382
 11
311.8158383698
 21
250.9835825
  0
LINE
  5
41E
100
AcDbEntity
  8
0
100
AcDbLine
 62
7
  6
CONTINUOUS
 10
312.6577941907
 20
249.2022113967
 11
312.70191377
 21
249.3382754902
  0
LINE
  5
41F
100
AcDbEntity
  8
0
100
AcDbLine
 62
7
  6
CONTINUOUS
 10
314.8233158504
 20
249.4558989782
 11
314.7167222572
 21
249.1470619225
  0
LINE
  5
420
100
AcDbEntity
  8
0
100
AcDbLine
 62
7
  6
CONTINUOUS
 10
311.727599211
 20
250.3438485989
 11
311.5014863666
 21
249.7041146978
  0
LINE
  5
421
100
AcDbEntity
  8
0
100
AcDbLine
 62
7
  6
CONTINUOUS
 10
313.1945967684
 20
251.3530408918
 11
313.2607761375
 21
251.5037971499
  0
LINE
  5
422
100
AcDbEntity
  8
0
100
AcDbLine
 62
7
  6
CONTINUOUS
 10
310.6190947789
 20
250.9835825
 11
310.3268025654
 21
250.3438485989
  0
LINE
  5
423
100
AcDbEntity
  8
0
100
AcDbLine
 62
7
  6
CONTINUOUS
 10
317.2903284836
 20
249.7831766393
 11
317.5697812101
 21
250.3787909611
  0
LINE
  5
424
100
AcDbEntity
  8
0
100
AcDbLine
 62
7
  6
CONTINUOUS
 10
315.3968703825
 20
251.5810064139
 11
315.3601184281
 21
251.5074594197
  0
LINE
  5
425
100
AcDbEntity
  8
0
100
AcDbLine
 62
7
  6
CONTINUOUS
 10
313.2607761375
 20
251.5037971499
 11
313.3747373557
 21
251.7170274218
  0
LINE
  5
426
100
AcDbEntity
  8
0
100
AcDbLine
 62
7
  6
CONTINUOUS
 10
314.7167222572
 20
249.1470619225
 11
314.5292140449
 21
248.8602846564
  0
LINE
  5
427
100
AcDbEntity
  8
0
100
AcDbLine
 62
7
  6
CONTINUOUS
 10
316.6505945825
 20
248.8125458928
 11
316.8638679399
 21
249.0956608891
  0
LINE
  5
428
100
AcDbEntity
  8
0
100
AcDbLine
 62
7
  6
CONTINUOUS
 10
313.3747373557
 20
251.7170274218
 11
313.5365235086
 21
251.9265954239
  0
LINE
  5
429
100
AcDbEntity
  8
0
100
AcDbLine
 62
7
  6
CONTINUOUS
 10
311.4923091494
 20
252.1876937159
 11
311.0658055202
 21
251.6508911382
  0
LINE
  5
42A
100
AcDbEntity
  8
0
100
AcDbLine
 62
7
  6
CONTINUOUS
 10
317.6028278091
 20
256.7613947221
 11
318.0221792409
 21
257.26140226
  0
LINE
  5
42B
100
AcDbEntity
  8
0
100
AcDbLine
 62
7
  6
CONTINUOUS
 10
316.3417575268
 20
248.4448540076
 11
316.6505945825
 21
248.8125458928
  0
LINE
  5
42C
100
AcDbEntity
  8
0
100
AcDbLine
 62
7
  6
CONTINUOUS
 10
328.5076884574
 20
260.9306949743
 11
328.2650307707
 21
260.6439177082
  0
LINE
  5
42D
100
AcDbEntity
  8
0
100
AcDbLine
 62
7
  6
CONTINUOUS
 10
322.7169936627
 20
257.8938116216
 11
322.4412462916
 21
257.5812907533
  0
LINE
  5
42E
100
AcDbEntity
  8
0
100
AcDbLine
 62
7
  6
CONTINUOUS
 10
316.058685616
 20
248.1470899322
 11
316.3417575268
 21
248.4448540076
  0
LINE
  5
42F
100
AcDbEntity
  8
0
100
AcDbLine
 62
7
  6
CONTINUOUS
 10
314.5292140449
 20
248.8602846564
 11
314.290218628
 21
248.6103024303
  0
LINE
  5
430
100
AcDbEntity
  8
0
100
AcDbLine
 62
7
  6
CONTINUOUS
 10
311.9849490622
 20
252.676671359
 11
311.4923091494
 21
252.1876937159
  0
LINE
  5
431
100
AcDbEntity
  8
0
100
AcDbLine
 62
7
  6
CONTINUOUS
 10
318.0221792409
 20
257.26140226
 11
318.238856355
 21
257.4710133478
  0
LINE
  5
432
100
AcDbEntity
  8
0
100
AcDbLine
 62
7
  6
CONTINUOUS
 10
332.7117587296
 20
257.2963446222
 11
332.8593697442
 21
257.4362433275
  0
LINE
  5
433
100
AcDbEntity
  8
0
100
AcDbLine
 62
7
  6
CONTINUOUS
 10
326.4892607859
 20
250.5516070088
 11
326.2245433096
 21
250.3015816971
  0
LINE
  5
434
100
AcDbEntity
  8
0
100
AcDbLine
 62
7
  6
CONTINUOUS
 10
313.5365235086
 20
251.9265954239
 11
313.7276939908
 21
252.1067790967
  0
LINE
  5
435
100
AcDbEntity
  8
0
100
AcDbLine
 62
7
  6
CONTINUOUS
 10
324.05535938
 20
257.4011501659
 11
324.2465298622
 21
257.5776284836
  0
LINE
  5
436
100
AcDbEntity
  8
0
100
AcDbLine
 62
7
  6
CONTINUOUS
 10
312.5952770913
 20
249.1470619225
 11
312.6577941907
 21
249.2022113967
  0
LINE
  5
437
100
AcDbEntity
  8
0
100
AcDbLine
 62
7
  6
CONTINUOUS
 10
315.6579040463
 20
247.7941332971
 11
316.058685616
 21
248.1470899322
  0
LINE
  5
438
100
AcDbEntity
  8
0
100
AcDbLine
 62
7
  6
CONTINUOUS
 10
323.108080989
 20
258.2286077071
 11
322.7169936627
 21
257.8938116216
  0
LINE
  5
439
100
AcDbEntity
  8
0
100
AcDbLine
 62
7
  6
CONTINUOUS
 10
338.0940458162
 20
258.2286077071
 11
337.7029584899
 21
257.8938116215
  0
LINE
  5
43A
100
AcDbEntity
  8
0
100
AcDbLine
 62
7
  6
CONTINUOUS
 10
331.7983455625
 20
258.3901784324
 11
331.2946326694
 21
257.967337073
  0
LINE
  5
43B
100
AcDbEntity
  8
0
100
AcDbLine
 62
7
  6
CONTINUOUS
 10
326.7497127951
 20
250.0982610964
 11
326.9596685669
 21
250.2718957692
  0
LINE
  5
43C
100
AcDbEntity
  8
0
100
AcDbLine
 62
7
  6
CONTINUOUS
 10
330.8093172961
 20
250.5552261931
 11
330.5887193992
 21
250.3750425202
  0
LINE
  5
43D
100
AcDbEntity
  8
0
100
AcDbLine
 62
7
  6
CONTINUOUS
 10
331.0924322924
 20
250.058880925
 11
331.2689106099
 21
250.202269558
  0
LINE
  5
43E
100
AcDbEntity
  8
0
100
AcDbLine
 62
7
  6
CONTINUOUS
 10
315.1358367187
 20
247.4043816222
 11
315.6579040463
 21
247.7941332971
  0
LINE
  5
43F
100
AcDbEntity
  8
0
100
AcDbLine
 62
7
  6
CONTINUOUS
 10
334.5759833008
 20
254.7613214851
 11
334.3721456737
 21
254.6133011579
  0
LINE
  5
440
100
AcDbEntity
  8
0
100
AcDbLine
 62
7
  6
CONTINUOUS
 10
346.2676718385
 20
258.6300355598
 11
345.9422899403
 21
258.395671837
  0
LINE
  5
441
100
AcDbEntity
  8
0
100
AcDbLine
 62
7
  6
CONTINUOUS
 10
331.0519749827
 20
250.7280422409
 11
330.8093172961
 21
250.5552261931
  0
LINE
  5
442
100
AcDbEntity
  8
0
100
AcDbLine
 62
7
  6
CONTINUOUS
 10
336.3490388974
 20
248.4356767904
 11
336.1946203696
 21
248.3308927893
  0
LINE
  5
443
100
AcDbEntity
  8
0
100
AcDbLine
 62
7
  6
CONTINUOUS
 10
334.3721456737
 20
254.6133011579
 11
334.1584845466
 21
254.4703002947
  0
LINE
  5
444
100
AcDbEntity
  8
0
100
AcDbLine
 62
7
  6
CONTINUOUS
 10
338.883200324
 20
250.1370380705
 11
339.0982832736
 21
250.2749117561
  0
LINE
  5
445
100
AcDbEntity
  8
0
100
AcDbLine
 62
7
  6
CONTINUOUS
 10
342.151668383
 20
253.731835909
 11
342.4311211094
 21
253.9067846903
  0
LINE
  5
446
100
AcDbEntity
  8
0
100
AcDbLine
 62
7
  6
CONTINUOUS
 10
342.4311211094
 20
254.9304537203
 11
341.8685964722
 21
254.5811378122
  0
LINE
  5
447
100
AcDbEntity
  8
0
100
AcDbLine
 62
7
  6
CONTINUOUS
 10
342.0322353028
 20
251.9982897404
 11
341.9255986241
 21
251.9321103713
  0
LINE
  5
448
100
AcDbEntity
  8
0
100
AcDbLine
 62
7
  6
CONTINUOUS
 10
341.7987117479
 20
253.5149433674
 11
342.151668383
 21
253.731835909
  0
LINE
  5
449
100
AcDbEntity
  8
0
100
AcDbLine
 62
7
  6
CONTINUOUS
 10
328.6070005965
 20
248.6176700553
 11
328.3643429099
 21
248.4742814223
  0
LINE
  5
44A
100
AcDbEntity
  8
0
100
AcDbLine
 62
7
  6
CONTINUOUS
 10
341.9991456183
 20
251.3695857341
 11
342.1719616661
 21
251.4670451956
  0
LINE
  5
44B
100
AcDbEntity
  8
0
100
AcDbLine
 62
7
  6
CONTINUOUS
 10
344.8200412254
 20
250.7298949185
 11
344.5690680321
 21
250.5947787067
  0
LINE
  5
44C
100
AcDbEntity
  8
0
100
AcDbLine
 62
7
  6
CONTINUOUS
 10
308.2934574503
 20
353.7647058824
 11
295.7934574503
 21
366.2647058824
  0
LINE
  5
44D
100
AcDbEntity
  8
0
100
AcDbLine
 62
7
  6
CONTINUOUS
 10
340.8832735611
 20
257.2173042234
 11
341.0597518787
 21
256.7650785347
  0
LINE
  5
44E
100
AcDbEntity
  8
0
100
AcDbLine
 62
7
  6
CONTINUOUS
 10
344.6104732233
 20
248.7913908992
 11
344.5387789068
 21
249.0091882369
  0
LINE
  5
44F
100
AcDbEntity
  8
0
100
AcDbLine
 62
7
  6
CONTINUOUS
 10
343.9403640258
 20
248.9209490781
 11
344.0369186912
 21
248.6038826868
  0
LINE
  5
450
100
AcDbEntity
  8
0
100
AcDbLine
 62
7
  6
CONTINUOUS
 10
336.9676178049
 20
255.5444655619
 11
337.1404338527
 21
254.959881135
  0
LINE
  5
451
100
AcDbEntity
  8
0
100
AcDbLine
 62
7
  6
CONTINUOUS
 10
338.798623435
 20
255.1436624494
 11
338.6956921116
 21
255.526068042
  0
LINE
  5
452
100
AcDbEntity
  8
0
100
AcDbLine
 62
7
  6
CONTINUOUS
 10
342.5377147026
 20
256.2761008916
 11
342.3612363851
 21
257.0114415766
  0
LINE
  5
453
100
AcDbEntity
  8
0
100
AcDbLine
 62
7
  6
CONTINUOUS
 10
332.3535887457
 20
255.251397809
 11
332.2859444687
 21
255.5650819865
  0
LINE
  5
454
100
AcDbEntity
  8
0
100
AcDbLine
 62
7
  6
CONTINUOUS
 10
329.8753954184
 20
253.309037635
 11
329.8753954184
 21
258.6328145763
  0
LINE
  5
455
100
AcDbEntity
  8
0
100
AcDbLine
 62
7
  6
CONTINUOUS
 10
329.9893997221
 20
260.4748070158
 11
329.9893997221
 21
260.8571479801
  0
LINE
  5
456
100
AcDbEntity
  8
0
100
AcDbLine
 62
7
  6
CONTINUOUS
 10
330.2137029744
 20
249.4889886627
 11
330.2137029744
 21
249.036762974
  0
LINE
  5
457
100
AcDbEntity
  8
0
100
AcDbLine
 62
7
  6
CONTINUOUS
 10
330.5923816689
 20
256.4121218996
 11
330.5923816689
 21
255.5665253516
  0
LINE
  5
458
100
AcDbEntity
  8
0
100
AcDbLine
 62
7
  6
CONTINUOUS
 10
330.8093172961
 20
249.0477928688
 11
330.8093172961
 21
249.5036808273
  0
LINE
  5
459
100
AcDbEntity
  8
0
100
AcDbLine
 62
7
  6
CONTINUOUS
 10
332.2859444687
 20
255.5650819865
 11
332.2859444687
 21
256.2770056877
  0
LINE
  5
45A
100
AcDbEntity
  8
0
100
AcDbLine
 62
7
  6
CONTINUOUS
 10
332.5704382018
 20
250.0184236154
 11
332.5704382018
 21
250.6287301017
  0
LINE
  5
45B
100
AcDbEntity
  8
0
100
AcDbLine
 62
7
  6
CONTINUOUS
 10
332.6402798407
 20
247.8749617453
 11
332.6402798407
 21
248.444810922
  0
LINE
  5
45C
100
AcDbEntity
  8
0
100
AcDbLine
 62
7
  6
CONTINUOUS
 10
334.188127389
 20
250.3383336515
 11
334.188127389
 21
250.2647866573
  0
LINE
  5
45D
100
AcDbEntity
  8
0
100
AcDbLine
 62
7
  6
CONTINUOUS
 10
334.5759833008
 20
257.3256427804
 11
334.5759833008
 21
254.7613214851
  0
LINE
  5
45E
100
AcDbEntity
  8
0
100
AcDbLine
 62
7
  6
CONTINUOUS
 10
334.577879064
 20
261.2138315133
 11
334.577879064
 21
258.4269303868
  0
LINE
  5
45F
100
AcDbEntity
  8
0
100
AcDbLine
 62
7
  6
CONTINUOUS
 10
334.577879064
 20
253.7289707215
 11
334.577879064
 21
253.3090807206
  0
LINE
  5
460
100
AcDbEntity
  8
0
100
AcDbLine
 62
7
  6
CONTINUOUS
 10
334.7139000719
 20
250.2647866573
 11
334.7139000719
 21
248.4853113172
  0
LINE
  5
461
100
AcDbEntity
  8
0
100
AcDbLine
 62
7
  6
CONTINUOUS
 10
335.287454604
 20
248.5459757388
 11
335.287454604
 21
250.2721542824
  0
LINE
  5
462
100
AcDbEntity
  8
0
100
AcDbLine
 62
7
  6
CONTINUOUS
 10
335.2901689921
 20
250.7657420768
 11
335.2901689921
 21
251.3972035568
  0
LINE
  5
463
100
AcDbEntity
  8
0
100
AcDbLine
 62
7
  6
CONTINUOUS
 10
336.2360255608
 20
250.2721542824
 11
336.2360255608
 21
250.7657420768
  0
LINE
  5
464
100
AcDbEntity
  8
0
100
AcDbLine
 62
7
  6
CONTINUOUS
 10
336.2360255608
 20
253.3090807206
 11
336.2360255608
 21
261.2138315133
  0
LINE
  5
465
100
AcDbEntity
  8
0
100
AcDbLine
 62
7
  6
CONTINUOUS
 10
336.4207332139
 20
247.9144711733
 11
336.4207332139
 21
248.4356767904
  0
LINE
  5
466
100
AcDbEntity
  8
0
100
AcDbLine
 62
7
  6
CONTINUOUS
 10
336.9676178049
 20
256.2797416186
 11
336.9676178049
 21
255.5444655619
  0
LINE
  5
467
100
AcDbEntity
  8
0
100
AcDbLine
 62
7
  6
CONTINUOUS
 10
337.9677190517
 20
250.7979269653
 11
337.9677190517
 21
247.7647058824
  0
LINE
  5
468
100
AcDbEntity
  8
0
100
AcDbLine
 62
7
  6
CONTINUOUS
 10
338.5385161101
 20
250.1011909122
 11
338.5385161101
 21
250.7979269653
  0
LINE
  5
469
100
AcDbEntity
  8
0
100
AcDbLine
 62
7
  6
CONTINUOUS
 10
338.5412735838
 20
247.7647058824
 11
338.5412735838
 21
249.5258267881
  0
LINE
  5
46A
100
AcDbEntity
  8
0
100
AcDbLine
 62
7
  6
CONTINUOUS
 10
338.6956921116
 20
255.526068042
 11
338.6956921116
 21
255.7025463596
  0
LINE
  5
46B
100
AcDbEntity
  8
0
100
AcDbLine
 62
7
  6
CONTINUOUS
 10
338.732444066
 20
256.5555105326
 11
338.732444066
 21
256.75038637
  0
LINE
  5
46C
100
AcDbEntity
  8
0
100
AcDbLine
 62
7
  6
CONTINUOUS
 10
341.0597518787
 20
256.7650785347
 11
341.0597518787
 21
256.5555105326
  0
LINE
  5
46D
100
AcDbEntity
  8
0
100
AcDbLine
 62
7
  6
CONTINUOUS
 10
332.2859444687
 20
256.2770056877
 11
332.3581988971
 21
256.730545485
  0
LINE
  5
46E
100
AcDbEntity
  8
0
100
AcDbLine
 62
7
  6
CONTINUOUS
 10
330.6916507226
 20
256.8386255288
 11
330.5923816689
 21
256.4121218996
  0
LINE
  5
46F
100
AcDbEntity
  8
0
100
AcDbLine
 62
7
  6
CONTINUOUS
 10
326.048064992
 20
249.9559496016
 11
325.9414713989
 21
249.5000616431
  0
LINE
  5
470
100
AcDbEntity
  8
0
100
AcDbLine
 62
7
  6
CONTINUOUS
 10
330.3166342978
 20
249.9191545617
 11
330.2137029744
 21
249.4889886627
  0
LINE
  5
471
100
AcDbEntity
  8
0
100
AcDbLine
 62
7
  6
CONTINUOUS
 10
330.8093172961
 20
249.5036808273
 11
330.90492408
 21
249.8051933435
  0
LINE
  5
472
100
AcDbEntity
  8
0
100
AcDbLine
 62
7
  6
CONTINUOUS
 10
330.801949671
 20
257.1842145388
 11
330.6916507226
 21
256.8386255288
  0
LINE
  5
473
100
AcDbEntity
  8
0
100
AcDbLine
 62
7
  6
CONTINUOUS
 10
323.7464792388
 20
256.75038637
 11
323.8163639632
 21
256.9672789117
  0
LINE
  5
474
100
AcDbEntity
  8
0
100
AcDbLine
 62
7
  6
CONTINUOUS
 10
329.8753954184
 20
260.1953542893
 11
329.9893997221
 21
260.4748070158
  0
LINE
  5
475
100
AcDbEntity
  8
0
100
AcDbLine
 62
7
  6
CONTINUOUS
 10
326.5518640563
 20
249.7045886386
 11
326.6386813927
 21
249.9165694301
  0
LINE
  5
476
100
AcDbEntity
  8
0
100
AcDbLine
 62
7
  6
CONTINUOUS
 10
328.2650307707
 20
260.6439177082
 11
328.125347493
 21
260.3350806525
  0
LINE
  5
477
100
AcDbEntity
  8
0
100
AcDbLine
 62
7
  6
CONTINUOUS
 10
323.8163639632
 20
256.9672789117
 11
323.9156330169
 21
257.184214539
  0
LINE
  5
478
100
AcDbEntity
  8
0
100
AcDbLine
 62
7
  6
CONTINUOUS
 10
332.3581988971
 20
256.730545485
 11
332.4612163915
 21
256.9427201614
  0
LINE
  5
479
100
AcDbEntity
  8
0
100
AcDbLine
 62
7
  6
CONTINUOUS
 10
331.0151799429
 20
257.6143804379
 11
330.801949671
 21
257.1842145388
  0
LINE
  5
47A
100
AcDbEntity
  8
0
100
AcDbLine
 62
7
  6
CONTINUOUS
 10
322.4412462916
 20
257.5812907533
 11
322.1544690255
 21
257.0151038463
  0
LINE
  5
47B
100
AcDbEntity
  8
0
100
AcDbLine
 62
7
  6
CONTINUOUS
 10
330.4196087067
 20
250.1213980243
 11
330.3166342978
 21
249.9191545617
  0
LINE
  5
47C
100
AcDbEntity
  8
0
100
AcDbLine
 62
7
  6
CONTINUOUS
 10
326.2245433096
 20
250.3015816971
 11
326.048064992
 21
249.9559496016
  0
LINE
  5
47D
100
AcDbEntity
  8
0
100
AcDbLine
 62
7
  6
CONTINUOUS
 10
326.6386813927
 20
249.9165694301
 11
326.7497127951
 21
250.0982610964
  0
LINE
  5
47E
100
AcDbEntity
  8
0
100
AcDbLine
 62
7
  6
CONTINUOUS
 10
332.4612163915
 20
256.9427201614
 11
332.5688009518
 21
257.118013627
  0
LINE
  5
47F
100
AcDbEntity
  8
0
100
AcDbLine
 62
7
  6
CONTINUOUS
 10
323.9156330169
 20
257.184214539
 11
324.05535938
 21
257.4011501659
  0
LINE
  5
480
100
AcDbEntity
  8
0
100
AcDbLine
 62
7
  6
CONTINUOUS
 10
330.5887193992
 20
250.3750425202
 11
330.4196087067
 21
250.1213980243
  0
LINE
  5
481
100
AcDbEntity
  8
0
100
AcDbLine
 62
7
  6
CONTINUOUS
 10
329.6401053568
 20
259.871825069
 11
329.8753954184
 21
260.1953542893
  0
LINE
  5
482
100
AcDbEntity
  8
0
100
AcDbLine
 62
7
  6
CONTINUOUS
 10
330.90492408
 20
249.8051933435
 11
331.0924322924
 21
250.058880925
  0
LINE
  5
483
100
AcDbEntity
  8
0
100
AcDbLine
 62
7
  6
CONTINUOUS
 10
331.2946326694
 20
257.967337073
 11
331.0151799429
 21
257.6143804379
  0
LINE
  5
484
100
AcDbEntity
  8
0
100
AcDbLine
 62
7
  6
CONTINUOUS
 10
332.5688009518
 20
257.118013627
 11
332.7117587296
 21
257.2963446222
  0
LINE
  5
485
100
AcDbEntity
  8
0
100
AcDbLine
 62
7
  6
CONTINUOUS
 10
334.4344473454
 20
253.6289261284
 11
334.5184591512
 21
253.7289707215
  0
LINE
  5
486
100
AcDbEntity
  8
0
100
AcDbLine
 62
7
  6
CONTINUOUS
 10
337.7029584899
 20
257.8938116215
 11
337.4272111187
 21
257.5812907533
  0
LINE
  5
487
100
AcDbEntity
  8
0
100
AcDbLine
 62
7
  6
CONTINUOUS
 10
345.9422899403
 20
258.395671837
 11
345.6306954112
 21
258.0675109228
  0
LINE
  5
488
100
AcDbEntity
  8
0
100
AcDbLine
 62
7
  6
CONTINUOUS
 10
341.9255986241
 20
251.9321103713
 11
341.7491203066
 21
251.7538224616
  0
LINE
  5
489
100
AcDbEntity
  8
0
100
AcDbLine
 62
7
  6
CONTINUOUS
 10
335.2901689921
 20
251.3972035568
 11
334.188127389
 21
250.3383336515
  0
LINE
  5
48A
100
AcDbEntity
  8
0
100
AcDbLine
 62
7
  6
CONTINUOUS
 10
339.0413242071
 20
257.4011501659
 11
339.2324946894
 21
257.5776284836
  0
LINE
  5
48B
100
AcDbEntity
  8
0
100
AcDbLine
 62
7
  6
CONTINUOUS
 10
345.6968747801
 20
256.8376776471
 11
345.9450474142
 21
257.0500246658
  0
LINE
  5
48C
100
AcDbEntity
  8
0
100
AcDbLine
 62
7
  6
CONTINUOUS
 10
344.5690680321
 20
250.5947787067
 11
344.3512706944
 21
250.4127854417
  0
LINE
  5
48D
100
AcDbEntity
  8
0
100
AcDbLine
 62
7
  6
CONTINUOUS
 10
339.0982832735
 20
250.7271374448
 11
338.9245193442
 21
250.5865062855
  0
LINE
  5
48E
100
AcDbEntity
  8
0
100
AcDbLine
 62
7
  6
CONTINUOUS
 10
344.8172406661
 20
250.0598288066
 11
344.9965195429
 21
250.2032174396
  0
LINE
  5
48F
100
AcDbEntity
  8
0
100
AcDbLine
 62
7
  6
CONTINUOUS
 10
341.7142210299
 20
251.6839377373
 11
341.7142210299
 21
251.5056498276
  0
LINE
  5
490
100
AcDbEntity
  8
0
100
AcDbLine
 62
7
  6
CONTINUOUS
 10
341.7564879317
 20
250.8346789196
 11
341.7564879317
 21
247.7647058824
  0
LINE
  5
491
100
AcDbEntity
  8
0
100
AcDbLine
 62
7
  6
CONTINUOUS
 10
342.3521022534
 20
247.7647058824
 11
342.3521022534
 21
250.8346789196
  0
LINE
  5
492
100
AcDbEntity
  8
0
100
AcDbLine
 62
7
  6
CONTINUOUS
 10
342.3521022534
 20
251.6784227898
 11
342.3521022534
 21
251.895358417
  0
LINE
  5
493
100
AcDbEntity
  8
0
100
AcDbLine
 62
7
  6
CONTINUOUS
 10
342.4311211094
 20
253.9067846903
 11
342.4311211094
 21
254.9304537203
  0
LINE
  5
494
100
AcDbEntity
  8
0
100
AcDbLine
 62
7
  6
CONTINUOUS
 10
342.5377147026
 20
255.7025463596
 11
342.5377147026
 21
256.2761008916
  0
LINE
  5
495
100
AcDbEntity
  8
0
100
AcDbLine
 62
7
  6
CONTINUOUS
 10
343.3613376319
 20
258.6254469512
 11
343.3613376319
 21
253.309037635
  0
LINE
  5
496
100
AcDbEntity
  8
0
100
AcDbLine
 62
7
  6
CONTINUOUS
 10
343.9403640258
 20
249.5386662751
 11
343.9403640258
 21
248.9209490781
  0
LINE
  5
497
100
AcDbEntity
  8
0
100
AcDbLine
 62
7
  6
CONTINUOUS
 10
344.5387789068
 20
249.0091882369
 11
344.5387789068
 21
249.5359088013
  0
LINE
  5
498
100
AcDbEntity
  8
0
100
AcDbLine
 62
7
  6
CONTINUOUS
 10
345.0323236157
 20
257.1217189823
 11
345.0323236157
 21
258.6328145763
  0
LINE
  5
499
100
AcDbEntity
  8
0
100
AcDbLine
 62
7
  6
CONTINUOUS
 10
345.0525738132
 20
253.309037635
 11
345.0525738132
 21
255.6768027574
  0
LINE
  5
49A
100
AcDbEntity
  8
0
100
AcDbLine
 62
7
  6
CONTINUOUS
 10
346.2649574503
 20
250.0239816483
 11
346.2649574503
 21
250.658200602
  0
LINE
  5
49B
100
AcDbEntity
  8
0
100
AcDbLine
 62
7
  6
CONTINUOUS
 10
346.3366517668
 20
247.8759096269
 11
346.3366517668
 21
248.4356767904
  0
LINE
  5
49C
100
AcDbEntity
  8
0
100
AcDbLine
 62
7
  6
CONTINUOUS
 10
337.1404338527
 20
257.0151038463
 11
336.9676178049
 21
256.2797416186
  0
LINE
  5
49D
100
AcDbEntity
  8
0
100
AcDbLine
 62
7
  6
CONTINUOUS
 10
344.0396330794
 20
249.8916229101
 11
343.9403640258
 21
249.5386662751
  0
LINE
  5
49E
100
AcDbEntity
  8
0
100
AcDbLine
 62
7
  6
CONTINUOUS
 10
338.732444066
 20
256.75038637
 11
338.8023287903
 21
256.9672789117
  0
LINE
  5
49F
100
AcDbEntity
  8
0
100
AcDbLine
 62
7
  6
CONTINUOUS
 10
338.5412735838
 20
249.5258267881
 11
338.6818616576
 21
249.8805930153
  0
LINE
  5
4A0
100
AcDbEntity
  8
0
100
AcDbLine
 62
7
  6
CONTINUOUS
 10
344.1527325871
 20
250.1646128076
 11
344.0396330794
 21
249.8916229101
  0
LINE
  5
4A1
100
AcDbEntity
  8
0
100
AcDbLine
 62
7
  6
CONTINUOUS
 10
338.8023287903
 20
256.9672789117
 11
338.901597844
 21
257.184214539
  0
LINE
  5
4A2
100
AcDbEntity
  8
0
100
AcDbLine
 62
7
  6
CONTINUOUS
 10
345.0525738132
 20
255.6768027574
 11
345.4928217256
 21
256.5867690824
  0
LINE
  5
4A3
100
AcDbEntity
  8
0
100
AcDbLine
 62
7
  6
CONTINUOUS
 10
341.7491203066
 20
251.7538224616
 11
341.7142210299
 21
251.6839377373
  0
LINE
  5
4A4
100
AcDbEntity
  8
0
100
AcDbLine
 62
7
  6
CONTINUOUS
 10
345.4183699354
 20
257.7586738671
 11
345.0985029847
 21
257.1217189823
  0
LINE
  5
4A5
100
AcDbEntity
  8
0
100
AcDbLine
 62
7
  6
CONTINUOUS
 10
337.4272111187
 20
257.5812907533
 11
337.1404338527
 21
257.0151038463
  0
LINE
  5
4A6
100
AcDbEntity
  8
0
100
AcDbLine
 62
7
  6
CONTINUOUS
 10
338.6818616575
 20
250.2721542824
 11
338.5909081106
 21
250.1011909122
  0
LINE
  5
4A7
100
AcDbEntity
  8
0
100
AcDbLine
 62
7
  6
CONTINUOUS
 10
339.8290138072
 20
249.9936494375
 11
340.1571531789
 21
250.514811969
  0
LINE
  5
4A8
100
AcDbEntity
  8
0
100
AcDbLine
 62
7
  6
CONTINUOUS
 10
338.901597844
 20
257.184214539
 11
339.0413242071
 21
257.4011501659
  0
LINE
  5
4A9
100
AcDbEntity
  8
0
100
AcDbLine
 62
7
  6
CONTINUOUS
 10
345.6306954112
 20
258.0675109228
 11
345.4183699354
 21
257.7586738671
  0
LINE
  5
4AA
100
AcDbEntity
  8
0
100
AcDbLine
 62
7
  6
CONTINUOUS
 10
338.8115060075
 20
250.4513900736
 11
338.6818616575
 21
250.2721542824
  0
LINE
  5
4AB
100
AcDbEntity
  8
0
100
AcDbLine
 62
7
  6
CONTINUOUS
 10
338.6818616576
 20
249.8805930153
 11
338.883200324
 21
250.1370380705
  0
LINE
  5
4AC
100
AcDbEntity
  8
0
100
AcDbLine
 62
7
  6
CONTINUOUS
 10
344.3512706944
 20
250.4127854417
 11
344.1527325871
 21
250.1646128076
  0
LINE
  5
4AD
100
AcDbEntity
  8
0
100
AcDbLine
 62
7
  6
CONTINUOUS
 10
345.4928217256
 20
256.5867690824
 11
345.6968747801
 21
256.8376776471
  0
LINE
  5
4AE
100
AcDbEntity
  8
0
100
AcDbLine
 62
7
  6
CONTINUOUS
 10
344.6407623486
 20
249.8447458571
 11
344.8172406661
 21
250.0598288066
  0
LINE
  5
4AF
100
AcDbEntity
  8
0
100
AcDbLine
 62
7
  6
CONTINUOUS
 10
338.9245193442
 20
250.5865062855
 11
338.8115060075
 21
250.4513900736
  0
LINE
  5
4B0
100
AcDbEntity
  8
0
100
AcDbLine
 62
7
  6
CONTINUOUS
 10
342.1719616661
 20
251.4670451956
 11
342.3521022534
 21
251.6784227898
  0
LINE
  5
4B1
100
AcDbEntity
  8
0
100
AcDbLine
 62
7
  6
CONTINUOUS
 10
360.5934574503
 20
225.2647058824
 11
360.5934574503
 21
353.7647058824
  0
LINE
  5
4B2
100
AcDbEntity
  8
0
100
AcDbLine
 62
7
  6
CONTINUOUS
 10
364.5934574503
 20
225.2647058824
 11
364.5934574503
 21
374.2647058824
  0
LINE
  5
4B3
100
AcDbEntity
  8
0
100
AcDbLine
 62
7
  6
CONTINUOUS
 10
347.4368406923
 20
256.7990730153
 11
347.869764065
 21
258.2743429938
  0
LINE
  5
4B4
100
AcDbEntity
  8
0
100
AcDbLine
 62
7
  6
CONTINUOUS
 10
344.5387789068
 20
249.5359088013
 11
344.6407623486
 21
249.8447458571
  0
LINE
  5
4B5
100
AcDbEntity
  8
0
100
AcDbLine
 62
7
  6
CONTINUOUS
 10
371.0934574503
 20
345.5647058824
 11
371.0934574503
 21
265.5647058824
  0
LINE
  5
4B6
100
AcDbEntity
  8
0
100
AcDbLine
 62
7
  6
CONTINUOUS
 10
385.2934574503
 20
265.5647058824
 11
385.2934574503
 21
345.5647058824
  0
ARC
  5
4B7
100
AcDbEntity
  8
0
100
AcDbCircle
 62
7
  6
CONTINUOUS
 10
209.0423266414
 20
319.8400007755
 40
15.5511308089
100
AcDbArc
 50
272.8965701767
 51
86.9999999999
  0
ARC
  5
4B8
100
AcDbEntity
  8
0
100
AcDbCircle
 62
7
  6
CONTINUOUS
 10
154.8936621491
 20
351.8644076378
 40
3.099294154
100
AcDbArc
 50
181.4992779903
 51
270.0122932611
  0
SPLINE
  5
4B9
100
AcDbEntity
  8
0
100
AcDbSpline
 62
7
  6
CONTINUOUS
 70
0
 71
3
 72
9
 73
5
 74
0
 42
0.0000001
 43
0.0000001
 44
0.0000000001
 40
0.0
 40
0.0
 40
0.0
 40
0.0
 40
0.4993274443
 40
1.0
 40
1.0
 40
1.0
 40
1.0
 10
312.8758999985
 20
258.7381725579
 30
0.0
 10
312.9762673082
 20
258.7384802505
 30
0.0
 10
313.177273527
 20
258.7385143616
 30
0.0
 10
313.3782797459
 20
258.7385484727
 30
0.0
 10
313.4789174264
 20
258.7388585665
 30
0.0
  0
SPLINE
  5
4BA
100
AcDbEntity
  8
0
100
AcDbSpline
 62
7
  6
CONTINUOUS
 70
0
 71
3
 72
9
 73
5
 74
0
 42
0.0000001
 43
0.0000001
 44
0.0000000001
 40
0.0
 40
0.0
 40
0.0
 40
0.0
 40
0.5000000001
 40
1.0
 40
1.0
 40
1.0
 40
1.0
 10
334.5184591512
 20
253.7289707215
 30
0.0
 10
334.5283590225
 20
253.7287094345
 30
0.0
 10
334.5481691076
 20
253.7289707215
 30
0.0
 10
334.5679791926
 20
253.7292320084
 30
0.0
 10
334.577879064
 20
253.7289707215
 30
0.0
  0
ENDSEC
  0
SECTION
  2
OBJECTS
  0
DICTIONARY
  5
C
100
AcDbDictionary
280
0
281
1
  3
ACAD_GROUP
350
D
  3
ACAD_MLINESTYLE
350
17
  3
ACAD_LAYOUT
350
1A
  3
ACAD_PLOTSETTINGS
350
19
  3
ACAD_PLOTSTYLENAME
350
E
  0
DICTIONARY
  5
D
102
{ACAD_REACTORS
330
C
102
}
100
AcDbDictionary
280
0
281
1
  0
ACDBDICTIONARYWDFLT
  5
E
102
{ACAD_REACTORS
330
C
102
}
100
AcDbDictionary
281
1
  3
Normal
350
F
100
AcDbDictionaryWithDefault
340
F
  0
DICTIONARY
  5
17
102
{ACAD_REACTORS
330
C
102
}
100
AcDbDictionary
280
0
281
1
  3
Standard
350
18
  0
DICTIONARY
  5
19
102
{ACAD_REACTORS
330
C
102
}
100
AcDbDictionary
281
1
  0
DICTIONARY
  5
1A
102
{ACAD_REACTORS
330
C
102
}
100
AcDbDictionary
281
1
  3
Model
350
4BB
  3
Layout1
350
4BC
  0
ACDBPLACEHOLDER
  5
F
102
{ACAD_REACTORS
330
E
102
}
  0
MLINESTYLE
  5
18
102
{ACAD_REACTORS
330
17
102
}
100
AcDbMlineStyle
  2
STANDARD
 70
0
  3

 62
256
 51
90.0
 52
90.0
 71
2
 49
0.5
 62
256
  6
BYLAYER
 49
-0.5
 62
256
  6
BYLAYER
  0
LAYOUT
  5
4BB
102
{ACAD_REACTORS
330
1A
102
}
100
AcDbPlotSettings
  1

  2
none_device
  4

  6

 40
0.0
 41
0.0
 42
0.0
 43
0.0
 44
210.0
 45
297.0
 46
0.0
 47
0.0
 48
0.0
 49
0.0
140
0.0
141
0.0
142
1.0
143
1.0
 70
1024
 72
1
 73
0
 74
0
  7

 75
0
147
1.0
148
0.0
149
0.0
100
AcDbLayout
  1
Model
 70
0
 71
0
 10
0.0
 20
0.0
 11
210.0
 21
297.0
 12
0.0
 22
0.0
 32
0.0
 14
0.0
 24
0.0
 34
0.0
 15
0.0
 25
0.0
 35
0.0
146
0.0
 13
0.0
 23
0.0
 33
0.0
 16
1.0
 26
0.0
 36
0.0
 17
0.0
 27
1.0
 37
0.0
 76
0
330
210
345
0
346
0
  0
LAYOUT
  5
4BC
102
{ACAD_REACTORS
330
1A
102
}
100
AcDbPlotSettings
  1

  2
none_device
  4

  6

 40
0.0
 41
0.0
 42
0.0
 43
0.0
 44
210.0
 45
297.0
 46
0.0
 47
0.0
 48
0.0
 49
0.0
140
0.0
141
0.0
142
1.0
143
1.0
 70
0
 72
1
 73
0
 74
0
  7

 75
0
147
1.0
148
0.0
149
0.0
100
AcDbLayout
  1
Layout1
 70
0
 71
1
 10
0.0
 20
0.0
 11
210.0
 21
297.0
 12
0.0
 22
0.0
 32
0.0
 14
0.0
 24
0.0
 34
0.0
 15
0.0
 25
0.0
 35
0.0
146
0.0
 13
0.0
 23
0.0
 33
0.0
 16
1.0
 26
0.0
 36
0.0
 17
0.0
 27
1.0
 37
0.0
 76
0
330
211
345
0
346
0
  0
ENDSEC
  0
EOF
