999
DXF file: C:\Users\sesa63760\Dev\_Creo\CAD\MCADPD0004693_3D-CAD\drw0001_1.dxf
999
Pro/ENGINEER 2019471 by Parametric Technology Corporation
  0
SECTION
  2
HEADER
  9
$ACADVER
  1
AC1024
  9
$DWGCODEPAGE
  3
ANSI_1252
  9
$EXTMAX
 10
148.4588308424
 20
209.96320362
 30
0.0
  9
$EXTMIN
 10
0.0
 20
0.0
 30
0.0
  9
$LIMMIN
 10
0.0
 20
0.0
  9
$LIMMAX
 10
148.4588308424
 20
209.96320362
  9
$VIEWCTR
 10
74.2294154212
 20
104.98160181
  9
$VIEWSIZE
 40
209.96320362
  9
$CLAYER
  8
0
  9
$LTSCALE
 40
13.68649031
  9
$CELTYPE
  6
BYLAYER
  9
$DIMSCALE
 40
1.0
  9
$DIMASZ
 40
1.7673670338
  9
$DIMEXO
 40
1.0
  9
$DIMDLI
 40
9.4561205778
  9
$DIMEXE
 40
1.0
  9
$DIMCEN
 40
2.2396075053
  9
$DIMLFAC
 40
1.0
  9
$DIMBLK
  1
_FILLED
  9
$DIMALT
 70
0
  9
$DIMALTF
 40
0.0393700787
  9
$DIMTXT
 40
2.4743138474
  9
$DIMTOL
 70
1
  9
$DIMLIM
 70
0
  9
$DIMTFAC
 40
1.0
  9
$DIMTP
 40
0.01
  9
$DIMTM
 40
0.01
  9
$DIMGAP
 40
0.625
  9
$DIMDSEP
 70
46
  9
$AUNITS
 70
0
  9
$PDMODE
 70
3
  9
$PDSIZE
 40
0.3125
  9
$HANDSEED
  5
390
  9
$TILEMODE
 70
1
  9
$MEASUREMENT
 70
1
  9
$INSUNITS
 70
4
  0
ENDSEC
  0
SECTION
  2
CLASSES
  0
CLASS
  1
ACDBDICTIONARYWDFLT
  2
AcDbDictionaryWithDefault
  3
AutoCAD 2000
 90
0
 91
1
280
0
281
0
  0
CLASS
  1
ACDBPLACEHOLDER
  2
AcDbPlaceHolder
  3
AutoCAD 2000
 90
0
 91
1
280
0
281
0
  0
CLASS
  1
LAYOUT
  2
AcDbLayout
  3
AutoCAD 2000
 90
0
 91
0
280
0
281
0
  0
ENDSEC
  0
SECTION
  2
TABLES
  0
TABLE
  2
VPORT
  5
8
100
AcDbSymbolTable
 70
2
  0
VPORT
  5
1F4
100
AcDbSymbolTableRecord
100
AcDbViewportTableRecord
  2
*ACTIVE
 70
0
 10
0.0
 20
0.0
 11
1.0
 21
1.0
 12
74.2294154212
 22
104.98160181
 13
0.0
 23
0.0
 14
1.0
 24
1.0
 15
0.0
 25
0.0
 16
0.0
 26
0.0
 36
1.0
 17
0.0
 27
0.0
 37
0.0
 40
209.96320362
 41
0.7070707071
 42
50.0
 43
0.0
 44
0.0
 50
0.0
 51
0.0
 71
0
 72
100
 73
1
 74
1
 75
0
 76
0
 77
0
 78
0
  0
ENDTAB
  0
TABLE
  2
LTYPE
  5
5
100
AcDbSymbolTable
 70
6
  0
LTYPE
  5
14
100
AcDbSymbolTableRecord
100
AcDbLinetypeTableRecord
  2
BYBLOCK
 70
0
  3

 72
65
 73
0
 40
0.0
  0
LTYPE
  5
15
100
AcDbSymbolTableRecord
100
AcDbLinetypeTableRecord
  2
BYLAYER
 70
0
  3

 72
65
 73
0
 40
0.0
  0
LTYPE
  5
16
100
AcDbSymbolTableRecord
100
AcDbLinetypeTableRecord
  2
CONTINUOUS
 70
64
  3
Solid line
 72
65
 73
0
 40
0.0
  0
LTYPE
  5
1F5
100
AcDbSymbolTableRecord
100
AcDbLinetypeTableRecord
  2
CENTER
 70
64
  3
____ _ ____ _ ____ _ ____ _ ____ _ ____ _ ____
 72
65
 73
4
 40
0.6
 49
0.375
 74
0
 49
-0.075
 74
0
 49
0.075
 74
0
 49
-0.075
 74
0
  0
LTYPE
  5
1F6
100
AcDbSymbolTableRecord
100
AcDbLinetypeTableRecord
  2
HIDDEN
 70
64
  3
- - - - - - - - - - - - - - - - - - - -
 72
65
 73
2
 40
0.2
 49
0.1
 74
0
 49
-0.1
 74
0
  0
LTYPE
  5
1F7
100
AcDbSymbolTableRecord
100
AcDbLinetypeTableRecord
  2
PHANTOM
 70
64
  3
_____ _ _ _____ _ _ _____ _ _ _____
 72
65
 73
6
 40
0.8
 49
0.45
 74
0
 49
-0.05
 74
0
 49
0.1
 74
0
 49
-0.05
 74
0
 49
0.1
 74
0
 49
-0.05
 74
0
  0
LTYPE
  5
1F8
100
AcDbSymbolTableRecord
100
AcDbLinetypeTableRecord
  2
DOT
 70
64
  3
. . . . . . . . . . . . . . . . . . . .
 72
65
 73
2
 40
0.2
 49
0.1
 74
0
 49
-0.1
 74
0
  0
LTYPE
  5
1F9
100
AcDbSymbolTableRecord
100
AcDbLinetypeTableRecord
  2
DASHED
 70
64
  3
- - - - - - - - - - - - - - - - - - - -
 72
65
 73
2
 40
0.2
 49
0.1
 74
0
 49
-0.1
 74
0
  0
ENDTAB
  0
TABLE
  2
LAYER
  5
2
100
AcDbSymbolTable
 70
36
  0
LAYER
  5
10
100
AcDbSymbolTableRecord
100
AcDbLayerTableRecord
  2
0
 70
0
 62
7
  6
CONTINUOUS
370
-3
390
F
  0
LAYER
  5
1FA
100
AcDbSymbolTableRecord
100
AcDbLayerTableRecord
  2
DEFAULT_1
 70
0
 62
7
  6
CENTER
370
-3
390
F
  0
LAYER
  5
1FB
100
AcDbSymbolTableRecord
100
AcDbLayerTableRecord
  2
DEFAULT_2
 70
0
 62
7
  6
HIDDEN
370
-3
390
F
  0
LAYER
  5
1FC
100
AcDbSymbolTableRecord
100
AcDbLayerTableRecord
  2
DEFAULT_3
 70
0
 62
7
  6
PHANTOM
370
-3
390
F
  0
LAYER
  5
1FD
100
AcDbSymbolTableRecord
100
AcDbLayerTableRecord
  2
00_COMPONENTS
 70
0
 62
7
  6
CONTINUOUS
370
-3
390
F
  0
LAYER
  5
1FE
100
AcDbSymbolTableRecord
100
AcDbLayerTableRecord
  2
01_1_DEFAULT_DATUMS
 70
0
 62
7
  6
CONTINUOUS
370
-3
390
F
  0
LAYER
  5
1FF
100
AcDbSymbolTableRecord
100
AcDbLayerTableRecord
  2
01_PLANES
 70
0
 62
7
  6
CONTINUOUS
370
-3
390
F
  0
LAYER
  5
200
100
AcDbSymbolTableRecord
100
AcDbLayerTableRecord
  2
02_COORD_SYS
 70
0
 62
7
  6
CONTINUOUS
370
-3
390
F
  0
LAYER
  5
201
100
AcDbSymbolTableRecord
100
AcDbLayerTableRecord
  2
03_AXES
 70
0
 62
7
  6
CONTINUOUS
370
-3
390
F
  0
LAYER
  5
202
100
AcDbSymbolTableRecord
100
AcDbLayerTableRecord
  2
04_POINTS
 70
0
 62
7
  6
CONTINUOUS
370
-3
390
F
  0
LAYER
  5
203
100
AcDbSymbolTableRecord
100
AcDbLayerTableRecord
  2
05_CURVES
 70
0
 62
7
  6
CONTINUOUS
370
-3
390
F
  0
LAYER
  5
204
100
AcDbSymbolTableRecord
100
AcDbLayerTableRecord
  2
06_SURFS
 70
0
 62
7
  6
CONTINUOUS
370
-3
390
F
  0
LAYER
  5
205
100
AcDbSymbolTableRecord
100
AcDbLayerTableRecord
  2
07_COSMETICS
 70
0
 62
7
  6
CONTINUOUS
370
-3
390
F
  0
LAYER
  5
206
100
AcDbSymbolTableRecord
100
AcDbLayerTableRecord
  2
10_NOTES
 70
0
 62
7
  6
CONTINUOUS
370
-3
390
F
  0
LAYER
  5
207
100
AcDbSymbolTableRecord
100
AcDbLayerTableRecord
  2
11_NOTES_PUB
 70
0
 62
7
  6
CONTINUOUS
370
-3
390
F
  0
LAYER
  5
208
100
AcDbSymbolTableRecord
100
AcDbLayerTableRecord
  2
13_REF_GTOL
 70
0
 62
7
  6
CONTINUOUS
370
-3
390
F
  0
LAYER
  5
209
100
AcDbSymbolTableRecord
100
AcDbLayerTableRecord
  2
16_MISC
 70
0
 62
7
  6
CONTINUOUS
370
-3
390
F
  0
LAYER
  5
20A
100
AcDbSymbolTableRecord
100
AcDbLayerTableRecord
  2
17_NO_PRINT
 70
0
 62
7
  6
CONTINUOUS
370
-3
390
F
  0
LAYER
  5
20B
100
AcDbSymbolTableRecord
100
AcDbLayerTableRecord
  2
18_DATUM_CAMS_JOINTS
 70
0
 62
7
  6
CONTINUOUS
370
-3
390
F
  0
LAYER
  5
20C
100
AcDbSymbolTableRecord
100
AcDbLayerTableRecord
  2
19_DATUM_FUNCTIONAL
 70
0
 62
7
  6
CONTINUOUS
370
-3
390
F
  0
LAYER
  5
20D
100
AcDbSymbolTableRecord
100
AcDbLayerTableRecord
  2
20_DATUM_KINEMATIC_SCHEME
 70
0
 62
7
  6
CONTINUOUS
370
-3
390
F
  0
ENDTAB
  0
TABLE
  2
STYLE
  5
3
100
AcDbSymbolTable
 70
1
  0
STYLE
  5
11
100
AcDbSymbolTableRecord
100
AcDbTextStyleTableRecord
  2
STANDARD
 70
0
 40
0.0
 41
1.0
 50
0.0
 71
0
 42
0.2
  3
ARIAL.TTF
  4

  0
STYLE
  5
20E
100
AcDbSymbolTableRecord
100
AcDbTextStyleTableRecord
  2
TEXTSTYLE_1
 70
0
 40
0.0
 41
0.8
 50
0.0
 71
0
 42
0.2
  3
gdt
  4

  0
ENDTAB
  0
TABLE
  2
VIEW
  5
6
100
AcDbSymbolTable
 70
0
  0
ENDTAB
  0
TABLE
  2
UCS
  5
7
100
AcDbSymbolTable
 70
0
  0
ENDTAB
  0
TABLE
  2
APPID
  5
9
100
AcDbSymbolTable
 70
1
  0
APPID
  5
20F
100
AcDbSymbolTableRecord
100
AcDbRegAppTableRecord
  2
ACAD
 70
0
  0
ENDTAB
  0
TABLE
  2
BLOCK_RECORD
  5
1
100
AcDbSymbolTable
 70
0
  0
BLOCK_RECORD
  5
210
100
AcDbSymbolTableRecord
100
AcDbBlockTableRecord
  2
*Model_Space
  0
BLOCK_RECORD
  5
211
100
AcDbSymbolTableRecord
100
AcDbBlockTableRecord
  2
*Paper_Space
  0
BLOCK_RECORD
  5
212
100
AcDbSymbolTableRecord
100
AcDbBlockTableRecord
  2
_FILLED
  0
ENDTAB
  0
TABLE
  2
DIMSTYLE
  5
A
100
AcDbSymbolTable
 70
1
100
AcDbDimStyleTable
 71
0
  0
DIMSTYLE
105
213
100
AcDbSymbolTableRecord
100
AcDbDimStyleTableRecord
  2
STANDARD
 70
0
  3

  4

 40
1.0
 41
1.7673670338
 42
1.0
 43
0.38
 44
1.0
 45
0.0
 46
0.0
 47
0.01
 48
0.01
140
2.4743138474
141
0.09
142
0.0
143
25.4
144
1.0
145
0.0
146
1.0
147
0.625
 71
1
 72
0
 73
0
 74
0
 75
0
 76
0
 77
1
 78
8
 79
2
170
0
171
1
172
0
173
0
174
0
175
0
176
0
177
0
178
0
270
2
179
2
271
2
272
2
273
2
274
2
275
0
280
0
281
0
282
0
283
1
284
8
285
0
286
0
287
3
288
0
340
11
278
46
341
212
342
212
343
212
344
212
  0
ENDTAB
  0
ENDSEC
  0
SECTION
  2
BLOCKS
  0
BLOCK
  5
20
100
AcDbEntity
  8
0
100
AcDbBlockBegin
  2
*Model_Space
 70
0
 10
0.0
 20
0.0
 30
0.0
  3
*Model_Space
  1

  0
ENDBLK
  5
21
100
AcDbEntity
  8
0
100
AcDbBlockEnd
  0
BLOCK
  5
1C
100
AcDbEntity
  8
0
100
AcDbBlockBegin
  2
*Paper_Space
 70
0
 10
0.0
 20
0.0
 30
0.0
  3
*Paper_Space
  1

  0
ENDBLK
  5
1D
100
AcDbEntity
  8
0
100
AcDbBlockEnd
  0
BLOCK
  5
214
100
AcDbEntity
  8
0
100
AcDbBlockBegin
  2
_FILLED
 70
64
 10
0.0
 20
0.0
  3
_FILLED
  1

  0
SOLID
  5
215
100
AcDbEntity
  8
0
  6
BYBLOCK
 62
0
100
AcDbTrace
 10
0.0
 20
0.0
 11
-1.0
 21
0.25
 12
-1.0
 22
-0.25
 13
-1.0
 23
-0.25
  0
ENDBLK
  5
216
100
AcDbEntity
  8
0
  6
BYBLOCK
 62
0
100
AcDbBlockEnd
  0
ENDSEC
  0
SECTION
  2
ENTITIES
  0
LINE
  5
217
100
AcDbEntity
  8
0
100
AcDbLine
 62
7
  6
BYLAYER
 10
17.3264940206
 20
66.8407831536
 11
17.2229324371
 21
67.0696668342
  0
LINE
  5
218
100
AcDbEntity
  8
0
100
AcDbLine
 62
7
  6
BYLAYER
 10
18.6371518874
 20
66.2531853251
 11
18.7407134709
 21
66.0243016446
  0
LINE
  5
219
100
AcDbEntity
  8
0
100
AcDbLine
 62
7
  6
BYLAYER
 10
17.3264885975
 20
66.8407737602
 11
18.7407080478
 21
66.0242922512
  0
LINE
  5
21A
100
AcDbEntity
  8
0
100
AcDbLine
 62
7
  6
BYLAYER
 10
47.7322067788
 20
49.2864213159
 11
49.1464262291
 21
48.4699398068
  0
LINE
  5
21B
100
AcDbEntity
  8
0
100
AcDbLine
 62
7
  6
BYLAYER
 10
49.0428700687
 20
48.6988328807
 11
47.6286506185
 21
49.5153143898
  0
LINE
  5
21C
100
AcDbEntity
  8
0
100
AcDbLine
 62
7
  6
BYLAYER
 10
18.6371518874
 20
66.2531853251
 11
17.2229324371
 21
67.0696668342
  0
LINE
  5
21D
100
AcDbEntity
  8
0
100
AcDbLine
 62
7
  6
BYLAYER
 10
47.6286506185
 20
49.6377876616
 11
18.7078622712
 21
66.3348348614
  0
LINE
  5
21E
100
AcDbEntity
  8
0
100
AcDbLine
 62
7
  6
BYLAYER
 10
17.2229324371
 20
67.0696668342
 11
17.2229324379
 21
112.3038977593
  0
LINE
  5
21F
100
AcDbEntity
  8
0
100
AcDbLine
 62
7
  6
BYLAYER
 10
18.6371518876
 20
75.398012397
 11
18.6371518874
 21
66.2531853251
  0
LINE
  5
220
100
AcDbEntity
  8
0
100
AcDbLine
 62
7
  6
BYLAYER
 10
18.7078622712
 20
71.7237508144
 11
18.7078622712
 21
66.3348348614
  0
LINE
  5
221
100
AcDbEntity
  8
0
100
AcDbLine
 62
7
  6
BYLAYER
 10
18.9907038062
 20
75.1938937195
 11
18.9907038061
 21
71.887048476
  0
LINE
  5
222
100
AcDbEntity
  8
0
100
AcDbLine
 62
7
  6
BYLAYER
 10
19.5917506052
 20
80.5624060492
 11
19.5917506052
 21
79.0927016983
  0
LINE
  5
223
100
AcDbEntity
  8
0
100
AcDbLine
 62
7
  6
BYLAYER
 10
20.0513713385
 20
110.6709347412
 11
20.0513713384
 21
101.5261106536
  0
LINE
  5
224
100
AcDbEntity
  8
0
100
AcDbLine
 62
7
  6
BYLAYER
 10
20.1220817215
 20
110.6709370196
 11
20.1220817215
 21
105.2820210666
  0
LINE
  5
225
100
AcDbEntity
  8
0
100
AcDbLine
 62
7
  6
BYLAYER
 10
20.4049232564
 20
105.1187261245
 11
20.4049232565
 21
101.7302327302
  0
LINE
  5
226
100
AcDbEntity
  8
0
100
AcDbLine
 62
7
  6
BYLAYER
 10
20.8291920358
 20
91.4423173014
 11
20.8291920357
 21
85.6451501397
  0
LINE
  5
227
100
AcDbEntity
  8
0
100
AcDbLine
 62
7
  6
BYLAYER
 10
21.3595249181
 20
78.072099812
 11
21.3595249181
 21
79.5418041629
  0
LINE
  5
228
100
AcDbEntity
  8
0
100
AcDbLine
 62
7
  6
BYLAYER
 10
21.430235302
 20
78.1129242275
 11
21.430235302
 21
79.5826285784
  0
LINE
  5
229
100
AcDbEntity
  8
0
100
AcDbLine
 62
7
  6
BYLAYER
 10
49.1464316522
 20
48.4699492002
 11
49.3964219874
 21
48.4947037491
  0
LINE
  5
22A
100
AcDbEntity
  8
0
100
AcDbLine
 62
7
  6
BYLAYER
 10
47.6286506186
 20
55.0267036146
 11
18.7078622712
 21
71.7237508144
  0
LINE
  5
22B
100
AcDbEntity
  8
0
100
AcDbLine
 62
7
  6
BYLAYER
 10
47.6286506186
 20
55.3532962182
 11
18.9907038061
 21
71.887048476
  0
LINE
  5
22C
100
AcDbEntity
  8
0
100
AcDbLine
 62
7
  6
BYLAYER
 10
47.6286506186
 20
58.6601414617
 11
18.6371518876
 21
75.398012397
  0
LINE
  5
22D
100
AcDbEntity
  8
0
100
AcDbLine
 62
7
  6
BYLAYER
 10
48.2650552591
 20
58.945944225
 11
35.5370802064
 21
66.2942778064
  0
LINE
  5
22E
100
AcDbEntity
  8
0
100
AcDbLine
 62
7
  6
BYLAYER
 10
22.4555444036
 20
84.7061964043
 11
22.4555444036
 21
83.2364920534
  0
LINE
  5
22F
100
AcDbEntity
  8
0
100
AcDbLine
 62
7
  6
BYLAYER
 10
23.127299231
 20
78.5212022766
 11
23.127299231
 21
77.0514979257
  0
LINE
  5
230
100
AcDbEntity
  8
0
100
AcDbLine
 62
7
  6
BYLAYER
 10
23.3747870463
 20
82.7057790726
 11
23.3747870462
 21
81.6443259303
  0
LINE
  5
231
100
AcDbEntity
  8
0
100
AcDbLine
 62
7
  6
BYLAYER
 10
24.5768358959
 20
113.814426881
 11
24.5768358959
 21
113.242875189
  0
LINE
  5
232
100
AcDbEntity
  8
0
100
AcDbLine
 62
7
  6
BYLAYER
 10
24.8950735438
 20
76.0308960394
 11
24.8950735438
 21
77.5006003903
  0
LINE
  5
233
100
AcDbEntity
  8
0
100
AcDbLine
 62
7
  6
BYLAYER
 10
24.9657839277
 20
76.0717204549
 11
24.9657839278
 21
77.5414248058
  0
LINE
  5
234
100
AcDbEntity
  8
0
100
AcDbLine
 62
7
  6
BYLAYER
 10
26.2032259468
 20
80.0113629122
 11
26.2032259468
 21
81.0728160545
  0
LINE
  5
235
100
AcDbEntity
  8
0
100
AcDbLine
 62
7
  6
BYLAYER
 10
26.6628478567
 20
76.479998504
 11
26.6628478567
 21
75.0102941531
  0
LINE
  5
236
100
AcDbEntity
  8
0
100
AcDbLine
 62
7
  6
BYLAYER
 10
27.1224685895
 20
80.5421030736
 11
27.1224685896
 21
82.0118074245
  0
LINE
  5
237
100
AcDbEntity
  8
0
100
AcDbLine
 62
7
  6
BYLAYER
 10
50.1543376776
 20
48.9142306917
 11
54.6488889135
 21
49.9122472801
  0
LINE
  5
238
100
AcDbEntity
  8
0
100
AcDbLine
 62
7
  6
BYLAYER
 10
35.501719421
 20
69.9072847216
 11
33.7339451082
 21
70.9278866079
  0
LINE
  5
239
100
AcDbEntity
  8
0
100
AcDbLine
 62
7
  6
BYLAYER
 10
31.9661707953
 20
71.9484884942
 11
30.1983964824
 21
72.9690903805
  0
LINE
  5
23A
100
AcDbEntity
  8
0
100
AcDbLine
 62
7
  6
BYLAYER
 10
28.4306221696
 20
73.9896922668
 11
26.6628478567
 21
75.0102941531
  0
LINE
  5
23B
100
AcDbEntity
  8
0
100
AcDbLine
 62
7
  6
BYLAYER
 10
24.8950735438
 20
76.0308960394
 11
23.127299231
 21
77.0514979257
  0
LINE
  5
23C
100
AcDbEntity
  8
0
100
AcDbLine
 62
7
  6
BYLAYER
 10
21.3595249181
 20
78.072099812
 11
19.5917506052
 21
79.0927016983
  0
LINE
  5
23D
100
AcDbEntity
  8
0
100
AcDbLine
 62
7
  6
BYLAYER
 10
35.501719421
 20
71.3769890725
 11
33.7339451082
 21
72.3975909588
  0
LINE
  5
23E
100
AcDbEntity
  8
0
100
AcDbLine
 62
7
  6
BYLAYER
 10
31.9661707953
 20
73.4181928451
 11
30.1983964824
 21
74.4387947314
  0
LINE
  5
23F
100
AcDbEntity
  8
0
100
AcDbLine
 62
7
  6
BYLAYER
 10
28.4306221696
 20
75.4593966177
 11
26.6628478567
 21
76.479998504
  0
LINE
  5
240
100
AcDbEntity
  8
0
100
AcDbLine
 62
7
  6
BYLAYER
 10
24.8950735438
 20
77.5006003903
 11
23.127299231
 21
78.5212022766
  0
LINE
  5
241
100
AcDbEntity
  8
0
100
AcDbLine
 62
7
  6
BYLAYER
 10
21.3595249181
 20
79.5418041629
 11
19.5917506052
 21
80.5624060492
  0
LINE
  5
242
100
AcDbEntity
  8
0
100
AcDbLine
 62
7
  6
BYLAYER
 10
35.5370802064
 20
71.4382221265
 11
33.8046554921
 21
72.4384153743
  0
LINE
  5
243
100
AcDbEntity
  8
0
100
AcDbLine
 62
7
  6
BYLAYER
 10
32.0368811792
 20
73.4590172606
 11
30.2691068664
 21
74.4796191469
  0
LINE
  5
244
100
AcDbEntity
  8
0
100
AcDbLine
 62
7
  6
BYLAYER
 10
28.5013325535
 20
75.5002210332
 11
26.7335582406
 21
76.5208229195
  0
LINE
  5
245
100
AcDbEntity
  8
0
100
AcDbLine
 62
7
  6
BYLAYER
 10
24.9657839278
 20
77.5414248058
 11
23.1980096149
 21
78.5620266921
  0
LINE
  5
246
100
AcDbEntity
  8
0
100
AcDbLine
 62
7
  6
BYLAYER
 10
21.430235302
 20
79.5826285784
 11
19.6624609892
 21
80.6032304647
  0
LINE
  5
247
100
AcDbEntity
  8
0
100
AcDbLine
 62
7
  6
BYLAYER
 10
47.732212202
 20
49.2864307092
 11
47.6286506185
 21
49.5153143898
  0
LINE
  5
248
100
AcDbEntity
  8
0
100
AcDbLine
 62
7
  6
BYLAYER
 10
28.4306221696
 20
73.9896922668
 11
28.4306221696
 21
75.4593966177
  0
LINE
  5
249
100
AcDbEntity
  8
0
100
AcDbLine
 62
7
  6
BYLAYER
 10
28.5013325535
 20
74.0305166823
 11
28.5013325535
 21
75.5002210332
  0
LINE
  5
24A
100
AcDbEntity
  8
0
100
AcDbLine
 62
7
  6
BYLAYER
 10
28.7488209574
 20
81.0728536891
 11
28.7488209575
 21
86.8700208507
  0
LINE
  5
24B
100
AcDbEntity
  8
0
100
AcDbLine
 62
7
  6
BYLAYER
 10
29.8094042913
 20
117.4886355533
 11
29.8094042913
 21
116.8354336196
  0
LINE
  5
24C
100
AcDbEntity
  8
0
100
AcDbLine
 62
7
  6
BYLAYER
 10
30.1983964824
 20
74.4387947314
 11
30.1983964824
 21
72.9690903805
  0
LINE
  5
24D
100
AcDbEntity
  8
0
100
AcDbLine
 62
7
  6
BYLAYER
 10
31.9661707953
 20
71.9484884942
 11
31.9661707953
 21
73.4181928451
  0
LINE
  5
24E
100
AcDbEntity
  8
0
100
AcDbLine
 62
7
  6
BYLAYER
 10
32.0368811792
 20
71.9893129097
 11
32.0368811792
 21
73.4590172606
  0
LINE
  5
24F
100
AcDbEntity
  8
0
100
AcDbLine
 62
7
  6
BYLAYER
 10
32.5671092565
 20
119.9381152914
 11
32.5671092582
 21
119.0807877545
  0
LINE
  5
250
100
AcDbEntity
  8
0
100
AcDbLine
 62
7
  6
BYLAYER
 10
18.334400046
 20
113.3719075175
 11
22.8289512818
 21
117.5637206819
  0
LINE
  5
251
100
AcDbEntity
  8
0
100
AcDbLine
 62
7
  6
BYLAYER
 10
48.2650552591
 20
65.4779635621
 11
35.5370802064
 21
72.8262971434
  0
LINE
  5
252
100
AcDbEntity
  8
0
100
AcDbLine
 62
7
  6
BYLAYER
 10
48.9721590965
 20
65.8862077161
 11
36.2441840439
 21
73.2345412975
  0
LINE
  5
253
100
AcDbEntity
  8
0
100
AcDbLine
 62
7
  6
BYLAYER
 10
23.3747870462
 20
81.6443259303
 11
26.2032259468
 21
80.0113629122
  0
LINE
  5
254
100
AcDbEntity
  8
0
100
AcDbLine
 62
7
  6
BYLAYER
 10
37.5169815492
 20
74.2143630153
 11
42.5374605977
 21
71.3158536582
  0
LINE
  5
255
100
AcDbEntity
  8
0
100
AcDbLine
 62
7
  6
BYLAYER
 10
22.4555444036
 20
83.2364920534
 11
23.3747870463
 21
82.7057790726
  0
LINE
  5
256
100
AcDbEntity
  8
0
100
AcDbLine
 62
7
  6
BYLAYER
 10
26.2032259468
 20
81.0728160545
 11
27.1224685895
 21
80.5421030736
  0
LINE
  5
257
100
AcDbEntity
  8
0
100
AcDbLine
 62
7
  6
BYLAYER
 10
20.8291920357
 20
85.6451501397
 11
22.4555444036
 21
84.7061964043
  0
LINE
  5
258
100
AcDbEntity
  8
0
100
AcDbLine
 62
7
  6
BYLAYER
 10
27.1224685896
 20
82.0118074245
 11
28.7488209574
 21
81.0728536891
  0
LINE
  5
259
100
AcDbEntity
  8
0
100
AcDbLine
 62
7
  6
BYLAYER
 10
36.244184044
 20
76.8271519329
 11
37.5169815492
 21
76.0923185747
  0
LINE
  5
25A
100
AcDbEntity
  8
0
100
AcDbLine
 62
7
  6
BYLAYER
 10
35.3249414013
 20
78.419318056
 11
36.244184044
 21
77.8886050751
  0
LINE
  5
25B
100
AcDbEntity
  8
0
100
AcDbLine
 62
7
  6
BYLAYER
 10
49.0428700687
 20
48.6988328807
 11
49.1464316522
 21
48.4699492002
  0
LINE
  5
25C
100
AcDbEntity
  8
0
100
AcDbLine
 62
7
  6
BYLAYER
 10
33.7339451082
 20
72.3975909588
 11
33.7339451082
 21
70.9278866079
  0
LINE
  5
25D
100
AcDbEntity
  8
0
100
AcDbLine
 62
7
  6
BYLAYER
 10
35.3249414013
 20
81.6853277246
 11
35.3249414013
 21
78.419318056
  0
LINE
  5
25E
100
AcDbEntity
  8
0
100
AcDbLine
 62
7
  6
BYLAYER
 10
35.501719421
 20
69.9072847216
 11
35.501719421
 21
71.3769890725
  0
LINE
  5
25F
100
AcDbEntity
  8
0
100
AcDbLine
 62
7
  6
BYLAYER
 10
35.5370802064
 20
72.8262971434
 11
35.5370802064
 21
66.2942778064
  0
LINE
  5
260
100
AcDbEntity
  8
0
100
AcDbLine
 62
7
  6
BYLAYER
 10
36.244184044
 20
82.216067886
 11
36.244184044
 21
81.1546147437
  0
LINE
  5
261
100
AcDbEntity
  8
0
100
AcDbLine
 62
7
  6
BYLAYER
 10
36.244184044
 20
77.8886050751
 11
36.244184044
 21
76.8271519329
  0
LINE
  5
262
100
AcDbEntity
  8
0
100
AcDbLine
 62
7
  6
BYLAYER
 10
37.5169815493
 20
83.3591900872
 11
37.5169815493
 21
81.4812345278
  0
LINE
  5
263
100
AcDbEntity
  8
0
100
AcDbLine
 62
7
  6
BYLAYER
 10
37.5169815492
 20
76.0923185747
 11
37.5169815492
 21
74.2143630153
  0
LINE
  5
264
100
AcDbEntity
  8
0
100
AcDbLine
 62
7
  6
BYLAYER
 10
25.6573901824
 20
115.9307576638
 11
21.1628389465
 21
111.7389444995
  0
LINE
  5
265
100
AcDbEntity
  8
0
100
AcDbLine
 62
7
  6
BYLAYER
 10
21.8155486707
 20
110.9179578028
 11
24.5768358959
 21
113.242875189
  0
LINE
  5
266
100
AcDbEntity
  8
0
100
AcDbLine
 62
7
  6
BYLAYER
 10
36.244184044
 20
81.1546147437
 11
35.3249414013
 21
81.6853277246
  0
LINE
  5
267
100
AcDbEntity
  8
0
100
AcDbLine
 62
7
  6
BYLAYER
 10
37.5169815493
 20
81.4812345278
 11
36.244184044
 21
82.216067886
  0
LINE
  5
268
100
AcDbEntity
  8
0
100
AcDbLine
 62
7
  6
BYLAYER
 10
28.7488209575
 20
86.8700208507
 11
20.8291920358
 21
91.4423173014
  0
LINE
  5
269
100
AcDbEntity
  8
0
100
AcDbLine
 62
7
  6
BYLAYER
 10
42.5374605979
 20
80.4606807302
 11
37.5169815493
 21
83.3591900872
  0
LINE
  5
26A
100
AcDbEntity
  8
0
100
AcDbLine
 62
7
  6
BYLAYER
 10
42.5374605977
 20
71.3158536582
 11
42.5374605979
 21
80.4606807302
  0
LINE
  5
26B
100
AcDbEntity
  8
0
100
AcDbLine
 62
7
  6
BYLAYER
 10
22.9329258979
 20
117.6418033693
 11
34.1227141483
 21
124.1021920645
  0
LINE
  5
26C
100
AcDbEntity
  8
0
100
AcDbLine
 62
7
  6
BYLAYER
 10
34.971238753
 20
123.6122821484
 11
101.5097098348
 21
162.0280570244
  0
LINE
  5
26D
100
AcDbEntity
  8
0
100
AcDbLine
 62
7
  6
BYLAYER
 10
17.5764843557
 20
112.9162740286
 11
18.2304254299
 21
113.2938248301
  0
LINE
  5
26E
100
AcDbEntity
  8
0
100
AcDbLine
 62
7
  6
BYLAYER
 10
32.5671092565
 20
119.9381152914
 11
25.7613647988
 21
116.0088403514
  0
LINE
  5
26F
100
AcDbEntity
  8
0
100
AcDbLine
 62
7
  6
BYLAYER
 10
32.5671092582
 20
119.0807877545
 11
29.8094042913
 21
117.4886355533
  0
LINE
  5
270
100
AcDbEntity
  8
0
100
AcDbLine
 62
7
  6
BYLAYER
 10
29.8094042913
 20
116.8354336196
 11
24.5768358959
 21
113.814426881
  0
LINE
  5
271
100
AcDbEntity
  8
0
100
AcDbLine
 62
7
  6
BYLAYER
 10
21.0588643305
 20
111.6608618121
 11
20.4049232563
 21
111.2833110105
  0
LINE
  5
272
100
AcDbEntity
  8
0
100
AcDbLine
 62
7
  6
BYLAYER
 10
21.1827374773
 20
111.2833032504
 11
20.1220817215
 21
110.6709370196
  0
LINE
  5
273
100
AcDbEntity
  8
0
100
AcDbLine
 62
7
  6
BYLAYER
 10
18.7407134709
 20
66.0243016446
 11
18.990703806
 21
66.0490561935
  0
LINE
  5
274
100
AcDbEntity
  8
0
100
AcDbLine
 62
7
  6
BYLAYER
 10
46.2144311688
 20
86.4212027363
 11
46.214431169
 21
95.566026824
  0
LINE
  5
275
100
AcDbEntity
  8
0
100
AcDbLine
 62
7
  6
BYLAYER
 10
47.6286506185
 20
49.5153143898
 11
47.6286506186
 21
58.6601414617
  0
LINE
  5
276
100
AcDbEntity
  8
0
100
AcDbLine
 62
7
  6
BYLAYER
 10
48.2650552591
 20
58.945944225
 11
48.2650552591
 21
65.4779635621
  0
LINE
  5
277
100
AcDbEntity
  8
0
100
AcDbLine
 62
7
  6
BYLAYER
 10
48.9721590964
 20
59.354188379
 11
48.9721590965
 21
65.8862077161
  0
LINE
  5
278
100
AcDbEntity
  8
0
100
AcDbLine
 62
7
  6
BYLAYER
 10
20.0513713384
 20
101.5261106536
 11
46.2144311688
 21
86.4212027363
  0
LINE
  5
279
100
AcDbEntity
  8
0
100
AcDbLine
 62
7
  6
BYLAYER
 10
20.4049232565
 20
101.7302327302
 11
46.2144311688
 21
86.8294434903
  0
LINE
  5
27A
100
AcDbEntity
  8
0
100
AcDbLine
 62
7
  6
BYLAYER
 10
20.1220817215
 20
105.2820210666
 11
46.2144311689
 21
90.2179368845
  0
LINE
  5
27B
100
AcDbEntity
  8
0
100
AcDbLine
 62
7
  6
BYLAYER
 10
49.0428700687
 20
48.6988328807
 11
49.0428700695
 21
93.9330638059
  0
LINE
  5
27C
100
AcDbEntity
  8
0
100
AcDbLine
 62
7
  6
BYLAYER
 10
20.4049232565
 20
101.7302327302
 11
20.0513713384
 21
101.5261106536
  0
LINE
  5
27D
100
AcDbEntity
  8
0
100
AcDbLine
 62
7
  6
BYLAYER
 10
17.2229324379
 20
112.3038977593
 11
20.0513713385
 21
110.6709347413
  0
LINE
  5
27E
100
AcDbEntity
  8
0
100
AcDbLine
 62
7
  6
BYLAYER
 10
46.214431169
 20
95.566026824
 11
49.0428700695
 21
93.9330638059
  0
LINE
  5
27F
100
AcDbEntity
  8
0
100
AcDbLine
 62
7
  6
BYLAYER
 10
20.1220817215
 20
110.6709370196
 11
46.2321091514
 21
95.5966466804
  0
LINE
  5
280
100
AcDbEntity
  8
0
100
AcDbLine
 62
7
  6
BYLAYER
 10
49.3964219874
 20
94.5454400752
 11
46.5679830868
 21
96.1784030933
  0
LINE
  5
281
100
AcDbEntity
  8
0
100
AcDbLine
 62
7
  6
BYLAYER
 10
20.4049232563
 20
111.2833110105
 11
17.5764843557
 21
112.9162740286
  0
LINE
  5
282
100
AcDbEntity
  8
0
100
AcDbLine
 62
7
  6
BYLAYER
 10
21.1827374773
 20
111.2833032504
 11
46.9568802384
 21
96.4029316282
  0
LINE
  5
283
100
AcDbEntity
  8
0
100
AcDbLine
 62
7
  6
BYLAYER
 10
18.2304254299
 20
113.2938248301
 11
21.0588643305
 21
111.6608618121
  0
LINE
  5
284
100
AcDbEntity
  8
0
100
AcDbLine
 62
7
  6
BYLAYER
 10
47.2219241609
 20
96.5559538948
 11
50.0503630615
 21
94.9229908767
  0
LINE
  5
285
100
AcDbEntity
  8
0
100
AcDbLine
 62
7
  6
BYLAYER
 10
50.1543376776
 20
95.0010735641
 11
47.325898777
 21
96.6340365822
  0
LINE
  5
286
100
AcDbEntity
  8
0
100
AcDbLine
 62
7
  6
BYLAYER
 10
21.1628389465
 20
111.7389444995
 11
18.334400046
 21
113.3719075175
  0
LINE
  5
287
100
AcDbEntity
  8
0
100
AcDbLine
 62
7
  6
BYLAYER
 10
24.5768358959
 20
113.242875189
 11
49.6272252533
 21
98.7803533362
  0
LINE
  5
288
100
AcDbEntity
  8
0
100
AcDbLine
 62
7
  6
BYLAYER
 10
24.5768358959
 20
113.814426881
 11
50.00574119
 21
99.1333736941
  0
LINE
  5
289
100
AcDbEntity
  8
0
100
AcDbLine
 62
7
  6
BYLAYER
 10
22.8289512818
 20
117.5637206819
 11
25.6573901824
 21
115.9307576638
  0
LINE
  5
28A
100
AcDbEntity
  8
0
100
AcDbLine
 62
7
  6
BYLAYER
 10
51.8204500129
 20
100.8258497466
 11
54.6488889134
 21
99.1928867285
  0
LINE
  5
28B
100
AcDbEntity
  8
0
100
AcDbLine
 62
7
  6
BYLAYER
 10
47.325898777
 20
96.6340365822
 11
51.8204500129
 21
100.8258497466
  0
LINE
  5
28C
100
AcDbEntity
  8
0
100
AcDbLine
 62
7
  6
BYLAYER
 10
119.9653113422
 20
146.1474699169
 11
89.8426878769
 21
128.7562689635
  0
LINE
  5
28D
100
AcDbEntity
  8
0
100
AcDbLine
 62
7
  6
BYLAYER
 10
119.9653113422
 20
143.9020882731
 11
91.7872732236
 21
127.63358749
  0
LINE
  5
28E
100
AcDbEntity
  8
0
100
AcDbLine
 62
7
  6
BYLAYER
 10
126.8507834953
 20
147.3977123076
 11
122.3253189354
 21
144.784949722
  0
LINE
  5
28F
100
AcDbEntity
  8
0
100
AcDbLine
 62
7
  6
BYLAYER
 10
25.849757841
 20
88.5437578565
 11
20.8291920357
 21
85.6451501397
  0
LINE
  5
290
100
AcDbEntity
  8
0
100
AcDbLine
 62
7
  6
BYLAYER
 10
122.4943587434
 20
144.2944149663
 11
127.0198233029
 21
146.9071775519
  0
LINE
  5
291
100
AcDbEntity
  8
0
100
AcDbLine
 62
7
  6
BYLAYER
 10
54.7528635296
 20
99.2709694159
 11
51.924424629
 21
100.903932434
  0
LINE
  5
292
100
AcDbEntity
  8
0
100
AcDbLine
 62
7
  6
BYLAYER
 10
25.7613647986
 20
116.0088403512
 11
22.932925898
 21
117.6418033693
  0
LINE
  5
293
100
AcDbEntity
  8
0
100
AcDbLine
 62
7
  6
BYLAYER
 10
29.8094042913
 20
116.8354336196
 11
54.6642885247
 21
102.4857841493
  0
LINE
  5
294
100
AcDbEntity
  8
0
100
AcDbLine
 62
7
  6
BYLAYER
 10
29.8094042913
 20
117.4886355533
 11
55.2299860802
 21
102.8123878357
  0
LINE
  5
295
100
AcDbEntity
  8
0
100
AcDbLine
 62
7
  6
BYLAYER
 10
54.6488889134
 20
99.1928867285
 11
50.1543376776
 21
95.0010735641
  0
LINE
  5
296
100
AcDbEntity
  8
0
100
AcDbLine
 62
7
  6
BYLAYER
 10
122.1927069764
 20
143.4326323135
 11
126.7181715362
 21
146.0453948992
  0
LINE
  5
297
100
AcDbEntity
  8
0
100
AcDbLine
 62
7
  6
BYLAYER
 10
126.7181715362
 20
145.2288924821
 11
122.1927069764
 21
142.6161298964
  0
LINE
  5
298
100
AcDbEntity
  8
0
100
AcDbLine
 62
7
  6
BYLAYER
 10
27.4761102088
 20
87.6048041211
 11
22.4555444036
 21
84.7061964043
  0
LINE
  5
299
100
AcDbEntity
  8
0
100
AcDbLine
 62
7
  6
BYLAYER
 10
124.8799565346
 20
143.2383194764
 11
129.4054210941
 21
145.8510820619
  0
LINE
  5
29A
100
AcDbEntity
  8
0
100
AcDbLine
 62
7
  6
BYLAYER
 10
125.029955863
 20
143.2234621894
 11
129.5554204229
 21
145.8362247749
  0
LINE
  5
29B
100
AcDbEntity
  8
0
100
AcDbLine
 62
7
  6
BYLAYER
 10
51.924424629
 20
100.903932434
 11
58.7301690869
 21
104.8332073742
  0
LINE
  5
29C
100
AcDbEntity
  8
0
100
AcDbLine
 62
7
  6
BYLAYER
 10
28.7488753322
 20
86.8699266705
 11
22.4555444036
 21
83.2364920534
  0
LINE
  5
29D
100
AcDbEntity
  8
0
100
AcDbLine
 62
7
  6
BYLAYER
 10
46.5679830868
 20
96.1784030933
 11
47.2219241609
 21
96.5559538948
  0
LINE
  5
29E
100
AcDbEntity
  8
0
100
AcDbLine
 62
7
  6
BYLAYER
 10
19.6624609892
 20
80.6032304647
 11
19.5917506052
 21
80.5624060492
  0
LINE
  5
29F
100
AcDbEntity
  8
0
100
AcDbLine
 62
7
  6
BYLAYER
 10
28.7488209575
 20
85.8084604773
 11
23.3747870463
 21
82.7057790726
  0
LINE
  5
2A0
100
AcDbEntity
  8
0
100
AcDbLine
 62
7
  6
BYLAYER
 10
123.7837338834
 20
139.7788968082
 11
127.3899634562
 21
141.8609419945
  0
LINE
  5
2A1
100
AcDbEntity
  8
0
100
AcDbLine
 62
7
  6
BYLAYER
 10
28.7488209575
 20
84.7470073351
 11
23.3747870462
 21
81.6443259303
  0
LINE
  5
2A2
100
AcDbEntity
  8
0
100
AcDbLine
 62
7
  6
BYLAYER
 10
54.7528635296
 20
99.2709694159
 11
65.9426517799
 21
105.7313581111
  0
LINE
  5
2A3
100
AcDbEntity
  8
0
100
AcDbLine
 62
7
  6
BYLAYER
 10
21.3595249181
 20
79.5418041629
 11
21.430235302
 21
79.5826285784
  0
LINE
  5
2A4
100
AcDbEntity
  8
0
100
AcDbLine
 62
7
  6
BYLAYER
 10
32.5671092582
 20
119.0807877545
 11
57.9876910471
 21
104.4045400368
  0
LINE
  5
2A5
100
AcDbEntity
  8
0
100
AcDbLine
 62
7
  6
BYLAYER
 10
58.7301690869
 20
104.8332073742
 11
32.5671092565
 21
119.9381152914
  0
LINE
  5
2A6
100
AcDbEntity
  8
0
100
AcDbLine
 62
7
  6
BYLAYER
 10
66.7911763846
 20
105.241448195
 11
98.6815594421
 21
123.6532595325
  0
LINE
  5
2A7
100
AcDbEntity
  8
0
100
AcDbLine
 62
7
  6
BYLAYER
 10
125.1979533342
 20
138.9624152994
 11
133.3296474664
 21
143.657223071
  0
LINE
  5
2A8
100
AcDbEntity
  8
0
100
AcDbLine
 62
7
  6
BYLAYER
 10
28.7488209574
 20
82.950776797
 11
27.1224685896
 21
82.0118074245
  0
LINE
  5
2A9
100
AcDbEntity
  8
0
100
AcDbLine
 62
7
  6
BYLAYER
 10
99.2831671841
 20
123.3881167471
 11
121.6375317722
 21
136.2943381199
  0
LINE
  5
2AA
100
AcDbEntity
  8
0
100
AcDbLine
 62
7
  6
BYLAYER
 10
49.3964219874
 20
94.5454400752
 11
50.0503630615
 21
94.9229908767
  0
LINE
  5
2AB
100
AcDbEntity
  8
0
100
AcDbLine
 62
7
  6
BYLAYER
 10
27.1224685895
 20
81.6035378737
 11
26.2032259468
 21
81.0728160545
  0
LINE
  5
2AC
100
AcDbEntity
  8
0
100
AcDbLine
 62
7
  6
BYLAYER
 10
21.430235302
 20
78.1129242275
 11
21.3595249181
 21
78.072099812
  0
LINE
  5
2AD
100
AcDbEntity
  8
0
100
AcDbLine
 62
7
  6
BYLAYER
 10
23.1980096149
 20
78.5620266921
 11
23.127299231
 21
78.5212022766
  0
LINE
  5
2AE
100
AcDbEntity
  8
0
100
AcDbLine
 62
7
  6
BYLAYER
 10
104.1593356727
 20
124.3663007673
 11
116.8917382047
 21
131.7173129174
  0
LINE
  5
2AF
100
AcDbEntity
  8
0
100
AcDbLine
 62
7
  6
BYLAYER
 10
24.8950735438
 20
77.5006003903
 11
24.9657839278
 21
77.5414248058
  0
LINE
  5
2B0
100
AcDbEntity
  8
0
100
AcDbLine
 62
7
  6
BYLAYER
 10
105.573555123
 20
123.5498192583
 11
118.305957655
 21
130.9008314084
  0
LINE
  5
2B1
100
AcDbEntity
  8
0
100
AcDbLine
 62
7
  6
BYLAYER
 10
24.9657839277
 20
76.0717204549
 11
24.8950735438
 21
76.0308960394
  0
LINE
  5
2B2
100
AcDbEntity
  8
0
100
AcDbLine
 62
7
  6
BYLAYER
 10
26.7335582406
 20
76.5208229195
 11
26.6628478567
 21
76.479998504
  0
LINE
  5
2B3
100
AcDbEntity
  8
0
100
AcDbLine
 62
7
  6
BYLAYER
 10
18.9907038061
 20
71.887048476
 11
18.7078622712
 21
71.7237508144
  0
LINE
  5
2B4
100
AcDbEntity
  8
0
100
AcDbLine
 62
7
  6
BYLAYER
 10
34.1227141483
 20
124.1021920645
 11
66.7911763846
 21
105.241448195
  0
LINE
  5
2B5
100
AcDbEntity
  8
0
100
AcDbLine
 62
7
  6
BYLAYER
 10
37.1634425717
 20
81.6853457341
 11
36.244184044
 21
81.1546147437
  0
LINE
  5
2B6
100
AcDbEntity
  8
0
100
AcDbLine
 62
7
  6
BYLAYER
 10
39.1433620214
 20
82.4202201262
 11
37.5169815493
 21
81.4812345278
  0
LINE
  5
2B7
100
AcDbEntity
  8
0
100
AcDbLine
 62
7
  6
BYLAYER
 10
130.50123212
 20
134.8390251863
 11
129.7941282801
 21
134.4307810309
  0
LINE
  5
2B8
100
AcDbEntity
  8
0
100
AcDbLine
 62
7
  6
BYLAYER
 10
28.4306221696
 20
75.4593966177
 11
28.5013325535
 21
75.5002210332
  0
LINE
  5
2B9
100
AcDbEntity
  8
0
100
AcDbLine
 62
7
  6
BYLAYER
 10
129.4405763614
 20
133.0019053316
 11
129.7941282785
 21
133.2060274076
  0
LINE
  5
2BA
100
AcDbEntity
  8
0
100
AcDbLine
 62
7
  6
BYLAYER
 10
40.6990681787
 20
81.5220530768
 11
35.3249414013
 21
78.419318056
  0
LINE
  5
2BB
100
AcDbEntity
  8
0
100
AcDbLine
 62
7
  6
BYLAYER
 10
28.5013325535
 20
74.0305166823
 11
28.4306221696
 21
73.9896922668
  0
LINE
  5
2BC
100
AcDbEntity
  8
0
100
AcDbLine
 62
7
  6
BYLAYER
 10
133.3296474661
 20
134.1857950321
 11
131.8875665397
 21
133.3532141944
  0
LINE
  5
2BD
100
AcDbEntity
  8
0
100
AcDbLine
 62
7
  6
BYLAYER
 10
30.2691068664
 20
74.4796191469
 11
30.1983964824
 21
74.4387947314
  0
LINE
  5
2BE
100
AcDbEntity
  8
0
100
AcDbLine
 62
7
  6
BYLAYER
 10
41.6183108214
 20
80.9913400959
 11
36.244184044
 21
77.8886050751
  0
LINE
  5
2BF
100
AcDbEntity
  8
0
100
AcDbLine
 62
7
  6
BYLAYER
 10
42.5375149726
 20
80.4605865499
 11
36.244184044
 21
76.8271519329
  0
LINE
  5
2C0
100
AcDbEntity
  8
0
100
AcDbLine
 62
7
  6
BYLAYER
 10
18.990703806
 20
66.0490561935
 11
19.0967793406
 21
66.1102985664
  0
LINE
  5
2C1
100
AcDbEntity
  8
0
100
AcDbLine
 62
7
  6
BYLAYER
 10
31.9661707953
 20
73.4181928451
 11
32.0368811792
 21
73.4590172606
  0
LINE
  5
2C2
100
AcDbEntity
  8
0
100
AcDbLine
 62
7
  6
BYLAYER
 10
42.5374605979
 20
78.9908762029
 11
37.5169815492
 21
76.0923185747
  0
LINE
  5
2C3
100
AcDbEntity
  8
0
100
AcDbLine
 62
7
  6
BYLAYER
 10
32.0368811792
 20
71.9893129097
 11
31.9661707953
 21
71.9484884942
  0
LINE
  5
2C4
100
AcDbEntity
  8
0
100
AcDbLine
 62
7
  6
BYLAYER
 10
33.8046554921
 20
72.4384153743
 11
33.7339451082
 21
72.3975909588
  0
LINE
  5
2C5
100
AcDbEntity
  8
0
100
AcDbLine
 62
7
  6
BYLAYER
 10
42.5374605978
 20
77.1129206434
 11
37.5169815492
 21
74.2143630153
  0
LINE
  5
2C6
100
AcDbEntity
  8
0
100
AcDbLine
 62
7
  6
BYLAYER
 10
36.2441840439
 20
73.2345412975
 11
35.5370802064
 21
72.8262971434
  0
LINE
  5
2C7
100
AcDbEntity
  8
0
100
AcDbLine
 62
7
  6
BYLAYER
 10
35.501719421
 20
71.3769890725
 11
35.5370802064
 21
71.3974045096
  0
LINE
  5
2C8
100
AcDbEntity
  8
0
100
AcDbLine
 62
7
  6
BYLAYER
 10
35.5370802064
 20
69.9277001587
 11
35.501719421
 21
69.9072847216
  0
LINE
  5
2C9
100
AcDbEntity
  8
0
100
AcDbLine
 62
7
  6
BYLAYER
 10
48.2650552591
 20
65.4779635621
 11
48.9721590965
 21
65.8862077161
  0
LINE
  5
2CA
100
AcDbEntity
  8
0
100
AcDbLine
 62
7
  6
BYLAYER
 10
133.5417786159
 20
97.4023590232
 11
133.1882266973
 21
97.6064777008
  0
LINE
  5
2CB
100
AcDbEntity
  8
0
100
AcDbLine
 62
7
  6
BYLAYER
 10
129.7941282804
 20
107.7311096662
 11
131.4204494404
 21
108.6700610209
  0
LINE
  5
2CC
100
AcDbEntity
  8
0
100
AcDbLine
 62
7
  6
BYLAYER
 10
48.9721590964
 20
59.354188379
 11
48.2650552591
 21
58.945944225
  0
LINE
  5
2CD
100
AcDbEntity
  8
0
100
AcDbLine
 62
7
  6
BYLAYER
 10
129.7941282806
 20
105.281644745
 11
130.0062594298
 21
105.404117988
  0
LINE
  5
2CE
100
AcDbEntity
  8
0
100
AcDbLine
 62
7
  6
BYLAYER
 10
130.0133304682
 20
105.4082004296
 11
133.5417786158
 21
107.4453387574
  0
LINE
  5
2CF
100
AcDbEntity
  8
0
100
AcDbLine
 62
7
  6
BYLAYER
 10
133.5417786158
 20
106.7921368203
 11
133.1882266973
 21
106.5880147434
  0
LINE
  5
2D0
100
AcDbEntity
  8
0
100
AcDbLine
 62
7
  6
BYLAYER
 10
129.7941282805
 20
105.5265891935
 11
130.0062594298
 21
105.404117988
  0
LINE
  5
2D1
100
AcDbEntity
  8
0
100
AcDbLine
 62
7
  6
BYLAYER
 10
89.8426878769
 20
128.756268965
 11
98.6815594421
 21
123.6532595325
  0
LINE
  5
2D2
100
AcDbEntity
  8
0
100
AcDbLine
 62
7
  6
BYLAYER
 10
129.7941282805
 20
105.8613549755
 11
130.0133304682
 21
105.7348013964
  0
LINE
  5
2D3
100
AcDbEntity
  8
0
100
AcDbLine
 62
7
  6
BYLAYER
 10
124.8799597885
 20
143.2383138404
 11
124.8178229455
 21
143.1009836939
  0
LINE
  5
2D4
100
AcDbEntity
  8
0
100
AcDbLine
 62
7
  6
BYLAYER
 10
129.4405763614
 20
133.8184077454
 11
129.7941282801
 21
134.4307810309
  0
LINE
  5
2D5
100
AcDbEntity
  8
0
100
AcDbLine
 62
7
  6
BYLAYER
 10
131.2083128571
 20
108.5475846385
 11
129.7941282803
 21
109.3640460138
  0
LINE
  5
2D6
100
AcDbEntity
  8
0
100
AcDbLine
 62
7
  6
BYLAYER
 10
105.573555123
 20
123.5498192583
 11
104.1593356727
 21
124.3663007673
  0
LINE
  5
2D7
100
AcDbEntity
  8
0
100
AcDbLine
 62
7
  6
BYLAYER
 10
133.5417786158
 20
107.4453387574
 11
131.4204494404
 21
108.6700610209
  0
LINE
  5
2D8
100
AcDbEntity
  8
0
100
AcDbLine
 62
7
  6
BYLAYER
 10
99.4647293396
 20
123.0736399918
 11
98.6815594423
 21
123.6532595326
  0
LINE
  5
2D9
100
AcDbEntity
  8
0
100
AcDbLine
 62
7
  6
BYLAYER
 10
133.1882266973
 20
97.1982369462
 11
133.5417786159
 21
97.4023590232
  0
LINE
  5
2DA
100
AcDbEntity
  8
0
100
AcDbLine
 62
7
  6
BYLAYER
 10
50.0503630615
 20
48.8722545506
 11
49.3964219874
 21
48.4947037491
  0
LINE
  5
2DB
100
AcDbEntity
  8
0
100
AcDbLine
 62
7
  6
BYLAYER
 10
133.5417786159
 20
96.4225561261
 11
66.7911763828
 21
57.8843080004
  0
LINE
  5
2DC
100
AcDbEntity
  8
0
100
AcDbLine
 62
7
  6
BYLAYER
 10
54.7528635295
 20
49.9542234213
 11
65.9426517799
 21
56.4146121202
  0
LINE
  5
2DD
100
AcDbEntity
  8
0
100
AcDbLine
 62
7
  6
BYLAYER
 10
125.0299558488
 20
143.2234621976
 11
124.8799597885
 21
143.2383138404
  0
LINE
  5
2DE
100
AcDbEntity
  8
0
100
AcDbLine
 62
7
  6
BYLAYER
 10
116.8917382047
 20
131.7173129174
 11
118.305957655
 21
130.9008314084
  0
LINE
  5
2DF
100
AcDbEntity
  8
0
100
AcDbLine
 62
7
  6
BYLAYER
 10
119.9653113422
 20
143.9020882731
 11
119.9653113422
 21
146.1474699169
  0
LINE
  5
2E0
100
AcDbEntity
  8
0
100
AcDbLine
 62
7
  6
BYLAYER
 10
122.1927069764
 20
143.4326323135
 11
122.1927069764
 21
142.6161298964
  0
LINE
  5
2E1
100
AcDbEntity
  8
0
100
AcDbLine
 62
7
  6
BYLAYER
 10
129.4054243484
 20
145.8510764261
 11
129.5554204077
 21
145.8362247837
  0
LINE
  5
2E2
100
AcDbEntity
  8
0
100
AcDbLine
 62
7
  6
BYLAYER
 10
125.162567822
 20
140.9015187274
 11
125.162567822
 21
141.7180211445
  0
LINE
  5
2E3
100
AcDbEntity
  8
0
100
AcDbLine
 62
7
  6
BYLAYER
 10
126.7181715362
 20
145.2288924821
 11
126.7181715362
 21
146.0453948992
  0
LINE
  5
2E4
100
AcDbEntity
  8
0
100
AcDbLine
 62
7
  6
BYLAYER
 10
129.4405763614
 20
133.8184077454
 11
129.4405763614
 21
133.0019053316
  0
LINE
  5
2E5
100
AcDbEntity
  8
0
100
AcDbLine
 62
7
  6
BYLAYER
 10
129.7941282785
 20
133.2060274076
 11
129.7941282806
 21
105.281644745
  0
LINE
  5
2E6
100
AcDbEntity
  8
0
100
AcDbLine
 62
7
  6
BYLAYER
 10
130.0062594298
 20
105.404117988
 11
130.0062594298
 21
105.7307189549
  0
LINE
  5
2E7
100
AcDbEntity
  8
0
100
AcDbLine
 62
7
  6
BYLAYER
 10
129.4405763614
 20
133.4101460843
 11
129.7941282785
 21
133.2060274076
  0
LINE
  5
2E8
100
AcDbEntity
  8
0
100
AcDbLine
 62
7
  6
BYLAYER
 10
129.9076250983
 20
134.4963080583
 11
131.8875665397
 21
133.3532141944
  0
LINE
  5
2E9
100
AcDbEntity
  8
0
100
AcDbLine
 62
7
  6
BYLAYER
 10
125.1979533342
 20
138.9624152994
 11
123.7837338839
 21
139.7788968084
  0
LINE
  5
2EA
100
AcDbEntity
  8
0
100
AcDbLine
 62
7
  6
BYLAYER
 10
133.1882266973
 20
106.5880147434
 11
133.1882266973
 21
97.1982369462
  0
LINE
  5
2EB
100
AcDbEntity
  8
0
100
AcDbLine
 62
7
  6
BYLAYER
 10
133.3296474664
 20
143.657223071
 11
133.3296474661
 21
134.1857950321
  0
LINE
  5
2EC
100
AcDbEntity
  8
0
100
AcDbLine
 62
7
  6
BYLAYER
 10
133.5417786158
 20
107.4453387574
 11
133.5417786158
 21
106.7921368203
  0
LINE
  5
2ED
100
AcDbEntity
  8
0
100
AcDbLine
 62
7
  6
BYLAYER
 10
133.5417786159
 20
97.4023590232
 11
133.5417786159
 21
96.4225561261
  0
LINE
  5
2EE
100
AcDbEntity
  8
0
100
AcDbLine
 62
7
  6
BYLAYER
 10
127.3899634562
 20
141.8609419945
 11
125.0299558488
 21
143.2234621976
  0
LINE
  5
2EF
100
AcDbEntity
  8
0
100
AcDbLine
 62
7
  6
BYLAYER
 10
122.3253189496
 20
144.7849497138
 11
119.9653113422
 21
146.1474699169
  0
LINE
  5
2F0
100
AcDbEntity
  8
0
100
AcDbLine
 62
7
  6
BYLAYER
 10
101.5097098348
 20
162.0280570244
 11
126.8507835104
 21
147.3977122988
  0
LINE
  5
2F1
100
AcDbEntity
  8
0
100
AcDbLine
 62
7
  6
BYLAYER
 10
129.5554204077
 20
145.8362247837
 11
133.3296474664
 21
143.657223071
  0
LINE
  5
2F2
100
AcDbEntity
  8
0
100
AcDbLine
 62
7
  6
BYLAYER
 10
130.50123212
 20
134.8390251863
 11
131.8875665397
 21
133.3532141944
  0
ARC
  5
2F3
100
AcDbEntity
  8
0
100
AcDbCircle
 62
7
  6
BYLAYER
 10
35.9995820859
 20
101.9625889901
 40
2.3214351939
100
AcDbArc
 50
232.4306939966
 51
233.2155077696
  0
ARC
  5
2F4
100
AcDbEntity
  8
0
100
AcDbCircle
 62
7
  6
BYLAYER
 10
30.6114059802
 20
105.0733835394
 40
2.3214351937
100
AcDbArc
 50
232.4306939966
 51
233.2155077697
  0
ARC
  5
2F5
100
AcDbEntity
  8
0
100
AcDbCircle
 62
7
  6
BYLAYER
 10
48.5719929987
 20
55.4303021104
 40
2.3214351934
100
AcDbArc
 50
232.4306939965
 51
233.2155077697
  0
ARC
  5
2F6
100
AcDbEntity
  8
0
100
AcDbCircle
 62
7
  6
BYLAYER
 10
44.9798755949
 20
57.5041651432
 40
2.3214351932
100
AcDbArc
 50
232.4306939965
 51
233.2155077698
  0
ARC
  5
2F7
100
AcDbEntity
  8
0
100
AcDbCircle
 62
7
  6
BYLAYER
 10
41.3877581912
 20
59.5780281762
 40
2.3214351933
100
AcDbArc
 50
232.4306939965
 51
233.2155077697
  0
ARC
  5
2F8
100
AcDbEntity
  8
0
100
AcDbCircle
 62
7
  6
BYLAYER
 10
37.7956407874
 20
61.6518912091
 40
2.3214351932
100
AcDbArc
 50
232.4306939965
 51
233.2155077697
  0
ARC
  5
2F9
100
AcDbEntity
  8
0
100
AcDbCircle
 62
7
  6
BYLAYER
 10
27.0192885761
 20
67.8734803079
 40
2.3214351931
100
AcDbArc
 50
232.4306939965
 51
233.2155077698
  0
ARC
  5
2FA
100
AcDbEntity
  8
0
100
AcDbCircle
 62
7
  6
BYLAYER
 10
25.2232298743
 20
108.1841780885
 40
2.3214351933
100
AcDbArc
 50
232.4306939965
 51
233.2155077697
  0
ARC
  5
2FB
100
AcDbEntity
  8
0
100
AcDbCircle
 62
7
  6
BYLAYER
 10
41.387758191
 20
98.8517944399
 40
2.321435193
100
AcDbArc
 50
232.4306939964
 51
233.2155077697
  0
ARC
  5
2FC
100
AcDbEntity
  8
0
100
AcDbCircle
 62
7
  6
BYLAYER
 10
34.2035233834
 20
63.7257542417
 40
2.3214351928
100
AcDbArc
 50
232.4306939964
 51
233.2155077698
  0
ARC
  5
2FD
100
AcDbEntity
  8
0
100
AcDbCircle
 62
7
  6
BYLAYER
 10
30.6114059797
 20
65.7996172748
 40
2.3214351929
100
AcDbArc
 50
232.4306939964
 51
233.2155077698
  0
ARC
  5
2FE
100
AcDbEntity
  8
0
100
AcDbCircle
 62
7
  6
BYLAYER
 10
23.4271711722
 20
69.9473433407
 40
2.3214351929
100
AcDbArc
 50
232.4306939964
 51
233.2155077698
  0
ARC
  5
2FF
100
AcDbEntity
  8
0
100
AcDbCircle
 62
7
  6
BYLAYER
 10
46.7759342965
 20
95.7409998903
 40
2.3214351928
100
AcDbArc
 50
232.4306939964
 51
233.2155077698
  0
ARC
  5
300
100
AcDbEntity
  8
0
100
AcDbCircle
 62
7
  6
BYLAYER
 10
48.5012199569
 20
55.3348111552
 40
2.2025777849
100
AcDbArc
 50
233.2025280201
 51
236.8394548969
  0
ARC
  5
301
100
AcDbEntity
  8
0
100
AcDbCircle
 62
7
  6
BYLAYER
 10
44.9091025531
 20
57.4086741882
 40
2.2025777849
100
AcDbArc
 50
233.2025280201
 51
236.8394548969
  0
ARC
  5
302
100
AcDbEntity
  8
0
100
AcDbCircle
 62
7
  6
BYLAYER
 10
41.3169851494
 20
59.4825372212
 40
2.2025777849
100
AcDbArc
 50
233.20252802
 51
236.8394548969
  0
ARC
  5
303
100
AcDbEntity
  8
0
100
AcDbCircle
 62
7
  6
BYLAYER
 10
37.7248677456
 20
61.5564002541
 40
2.2025777849
100
AcDbArc
 50
233.2025280201
 51
236.8394548969
  0
ARC
  5
304
100
AcDbEntity
  8
0
100
AcDbCircle
 62
7
  6
BYLAYER
 10
34.1327503419
 20
63.6302632871
 40
2.2025777849
100
AcDbArc
 50
233.2025280201
 51
236.8394548969
  0
ARC
  5
305
100
AcDbEntity
  8
0
100
AcDbCircle
 62
7
  6
BYLAYER
 10
30.5406329381
 20
65.7041263201
 40
2.2025777849
100
AcDbArc
 50
233.2025280201
 51
236.8394548969
  0
ARC
  5
306
100
AcDbEntity
  8
0
100
AcDbCircle
 62
7
  6
BYLAYER
 10
26.9485155344
 20
67.777989353
 40
2.2025777849
100
AcDbArc
 50
233.2025280201
 51
236.8394548969
  0
ARC
  5
307
100
AcDbEntity
  8
0
100
AcDbCircle
 62
7
  6
BYLAYER
 10
23.3563981307
 20
69.851852386
 40
2.2025777849
100
AcDbArc
 50
233.2025280201
 51
236.8394548969
  0
ARC
  5
308
100
AcDbEntity
  8
0
100
AcDbCircle
 62
7
  6
BYLAYER
 10
25.1524568325
 20
108.0886871334
 40
2.2025777848
100
AcDbArc
 50
233.2025280201
 51
236.8394548969
  0
ARC
  5
309
100
AcDbEntity
  8
0
100
AcDbCircle
 62
7
  6
BYLAYER
 10
46.705161255
 20
95.6455089356
 40
2.2025777848
100
AcDbArc
 50
233.20252802
 51
236.8394548969
  0
ARC
  5
30A
100
AcDbEntity
  8
0
100
AcDbCircle
 62
7
  6
BYLAYER
 10
41.3169851494
 20
98.7563034851
 40
2.2025777849
100
AcDbArc
 50
233.2025280201
 51
236.8394548969
  0
ARC
  5
30B
100
AcDbEntity
  8
0
100
AcDbCircle
 62
7
  6
BYLAYER
 10
35.9288090438
 20
101.8670980346
 40
2.2025777849
100
AcDbArc
 50
233.2025280201
 51
236.8394548969
  0
ARC
  5
30C
100
AcDbEntity
  8
0
100
AcDbCircle
 62
7
  6
BYLAYER
 10
30.5406329381
 20
104.977892584
 40
2.2025777849
100
AcDbArc
 50
233.2025280201
 51
236.8394548969
  0
ARC
  5
30D
100
AcDbEntity
  8
0
100
AcDbCircle
 62
7
  6
BYLAYER
 10
23.5574961318
 20
67.7336529133
 40
0.6678454864
100
AcDbArc
 50
113.080566918
 51
121.3628989219
  0
SPLINE
  5
30E
100
AcDbEntity
  8
0
100
AcDbSpline
 62
7
  6
BYLAYER
 70
0
 71
3
 72
11
 73
7
 74
0
 42
0.0000001
 43
0.0000001
 44
0.0000000001
 40
0.0
 40
0.0
 40
0.0
 40
0.0
 40
0.2896433527
 40
0.5491132405
 40
0.7822372579
 40
1.0
 40
1.0
 40
1.0
 40
1.0
 10
28.0133797395
 20
113.1367526675
 30
0.0
 10
27.9256398018
 20
113.1874081981
 30
0.0
 10
27.7664375659
 20
113.2971030306
 30
0.0
 10
27.5761198087
 20
113.4970471099
 30
0.0
 10
27.4556916958
 20
113.7182918181
 30
0.0
 10
27.4276537861
 20
113.8770709948
 30
0.0
 10
27.4276231854
 20
113.9532410392
 30
0.0
  0
SPLINE
  5
30F
100
AcDbEntity
  8
0
100
AcDbSpline
 62
7
  6
BYLAYER
 70
0
 71
3
 72
11
 73
7
 74
0
 42
0.0000001
 43
0.0000001
 44
0.0000000001
 40
0.0
 40
0.0
 40
0.0
 40
0.0
 40
0.2896433527
 40
0.5491132405
 40
0.7822372579
 40
1.0
 40
1.0
 40
1.0
 40
1.0
 10
33.4015558451
 20
110.025958118
 30
0.0
 10
33.3138159075
 20
110.0766136486
 30
0.0
 10
33.1546136715
 20
110.1863084812
 30
0.0
 10
32.9642959143
 20
110.3862525605
 30
0.0
 10
32.8438678014
 20
110.6074972686
 30
0.0
 10
32.8158298918
 20
110.7662764453
 30
0.0
 10
32.815799291
 20
110.8424464898
 30
0.0
  0
SPLINE
  5
310
100
AcDbEntity
  8
0
100
AcDbSpline
 62
7
  6
BYLAYER
 70
0
 71
3
 72
11
 73
7
 74
0
 42
0.0000001
 43
0.0000001
 44
0.0000000001
 40
0.0
 40
0.0
 40
0.0
 40
0.0
 40
0.2896433527
 40
0.5491132405
 40
0.7822372579
 40
1.0
 40
1.0
 40
1.0
 40
1.0
 10
38.7897319507
 20
106.9151635686
 30
0.0
 10
38.7019920131
 20
106.9658190992
 30
0.0
 10
38.5427897771
 20
107.0755139317
 30
0.0
 10
38.3524720199
 20
107.275458011
 30
0.0
 10
38.232043907
 20
107.4967027192
 30
0.0
 10
38.2040059974
 20
107.6554818959
 30
0.0
 10
38.2039753966
 20
107.7316519404
 30
0.0
  0
SPLINE
  5
311
100
AcDbEntity
  8
0
100
AcDbSpline
 62
7
  6
BYLAYER
 70
0
 71
3
 72
11
 73
7
 74
0
 42
0.0000001
 43
0.0000001
 44
0.0000000001
 40
0.0
 40
0.0
 40
0.0
 40
0.0
 40
0.2896433527
 40
0.5491132405
 40
0.7822372579
 40
1.0
 40
1.0
 40
1.0
 40
1.0
 10
44.1779080563
 20
103.8043690191
 30
0.0
 10
44.0901681187
 20
103.8550245497
 30
0.0
 10
43.9309658827
 20
103.9647193823
 30
0.0
 10
43.7406481255
 20
104.1646634616
 30
0.0
 10
43.6202200127
 20
104.3859081697
 30
0.0
 10
43.592182103
 20
104.5446873465
 30
0.0
 10
43.5921515022
 20
104.6208573909
 30
0.0
  0
SPLINE
  5
312
100
AcDbEntity
  8
0
100
AcDbSpline
 62
7
  6
BYLAYER
 70
0
 71
3
 72
11
 73
7
 74
0
 42
0.0000001
 43
0.0000001
 44
0.0000000001
 40
0.0
 40
0.0
 40
0.0
 40
0.0
 40
0.2896433527
 40
0.5491132405
 40
0.7822372579
 40
1.0
 40
1.0
 40
1.0
 40
1.0
 10
49.5660841619
 20
100.6935744697
 30
0.0
 10
49.4783442243
 20
100.7442300003
 30
0.0
 10
49.3191419884
 20
100.8539248329
 30
0.0
 10
49.1288242312
 20
101.0538689122
 30
0.0
 10
49.0083961183
 20
101.2751136203
 30
0.0
 10
48.9803582086
 20
101.433892797
 30
0.0
 10
48.9803276078
 20
101.5100628415
 30
0.0
  0
SPLINE
  5
313
100
AcDbEntity
  8
0
100
AcDbSpline
 62
7
  6
BYLAYER
 70
0
 71
3
 72
10
 73
6
 74
0
 42
0.0000001
 43
0.0000001
 44
0.0000000001
 40
0.0
 40
0.0
 40
0.0
 40
0.0
 40
0.5228795
 40
0.7719630363
 40
1.0
 40
1.0
 40
1.0
 40
1.0
 10
51.3881383784
 20
100.3796672346
 30
0.0
 10
51.0638094295
 20
100.3406512376
 30
0.0
 10
50.5726034513
 20
100.3513754747
 30
0.0
 10
49.9646542448
 20
100.5019601265
 30
0.0
 10
49.68946348
 20
100.6223429986
 30
0.0
 10
49.5660841619
 20
100.6935744697
 30
0.0
  0
SPLINE
  5
314
100
AcDbEntity
  8
0
100
AcDbSpline
 62
7
  6
BYLAYER
 70
0
 71
3
 72
9
 73
5
 74
0
 42
0.0000001
 43
0.0000001
 44
0.0000000001
 40
0.0
 40
0.0
 40
0.0
 40
0.0
 40
0.260257614
 40
1.0
 40
1.0
 40
1.0
 40
1.0
 10
51.8204500129
 20
100.8258497466
 30
0.0
 10
51.8287931518
 20
100.8334571579
 30
0.0
 10
51.8614965288
 20
100.8619598418
 30
0.0
 10
51.896862973
 20
100.8874927497
 30
0.0
 10
51.924424629
 20
100.903932434
 30
0.0
  0
SPLINE
  5
315
100
AcDbEntity
  8
0
100
AcDbSpline
 62
7
  6
BYLAYER
 70
0
 71
3
 72
9
 73
5
 74
0
 42
0.0000001
 43
0.0000001
 44
0.0000000001
 40
0.0
 40
0.0
 40
0.0
 40
0.0
 40
0.2395702098
 40
1.0
 40
1.0
 40
1.0
 40
1.0
 10
47.2219241609
 20
96.5559538948
 30
0.0
 10
47.2308506425
 20
96.5612782678
 30
0.0
 10
47.2674701047
 20
96.5845722004
 30
0.0
 10
47.3015202281
 20
96.6118078204
 30
0.0
 10
47.325898777
 20
96.6340365822
 30
0.0
  0
SPLINE
  5
316
100
AcDbEntity
  8
0
100
AcDbSpline
 62
7
  6
BYLAYER
 70
0
 71
3
 72
11
 73
7
 74
0
 42
0.0000001
 43
0.0000001
 44
0.0000000001
 40
0.0
 40
0.0
 40
0.0
 40
0.0
 40
0.2379203356
 40
0.5000011272
 40
0.7620813085
 40
1.0
 40
1.0
 40
1.0
 40
1.0
 10
46.214431169
 20
95.566026824
 30
0.0
 10
46.2154926681
 20
95.6240193784
 30
0.0
 10
46.238355221
 20
95.745620811
 30
0.0
 10
46.31432372
 20
95.9166039788
 30
0.0
 10
46.4244135927
 20
96.0678869122
 30
0.0
 10
46.5182912764
 20
96.1484875349
 30
0.0
 10
46.5679830868
 20
96.1784030933
 30
0.0
  0
SPLINE
  5
317
100
AcDbEntity
  8
0
100
AcDbSpline
 62
7
  6
BYLAYER
 70
0
 71
3
 72
11
 73
7
 74
0
 42
0.0000001
 43
0.0000001
 44
0.0000000001
 40
0.0
 40
0.0
 40
0.0
 40
0.0
 40
0.2372542275
 40
0.5000017853
 40
0.7627483736
 40
1.0
 40
1.0
 40
1.0
 40
1.0
 10
65.9426517799
 20
56.4146121202
 30
0.0
 10
65.9426517799
 20
56.5537232541
 30
0.0
 10
65.9948084693
 20
56.8470910139
 30
0.0
 10
66.1767337365
 20
57.2592632708
 30
0.0
 10
66.4427200353
 20
57.6229013887
 30
0.0
 10
66.6707037478
 20
57.8147535076
 30
0.0
 10
66.7911763828
 20
57.8843080004
 30
0.0
  0
SPLINE
  5
318
100
AcDbEntity
  8
0
100
AcDbSpline
 62
7
  6
BYLAYER
 70
0
 71
3
 72
9
 73
5
 74
0
 42
0.0000001
 43
0.0000001
 44
0.0000000001
 40
0.0
 40
0.0
 40
0.0
 40
0.0
 40
0.2347896835
 40
1.0
 40
1.0
 40
1.0
 40
1.0
 10
54.6488889135
 20
49.9122472801
 30
0.0
 10
54.6574750743
 20
49.91415384
 30
0.0
 10
54.693670205
 20
49.9239550078
 30
0.0
 10
54.7280388725
 20
49.9398909844
 30
0.0
 10
54.7528635295
 20
49.9542234213
 30
0.0
  0
SPLINE
  5
319
100
AcDbEntity
  8
0
100
AcDbSpline
 62
7
  6
BYLAYER
 70
0
 71
3
 72
9
 73
5
 74
0
 42
0.0000001
 43
0.0000001
 44
0.0000000001
 40
0.0
 40
0.0
 40
0.0
 40
0.0
 40
0.2659630036
 40
1.0
 40
1.0
 40
1.0
 40
1.0
 10
50.0503630615
 20
48.8722545506
 30
0.0
 10
50.0589897742
 20
48.8772351558
 30
0.0
 10
50.0919907265
 20
48.894920977
 30
0.0
 10
50.1274990918
 20
48.9082711749
 30
0.0
 10
50.1543376776
 20
48.9142306917
 30
0.0
  0
SPLINE
  5
31A
100
AcDbEntity
  8
0
100
AcDbSpline
 62
7
  6
BYLAYER
 70
0
 71
3
 72
11
 73
7
 74
0
 42
0.0000001
 43
0.0000001
 44
0.0000000001
 40
0.0
 40
0.0
 40
0.0
 40
0.0
 40
0.2372428349
 40
0.4999989108
 40
0.7627555784
 40
1.0
 40
1.0
 40
1.0
 40
1.0
 10
126.8507835104
 20
147.3977122988
 30
0.0
 10
126.880900678
 20
147.3803245374
 30
0.0
 10
126.9378907533
 20
147.3323562379
 30
0.0
 10
127.0044074879
 20
147.2414588132
 30
0.0
 10
127.0498691558
 20
147.1384049088
 30
0.0
 10
127.0629164128
 20
147.0650657051
 30
0.0
 10
127.0629164128
 20
147.0302893596
 30
0.0
  0
SPLINE
  5
31B
100
AcDbEntity
  8
0
100
AcDbSpline
 62
7
  6
BYLAYER
 70
0
 71
3
 72
17
 73
13
 74
0
 42
0.0000001
 43
0.0000001
 44
0.0000000001
 40
0.0
 40
0.0
 40
0.0
 40
0.0
 40
0.0428571277
 40
0.087483909
 40
0.1353159407
 40
0.187279013
 40
0.3045397097
 40
0.4382076182
 40
0.5825507004
 40
0.7297102646
 40
0.8713099941
 40
1.0
 40
1.0
 40
1.0
 40
1.0
 10
47.5920799593
 20
104.6208572628
 30
0.0
 10
47.592102831
 20
104.563926191
 30
0.0
 10
47.5768590979
 20
104.4472171495
 30
0.0
 10
47.5099457611
 20
104.2786982543
 30
0.0
 10
47.4013155239
 20
104.1189441465
 30
0.0
 10
47.1968727373
 20
103.9137245479
 30
0.0
 10
46.8484660588
 20
103.7016447157
 30
0.0
 10
46.3475257804
 20
103.5343075476
 30
0.0
 10
45.7853484908
 20
103.4553024351
 30
0.0
 10
45.2075051218
 20
103.471285912
 30
0.0
 10
44.6611737498
 20
103.5805894612
 30
0.0
 10
44.3259566352
 20
103.718895066
 30
0.0
 10
44.1779080563
 20
103.8043690191
 30
0.0
  0
SPLINE
  5
31C
100
AcDbEntity
  8
0
100
AcDbSpline
 62
7
  6
BYLAYER
 70
0
 71
3
 72
9
 73
5
 74
0
 42
0.0000001
 43
0.0000001
 44
0.0000000001
 40
0.0
 40
0.0
 40
0.0
 40
0.0
 40
0.2339056606
 40
1.0
 40
1.0
 40
1.0
 40
1.0
 10
126.7181715362
 20
145.2288924821
 30
0.0
 10
126.7181715362
 20
145.1638318856
 30
0.0
 10
126.7320294065
 20
144.8857191106
 30
0.0
 10
126.7949122059
 20
144.6112328403
 30
0.0
 10
126.8622129604
 20
144.4090516762
 30
0.0
  0
SPLINE
  5
31D
100
AcDbEntity
  8
0
100
AcDbSpline
 62
7
  6
BYLAYER
 70
0
 71
3
 72
11
 73
7
 74
0
 42
0.0000001
 43
0.0000001
 44
0.0000000001
 40
0.0
 40
0.0
 40
0.0
 40
0.0
 40
0.2192357786
 40
0.4560636064
 40
0.7157234196
 40
1.0
 40
1.0
 40
1.0
 40
1.0
 10
127.0198233032
 20
146.9071775521
 30
0.0
 10
126.9700895925
 20
146.8601471172
 30
0.0
 10
126.8801642186
 20
146.7473298118
 30
0.0
 10
126.7858499428
 20
146.5428829662
 30
0.0
 10
126.7295444315
 20
146.3043397591
 30
0.0
 10
126.7181715362
 20
146.1341510642
 30
0.0
 10
126.7181715362
 20
146.0453948992
 30
0.0
  0
SPLINE
  5
31E
100
AcDbEntity
  8
0
100
AcDbSpline
 62
7
  6
BYLAYER
 70
0
 71
3
 72
9
 73
5
 74
0
 42
0.0000001
 43
0.0000001
 44
0.0000000001
 40
0.0
 40
0.0
 40
0.0
 40
0.0
 40
0.2875810328
 40
1.0
 40
1.0
 40
1.0
 40
1.0
 10
127.0629164128
 20
147.0302893596
 30
0.0
 10
127.0629164128
 20
147.0176099075
 30
0.0
 10
127.0602108675
 20
146.9739044061
 30
0.0
 10
127.0426455139
 20
146.9287592614
 30
0.0
 10
127.0198233032
 20
146.9071775521
 30
0.0
  0
SPLINE
  5
31F
100
AcDbEntity
  8
0
100
AcDbSpline
 62
7
  6
BYLAYER
 70
0
 71
3
 72
17
 73
13
 74
0
 42
0.0000001
 43
0.0000001
 44
0.0000000001
 40
0.0
 40
0.0
 40
0.0
 40
0.0
 40
0.0428571277
 40
0.087483909
 40
0.1353159407
 40
0.187279013
 40
0.3045397097
 40
0.4382076182
 40
0.5825507004
 40
0.7297102646
 40
0.8713099941
 40
1.0
 40
1.0
 40
1.0
 40
1.0
 10
42.2039038537
 20
107.7316518123
 30
0.0
 10
42.2039267253
 20
107.6747207404
 30
0.0
 10
42.1886829923
 20
107.5580116989
 30
0.0
 10
42.1217696555
 20
107.3894928038
 30
0.0
 10
42.0131394183
 20
107.2297386959
 30
0.0
 10
41.8086966317
 20
107.0245190973
 30
0.0
 10
41.4602899531
 20
106.8124392652
 30
0.0
 10
40.9593496748
 20
106.6451020971
 30
0.0
 10
40.3971723852
 20
106.5660969845
 30
0.0
 10
39.8193290162
 20
106.5820804615
 30
0.0
 10
39.2729976442
 20
106.6913840106
 30
0.0
 10
38.9377805296
 20
106.8296896154
 30
0.0
 10
38.7897319507
 20
106.9151635686
 30
0.0
  0
SPLINE
  5
320
100
AcDbEntity
  8
0
100
AcDbSpline
 62
7
  6
BYLAYER
 70
0
 71
3
 72
17
 73
13
 74
0
 42
0.0000001
 43
0.0000001
 44
0.0000000001
 40
0.0
 40
0.0
 40
0.0
 40
0.0
 40
0.0428571277
 40
0.087483909
 40
0.1353159407
 40
0.187279013
 40
0.3045397097
 40
0.4382076182
 40
0.5825507004
 40
0.7297102646
 40
0.8713099941
 40
1.0
 40
1.0
 40
1.0
 40
1.0
 10
36.8157277481
 20
110.8424463617
 30
0.0
 10
36.8157506197
 20
110.7855152899
 30
0.0
 10
36.8005068867
 20
110.6688062484
 30
0.0
 10
36.7335935499
 20
110.5002873532
 30
0.0
 10
36.6249633127
 20
110.3405332453
 30
0.0
 10
36.4205205261
 20
110.1353136468
 30
0.0
 10
36.0721138475
 20
109.9232338146
 30
0.0
 10
35.5711735691
 20
109.7558966465
 30
0.0
 10
35.0089962796
 20
109.6768915339
 30
0.0
 10
34.4311529106
 20
109.6928750109
 30
0.0
 10
33.8848215386
 20
109.8021785601
 30
0.0
 10
33.5496044239
 20
109.9404841648
 30
0.0
 10
33.4015558451
 20
110.025958118
 30
0.0
  0
SPLINE
  5
321
100
AcDbEntity
  8
0
100
AcDbSpline
 62
7
  6
BYLAYER
 70
0
 71
3
 72
9
 73
5
 74
0
 42
0.0000001
 43
0.0000001
 44
0.0000000001
 40
0.0
 40
0.0
 40
0.0
 40
0.0
 40
0.260257614
 40
1.0
 40
1.0
 40
1.0
 40
1.0
 10
22.8289512818
 20
117.5637206819
 30
0.0
 10
22.8372944208
 20
117.5713280932
 30
0.0
 10
22.8699977977
 20
117.5998307772
 30
0.0
 10
22.9053642419
 20
117.625363685
 30
0.0
 10
22.9329258979
 20
117.6418033693
 30
0.0
  0
SPLINE
  5
322
100
AcDbEntity
  8
0
100
AcDbSpline
 62
7
  6
BYLAYER
 70
0
 71
3
 72
9
 73
5
 74
0
 42
0.0000001
 43
0.0000001
 44
0.0000000001
 40
0.0
 40
0.0
 40
0.0
 40
0.0
 40
0.2395702098
 40
1.0
 40
1.0
 40
1.0
 40
1.0
 10
18.2304254299
 20
113.2938248301
 30
0.0
 10
18.2393519114
 20
113.2991492032
 30
0.0
 10
18.2759713737
 20
113.3224431357
 30
0.0
 10
18.3100214971
 20
113.3496787557
 30
0.0
 10
18.334400046
 20
113.3719075175
 30
0.0
  0
SPLINE
  5
323
100
AcDbEntity
  8
0
100
AcDbSpline
 62
7
  6
BYLAYER
 70
0
 71
3
 72
11
 73
7
 74
0
 42
0.0000001
 43
0.0000001
 44
0.0000000001
 40
0.0
 40
0.0
 40
0.0
 40
0.0
 40
0.2379203356
 40
0.5000011272
 40
0.7620813085
 40
1.0
 40
1.0
 40
1.0
 40
1.0
 10
17.2229324379
 20
112.3038977593
 30
0.0
 10
17.2239939371
 20
112.3618903137
 30
0.0
 10
17.24685649
 20
112.4834917463
 30
0.0
 10
17.3228249889
 20
112.6544749141
 30
0.0
 10
17.4329148617
 20
112.8057578475
 30
0.0
 10
17.5267925454
 20
112.8863584703
 30
0.0
 10
17.5764843557
 20
112.9162740286
 30
0.0
  0
SPLINE
  5
324
100
AcDbEntity
  8
0
100
AcDbSpline
 62
7
  6
BYLAYER
 70
0
 71
3
 72
11
 73
7
 74
0
 42
0.0000001
 43
0.0000001
 44
0.0000000001
 40
0.0
 40
0.0
 40
0.0
 40
0.0
 40
0.2189325297
 40
0.4525758928
 40
0.7116834299
 40
1.0
 40
1.0
 40
1.0
 40
1.0
 10
66.1965043299
 20
105.1912250325
 30
0.0
 10
66.1571709661
 20
105.2139336658
 30
0.0
 10
66.083406029
 20
105.2751819949
 30
0.0
 10
66.0037393152
 20
105.4018091251
 30
0.0
 10
65.9549953057
 20
105.5578094871
 30
0.0
 10
65.9437704162
 20
105.6715567002
 30
0.0
 10
65.9426517799
 20
105.7313581111
 30
0.0
  0
SPLINE
  5
325
100
AcDbEntity
  8
0
100
AcDbSpline
 62
7
  6
BYLAYER
 70
0
 71
3
 72
17
 73
13
 74
0
 42
0.0000001
 43
0.0000001
 44
0.0000000001
 40
0.0
 40
0.0
 40
0.0
 40
0.0
 40
0.042857965
 40
0.0874854797
 40
0.1353180708
 40
0.1872814984
 40
0.3045423159
 40
0.4382097446
 40
0.5825520305
 40
0.7297107839
 40
0.8713099826
 40
1.0
 40
1.0
 40
1.0
 40
1.0
 10
26.8154579481
 20
105.5117928061
 30
0.0
 10
26.8647514879
 20
105.5402786851
 30
0.0
 10
26.9734485828
 20
105.5854328155
 30
0.0
 10
27.1528501311
 20
105.611745454
 30
0.0
 10
27.3455194124
 20
105.5975478235
 30
0.0
 10
27.625469452
 20
105.5231076544
 30
0.0
 10
27.9833428791
 20
105.3274216634
 30
0.0
 10
28.3787340665
 20
104.9772655144
 30
0.0
 10
28.7282439542
 20
104.5299095588
 30
0.0
 10
29.0033224685
 20
104.0214908389
 30
0.0
 10
29.1818257509
 20
103.4937008239
 30
0.0
 10
29.2296549814
 20
103.1342403122
 30
0.0
 10
29.2296549814
 20
102.96328885
 30
0.0
  0
SPLINE
  5
326
100
AcDbEntity
  8
0
100
AcDbSpline
 62
7
  6
BYLAYER
 70
0
 71
3
 72
17
 73
13
 74
0
 42
0.0000001
 43
0.0000001
 44
0.0000000001
 40
0.0
 40
0.0
 40
0.0
 40
0.0
 40
0.042857965
 40
0.0874854797
 40
0.1353180708
 40
0.1872814984
 40
0.3045423159
 40
0.4382097446
 40
0.5825520305
 40
0.7297107839
 40
0.8713099826
 40
1.0
 40
1.0
 40
1.0
 40
1.0
 10
32.2036340537
 20
102.4009982567
 30
0.0
 10
32.2529275935
 20
102.4294841357
 30
0.0
 10
32.3616246884
 20
102.4746382661
 30
0.0
 10
32.5410262367
 20
102.5009509045
 30
0.0
 10
32.733695518
 20
102.4867532741
 30
0.0
 10
33.0136455576
 20
102.4123131049
 30
0.0
 10
33.3715189847
 20
102.2166271139
 30
0.0
 10
33.7669101721
 20
101.8664709649
 30
0.0
 10
34.1164200598
 20
101.4191150094
 30
0.0
 10
34.3914985741
 20
100.9106962895
 30
0.0
 10
34.5700018566
 20
100.3829062745
 30
0.0
 10
34.617831087
 20
100.0234457627
 30
0.0
 10
34.617831087
 20
99.8524943006
 30
0.0
  0
SPLINE
  5
327
100
AcDbEntity
  8
0
100
AcDbSpline
 62
7
  6
BYLAYER
 70
0
 71
3
 72
17
 73
13
 74
0
 42
0.0000001
 43
0.0000001
 44
0.0000000001
 40
0.0
 40
0.0
 40
0.0
 40
0.0
 40
0.042857965
 40
0.0874854797
 40
0.1353180708
 40
0.1872814984
 40
0.3045423159
 40
0.4382097446
 40
0.5825520305
 40
0.7297107839
 40
0.8713099826
 40
1.0
 40
1.0
 40
1.0
 40
1.0
 10
37.5918101593
 20
99.2902037072
 30
0.0
 10
37.6411036992
 20
99.3186895862
 30
0.0
 10
37.7498007941
 20
99.3638437166
 30
0.0
 10
37.9292023423
 20
99.3901563551
 30
0.0
 10
38.1218716236
 20
99.3759587247
 30
0.0
 10
38.4018216632
 20
99.3015185555
 30
0.0
 10
38.7596950903
 20
99.1058325645
 30
0.0
 10
39.1550862777
 20
98.7556764155
 30
0.0
 10
39.5045961654
 20
98.3083204599
 30
0.0
 10
39.7796746797
 20
97.79990174
 30
0.0
 10
39.9581779622
 20
97.272111725
 30
0.0
 10
40.0060071926
 20
96.9126512133
 30
0.0
 10
40.0060071926
 20
96.7416997511
 30
0.0
  0
SPLINE
  5
328
100
AcDbEntity
  8
0
100
AcDbSpline
 62
7
  6
BYLAYER
 70
0
 71
3
 72
17
 73
13
 74
0
 42
0.0000001
 43
0.0000001
 44
0.0000000001
 40
0.0
 40
0.0
 40
0.0
 40
0.0
 40
0.042857965
 40
0.0874854797
 40
0.1353180708
 40
0.1872814984
 40
0.3045423159
 40
0.4382097446
 40
0.5825520305
 40
0.7297107839
 40
0.8713099826
 40
1.0
 40
1.0
 40
1.0
 40
1.0
 10
42.9799862649
 20
96.1794091578
 30
0.0
 10
43.0292798048
 20
96.2078950368
 30
0.0
 10
43.1379768997
 20
96.2530491672
 30
0.0
 10
43.3173784479
 20
96.2793618056
 30
0.0
 10
43.5100477292
 20
96.2651641752
 30
0.0
 10
43.7899977689
 20
96.190724006
 30
0.0
 10
44.1478711959
 20
95.995038015
 30
0.0
 10
44.5432623833
 20
95.644881866
 30
0.0
 10
44.892772271
 20
95.1975259105
 30
0.0
 10
45.1678507853
 20
94.6891071906
 30
0.0
 10
45.3463540678
 20
94.1613171756
 30
0.0
 10
45.3941832983
 20
93.8018566638
 30
0.0
 10
45.3941832983
 20
93.6309052017
 30
0.0
  0
SPLINE
  5
329
100
AcDbEntity
  8
0
100
AcDbSpline
 62
7
  6
BYLAYER
 70
0
 71
3
 72
17
 73
13
 74
0
 42
0.0000001
 43
0.0000001
 44
0.0000000001
 40
0.0
 40
0.0
 40
0.0
 40
0.0
 40
0.042857965
 40
0.0874854797
 40
0.1353180708
 40
0.1872814984
 40
0.3045423159
 40
0.4382097446
 40
0.5825520305
 40
0.7297107839
 40
0.8713099826
 40
1.0
 40
1.0
 40
1.0
 40
1.0
 10
21.4272818424
 20
108.6225873556
 30
0.0
 10
21.4765753823
 20
108.6510732345
 30
0.0
 10
21.5852724772
 20
108.696227365
 30
0.0
 10
21.7646740254
 20
108.7225400034
 30
0.0
 10
21.9573433068
 20
108.708342373
 30
0.0
 10
22.2372933464
 20
108.6339022038
 30
0.0
 10
22.5951667735
 20
108.4382162128
 30
0.0
 10
22.9905579609
 20
108.0880600638
 30
0.0
 10
23.3400678486
 20
107.6407041083
 30
0.0
 10
23.6151463629
 20
107.1322853884
 30
0.0
 10
23.7936496453
 20
106.6044953734
 30
0.0
 10
23.8414788758
 20
106.2450348616
 30
0.0
 10
23.8414788758
 20
106.0740833994
 30
0.0
  0
SPLINE
  5
32A
100
AcDbEntity
  8
0
100
AcDbSpline
 62
7
  6
BYLAYER
 70
0
 71
3
 72
17
 73
13
 74
0
 42
0.0000001
 43
0.0000001
 44
0.0000000001
 40
0.0
 40
0.0
 40
0.0
 40
0.0
 40
0.042857965
 40
0.0874854797
 40
0.1353180708
 40
0.1872814984
 40
0.3045423159
 40
0.4382097446
 40
0.5825520305
 40
0.7297107839
 40
0.8713099826
 40
1.0
 40
1.0
 40
1.0
 40
1.0
 10
19.6312231406
 20
70.3857526081
 30
0.0
 10
19.6805166804
 20
70.4142384871
 30
0.0
 10
19.7892137753
 20
70.4593926175
 30
0.0
 10
19.9686153236
 20
70.485705256
 30
0.0
 10
20.1612846049
 20
70.4715076255
 30
0.0
 10
20.4412346445
 20
70.3970674564
 30
0.0
 10
20.7991080716
 20
70.2013814654
 30
0.0
 10
21.194499259
 20
69.8512253164
 30
0.0
 10
21.5440091467
 20
69.4038693608
 30
0.0
 10
21.819087661
 20
68.8954506409
 30
0.0
 10
21.9975909434
 20
68.3676606259
 30
0.0
 10
22.0454201739
 20
68.0082001142
 30
0.0
 10
22.0454201739
 20
67.837248652
 30
0.0
  0
SPLINE
  5
32B
100
AcDbEntity
  8
0
100
AcDbSpline
 62
7
  6
BYLAYER
 70
0
 71
3
 72
17
 73
13
 74
0
 42
0.0000001
 43
0.0000001
 44
0.0000000001
 40
0.0
 40
0.0
 40
0.0
 40
0.0
 40
0.0430442532
 40
0.0884542682
 40
0.137384445
 40
0.1904854187
 40
0.3095195945
 40
0.4437121725
 40
0.5873443523
 40
0.7329630581
 40
0.872780782
 40
1.0
 40
1.0
 40
1.0
 40
1.0
 10
23.2957077818
 20
68.3480467251
 30
0.0
 10
23.3472530786
 20
68.3700125355
 30
0.0
 10
23.4592666641
 20
68.4018338243
 30
0.0
 10
23.639184353
 20
68.4104711775
 30
0.0
 10
23.8299941362
 20
68.3812632573
 30
0.0
 10
24.1041388795
 20
68.2902620338
 30
0.0
 10
24.4500690746
 20
68.0827281277
 30
0.0
 10
24.8299349432
 20
67.7285971758
 30
0.0
 10
25.1631594551
 20
67.2862448566
 30
0.0
 10
25.4240284019
 20
66.7895522213
 30
0.0
 10
25.5926252331
 20
66.2769833571
 30
0.0
 10
25.6375375776
 20
65.9289862055
 30
0.0
 10
25.6375375776
 20
65.763385619
 30
0.0
  0
SPLINE
  5
32C
100
AcDbEntity
  8
0
100
AcDbSpline
 62
7
  6
BYLAYER
 70
0
 71
3
 72
17
 73
13
 74
0
 42
0.0000001
 43
0.0000001
 44
0.0000000001
 40
0.0
 40
0.0
 40
0.0
 40
0.0
 40
0.042857965
 40
0.0874854797
 40
0.1353180708
 40
0.1872814984
 40
0.3045423159
 40
0.4382097446
 40
0.5825520305
 40
0.7297107839
 40
0.8713099826
 40
1.0
 40
1.0
 40
1.0
 40
1.0
 10
26.8154579481
 20
66.2380265422
 30
0.0
 10
26.8647514879
 20
66.2665124212
 30
0.0
 10
26.9734485828
 20
66.3116665516
 30
0.0
 10
27.1528501311
 20
66.33797919
 30
0.0
 10
27.3455194124
 20
66.3237815596
 30
0.0
 10
27.625469452
 20
66.2493413905
 30
0.0
 10
27.9833428791
 20
66.0536553994
 30
0.0
 10
28.3787340665
 20
65.7034992504
 30
0.0
 10
28.7282439542
 20
65.2561432949
 30
0.0
 10
29.0033224685
 20
64.747724575
 30
0.0
 10
29.1818257509
 20
64.21993456
 30
0.0
 10
29.2296549814
 20
63.8604740482
 30
0.0
 10
29.2296549814
 20
63.6895225861
 30
0.0
  0
SPLINE
  5
32D
100
AcDbEntity
  8
0
100
AcDbSpline
 62
7
  6
BYLAYER
 70
0
 71
3
 72
17
 73
13
 74
0
 42
0.0000001
 43
0.0000001
 44
0.0000000001
 40
0.0
 40
0.0
 40
0.0
 40
0.0
 40
0.042857965
 40
0.0874854797
 40
0.1353180708
 40
0.1872814984
 40
0.3045423159
 40
0.4382097446
 40
0.5825520305
 40
0.7297107839
 40
0.8713099826
 40
1.0
 40
1.0
 40
1.0
 40
1.0
 10
30.4075753518
 20
64.1641635092
 30
0.0
 10
30.4568688917
 20
64.1926493882
 30
0.0
 10
30.5655659866
 20
64.2378035186
 30
0.0
 10
30.7449675348
 20
64.2641161571
 30
0.0
 10
30.9376368161
 20
64.2499185267
 30
0.0
 10
31.2175868557
 20
64.1754783575
 30
0.0
 10
31.5754602828
 20
63.9797923665
 30
0.0
 10
31.9708514702
 20
63.6296362175
 30
0.0
 10
32.3203613579
 20
63.1822802619
 30
0.0
 10
32.5954398722
 20
62.673861542
 30
0.0
 10
32.7739431547
 20
62.146071527
 30
0.0
 10
32.8217723851
 20
61.7866110153
 30
0.0
 10
32.8217723851
 20
61.6156595531
 30
0.0
  0
SPLINE
  5
32E
100
AcDbEntity
  8
0
100
AcDbSpline
 62
7
  6
BYLAYER
 70
0
 71
3
 72
17
 73
13
 74
0
 42
0.0000001
 43
0.0000001
 44
0.0000000001
 40
0.0
 40
0.0
 40
0.0
 40
0.0
 40
0.042857965
 40
0.0874854797
 40
0.1353180708
 40
0.1872814984
 40
0.3045423159
 40
0.4382097446
 40
0.5825520305
 40
0.7297107839
 40
0.8713099826
 40
1.0
 40
1.0
 40
1.0
 40
1.0
 10
33.9996927555
 20
62.0903004763
 30
0.0
 10
34.0489862954
 20
62.1187863552
 30
0.0
 10
34.1576833903
 20
62.1639404857
 30
0.0
 10
34.3370849385
 20
62.1902531241
 30
0.0
 10
34.5297542199
 20
62.1760554937
 30
0.0
 10
34.8097042595
 20
62.1016153245
 30
0.0
 10
35.1675776866
 20
61.9059293335
 30
0.0
 10
35.562968874
 20
61.5557731845
 30
0.0
 10
35.9124787617
 20
61.1084172289
 30
0.0
 10
36.187557276
 20
60.5999985091
 30
0.0
 10
36.3660605584
 20
60.0722084941
 30
0.0
 10
36.4138897889
 20
59.7127479823
 30
0.0
 10
36.4138897889
 20
59.5417965201
 30
0.0
  0
SPLINE
  5
32F
100
AcDbEntity
  8
0
100
AcDbSpline
 62
7
  6
BYLAYER
 70
0
 71
3
 72
17
 73
13
 74
0
 42
0.0000001
 43
0.0000001
 44
0.0000000001
 40
0.0
 40
0.0
 40
0.0
 40
0.0
 40
0.042857965
 40
0.0874854797
 40
0.1353180708
 40
0.1872814984
 40
0.3045423159
 40
0.4382097446
 40
0.5825520305
 40
0.7297107839
 40
0.8713099826
 40
1.0
 40
1.0
 40
1.0
 40
1.0
 10
37.5918101593
 20
60.0164374433
 30
0.0
 10
37.6411036992
 20
60.0449233223
 30
0.0
 10
37.7498007941
 20
60.0900774527
 30
0.0
 10
37.9292023423
 20
60.1163900912
 30
0.0
 10
38.1218716236
 20
60.1021924607
 30
0.0
 10
38.4018216632
 20
60.0277522916
 30
0.0
 10
38.7596950903
 20
59.8320663005
 30
0.0
 10
39.1550862777
 20
59.4819101515
 30
0.0
 10
39.5045961654
 20
59.034554196
 30
0.0
 10
39.7796746797
 20
58.5261354761
 30
0.0
 10
39.9581779622
 20
57.9983454611
 30
0.0
 10
40.0060071926
 20
57.6388849493
 30
0.0
 10
40.0060071926
 20
57.4679334872
 30
0.0
  0
SPLINE
  5
330
100
AcDbEntity
  8
0
100
AcDbSpline
 62
7
  6
BYLAYER
 70
0
 71
3
 72
17
 73
13
 74
0
 42
0.0000001
 43
0.0000001
 44
0.0000000001
 40
0.0
 40
0.0
 40
0.0
 40
0.0
 40
0.042857965
 40
0.0874854797
 40
0.1353180708
 40
0.1872814984
 40
0.3045423159
 40
0.4382097446
 40
0.5825520305
 40
0.7297107839
 40
0.8713099826
 40
1.0
 40
1.0
 40
1.0
 40
1.0
 10
41.183927563
 20
57.9425744103
 30
0.0
 10
41.2332211029
 20
57.9710602893
 30
0.0
 10
41.3419181978
 20
58.0162144197
 30
0.0
 10
41.521319746
 20
58.0425270582
 30
0.0
 10
41.7139890274
 20
58.0283294278
 30
0.0
 10
41.993939067
 20
57.9538892586
 30
0.0
 10
42.3518124941
 20
57.7582032676
 30
0.0
 10
42.7472036815
 20
57.4080471186
 30
0.0
 10
43.0967135692
 20
56.960691163
 30
0.0
 10
43.3717920835
 20
56.4522724431
 30
0.0
 10
43.5502953659
 20
55.9244824282
 30
0.0
 10
43.5981245964
 20
55.5650219164
 30
0.0
 10
43.5981245964
 20
55.3940704542
 30
0.0
  0
SPLINE
  5
331
100
AcDbEntity
  8
0
100
AcDbSpline
 62
7
  6
BYLAYER
 70
0
 71
3
 72
17
 73
13
 74
0
 42
0.0000001
 43
0.0000001
 44
0.0000000001
 40
0.0
 40
0.0
 40
0.0
 40
0.0
 40
0.042857965
 40
0.0874854797
 40
0.1353180708
 40
0.1872814984
 40
0.3045423159
 40
0.4382097446
 40
0.5825520305
 40
0.7297107839
 40
0.8713099826
 40
1.0
 40
1.0
 40
1.0
 40
1.0
 10
44.7760449668
 20
55.8687113774
 30
0.0
 10
44.8253385067
 20
55.8971972563
 30
0.0
 10
44.9340356016
 20
55.9423513868
 30
0.0
 10
45.1134371498
 20
55.9686640252
 30
0.0
 10
45.3061064311
 20
55.9544663948
 30
0.0
 10
45.5860564707
 20
55.8800262256
 30
0.0
 10
45.9439298978
 20
55.6843402346
 30
0.0
 10
46.3393210852
 20
55.3341840856
 30
0.0
 10
46.6888309729
 20
54.8868281301
 30
0.0
 10
46.9639094872
 20
54.3784094102
 30
0.0
 10
47.1424127697
 20
53.8506193952
 30
0.0
 10
47.1902420001
 20
53.4911588834
 30
0.0
 10
47.1902420001
 20
53.3202074213
 30
0.0
  0
SPLINE
  5
332
100
AcDbEntity
  8
0
100
AcDbSpline
 62
7
  6
BYLAYER
 70
0
 71
3
 72
11
 73
7
 74
0
 42
0.0000001
 43
0.0000001
 44
0.0000000001
 40
0.0
 40
0.0
 40
0.0
 40
0.0
 40
0.2200051289
 40
0.4562528807
 40
0.7153137484
 40
1.0
 40
1.0
 40
1.0
 40
1.0
 10
98.652834311
 20
123.6024131743
 30
0.0
 10
99.0444613472
 20
123.4514364867
 30
0.0
 10
99.9060829157
 20
123.2570130928
 30
0.0
 10
101.2817943308
 20
123.3063135753
 30
0.0
 10
102.7325724887
 20
123.676613182
 30
0.0
 10
103.6817544831
 20
124.1076628121
 30
0.0
 10
104.1593356727
 20
124.3663007673
 30
0.0
  0
SPLINE
  5
333
100
AcDbEntity
  8
0
100
AcDbSpline
 62
7
  6
BYLAYER
 70
0
 71
3
 72
17
 73
13
 74
0
 42
0.0000001
 43
0.0000001
 44
0.0000000001
 40
0.0
 40
0.0
 40
0.0
 40
0.0
 40
0.0428571277
 40
0.087483909
 40
0.1353159407
 40
0.187279013
 40
0.3045397097
 40
0.4382076182
 40
0.5825507004
 40
0.7297102646
 40
0.8713099941
 40
1.0
 40
1.0
 40
1.0
 40
1.0
 10
31.4275516424
 20
113.9532409111
 30
0.0
 10
31.4275745141
 20
113.8963098393
 30
0.0
 10
31.4123307811
 20
113.7796007978
 30
0.0
 10
31.3454174443
 20
113.6110819027
 30
0.0
 10
31.2367872071
 20
113.4513277948
 30
0.0
 10
31.0323444205
 20
113.2461081962
 30
0.0
 10
30.6839377419
 20
113.0340283641
 30
0.0
 10
30.1829974635
 20
112.866691196
 30
0.0
 10
29.620820174
 20
112.7876860834
 30
0.0
 10
29.0429768049
 20
112.8036695604
 30
0.0
 10
28.4966454329
 20
112.9129731095
 30
0.0
 10
28.1614283183
 20
113.0512787143
 30
0.0
 10
28.0133797395
 20
113.1367526675
 30
0.0
  0
SPLINE
  5
334
100
AcDbEntity
  8
0
100
AcDbSpline
 62
7
  6
BYLAYER
 70
0
 71
3
 72
11
 73
7
 74
0
 42
0.0000001
 43
0.0000001
 44
0.0000000001
 40
0.0
 40
0.0
 40
0.0
 40
0.0
 40
0.2296923852
 40
0.4776180814
 40
0.7370302414
 40
1.0
 40
1.0
 40
1.0
 40
1.0
 10
116.8917382047
 20
131.7173129174
 30
0.0
 10
117.5899988253
 20
132.1503237542
 30
0.0
 10
118.9582788285
 20
133.1889115523
 30
0.0
 10
120.802775205
 20
135.0836333467
 30
0.0
 10
122.4518324205
 20
137.3003272622
 30
0.0
 10
123.3738500489
 20
138.9322354702
 30
0.0
 10
123.7837338834
 20
139.7788968082
 30
0.0
  0
SPLINE
  5
335
100
AcDbEntity
  8
0
100
AcDbSpline
 62
7
  6
BYLAYER
 70
0
 71
3
 72
9
 73
5
 74
0
 42
0.0000001
 43
0.0000001
 44
0.0000000001
 40
0.0
 40
0.0
 40
0.0
 40
0.0
 40
0.2304338074
 40
1.0
 40
1.0
 40
1.0
 40
1.0
 10
124.8178229455
 20
143.1009836939
 30
0.0
 10
124.8178229455
 20
143.087234943
 30
0.0
 10
124.8221789702
 20
143.0275865119
 30
0.0
 10
124.8411777185
 20
142.9695701867
 30
0.0
 10
124.8609160551
 20
142.9281133752
 30
0.0
  0
SPLINE
  5
336
100
AcDbEntity
  8
0
100
AcDbSpline
 62
7
  6
BYLAYER
 70
0
 71
3
 72
9
 73
5
 74
0
 42
0.0000001
 43
0.0000001
 44
0.0000000001
 40
0.0
 40
0.0
 40
0.0
 40
0.0
 40
0.5247400682
 40
1.0
 40
1.0
 40
1.0
 40
1.0
 10
124.8609160551
 20
142.9281133752
 30
0.0
 10
124.955244589
 20
142.7299933241
 30
0.0
 10
125.1012213524
 20
142.3352685091
 30
0.0
 10
125.162567822
 20
141.9167598861
 30
0.0
 10
125.162567822
 20
141.7180211445
 30
0.0
  0
SPLINE
  5
337
100
AcDbEntity
  8
0
100
AcDbSpline
 62
7
  6
BYLAYER
 70
0
 71
3
 72
9
 73
5
 74
0
 42
0.0000001
 43
0.0000001
 44
0.0000000001
 40
0.0
 40
0.0
 40
0.0
 40
0.0
 40
0.2612167237
 40
1.0
 40
1.0
 40
1.0
 40
1.0
 10
125.162567822
 20
140.9015187274
 30
0.0
 10
125.162567822
 20
140.8697559084
 30
0.0
 10
125.1596000773
 20
140.7482046863
 30
0.0
 10
125.1444473774
 20
140.6267496042
 30
0.0
 10
125.1247658664
 20
140.5390992944
 30
0.0
  0
SPLINE
  5
338
100
AcDbEntity
  8
0
100
AcDbSpline
 62
7
  6
BYLAYER
 70
0
 71
3
 72
11
 73
7
 74
0
 42
0.0000001
 43
0.0000001
 44
0.0000000001
 40
0.0
 40
0.0
 40
0.0
 40
0.0
 40
0.2896413964
 40
0.5491107671
 40
0.7822355978
 40
1.0
 40
1.0
 40
1.0
 40
1.0
 10
47.1902420001
 20
53.3202074213
 30
0.0
 10
47.1902420001
 20
53.2188929895
 30
0.0
 10
47.174842169
 20
53.0261689592
 30
0.0
 10
47.0968394197
 20
52.7613723358
 30
0.0
 10
46.965444079
 20
52.5464522197
 30
0.0
 10
46.8419521479
 20
52.4427790051
 30
0.0
 10
46.7760001329
 20
52.4046664832
 30
0.0
  0
SPLINE
  5
339
100
AcDbEntity
  8
0
100
AcDbSpline
 62
7
  6
BYLAYER
 70
0
 71
3
 72
11
 73
7
 74
0
 42
0.0000001
 43
0.0000001
 44
0.0000000001
 40
0.0
 40
0.0
 40
0.0
 40
0.0
 40
0.2896413964
 40
0.5491107671
 40
0.7822355978
 40
1.0
 40
1.0
 40
1.0
 40
1.0
 10
43.5981245964
 20
55.3940704542
 30
0.0
 10
43.5981245964
 20
55.2927560224
 30
0.0
 10
43.5827247653
 20
55.1000319922
 30
0.0
 10
43.5047220159
 20
54.8352353688
 30
0.0
 10
43.3733266752
 20
54.6203152526
 30
0.0
 10
43.2498347441
 20
54.5166420381
 30
0.0
 10
43.1838827291
 20
54.4785295162
 30
0.0
  0
SPLINE
  5
33A
100
AcDbEntity
  8
0
100
AcDbSpline
 62
7
  6
BYLAYER
 70
0
 71
3
 72
11
 73
7
 74
0
 42
0.0000001
 43
0.0000001
 44
0.0000000001
 40
0.0
 40
0.0
 40
0.0
 40
0.0
 40
0.2896413964
 40
0.5491107671
 40
0.7822355978
 40
1.0
 40
1.0
 40
1.0
 40
1.0
 10
40.0060071926
 20
57.4679334872
 30
0.0
 10
40.0060071926
 20
57.3666190554
 30
0.0
 10
39.9906073615
 20
57.1738950251
 30
0.0
 10
39.9126046122
 20
56.9090984017
 30
0.0
 10
39.7812092715
 20
56.6941782856
 30
0.0
 10
39.6577173404
 20
56.590505071
 30
0.0
 10
39.5917653254
 20
56.5523925491
 30
0.0
  0
SPLINE
  5
33B
100
AcDbEntity
  8
0
100
AcDbSpline
 62
7
  6
BYLAYER
 70
0
 71
3
 72
11
 73
7
 74
0
 42
0.0000001
 43
0.0000001
 44
0.0000000001
 40
0.0
 40
0.0
 40
0.0
 40
0.0
 40
0.2896413964
 40
0.5491107671
 40
0.7822355978
 40
1.0
 40
1.0
 40
1.0
 40
1.0
 10
36.4138897889
 20
59.5417965201
 30
0.0
 10
36.4138897889
 20
59.4404820883
 30
0.0
 10
36.3984899578
 20
59.2477580581
 30
0.0
 10
36.3204872085
 20
58.9829614347
 30
0.0
 10
36.1890918677
 20
58.7680413186
 30
0.0
 10
36.0655999367
 20
58.664368104
 30
0.0
 10
35.9996479216
 20
58.6262555821
 30
0.0
  0
SPLINE
  5
33C
100
AcDbEntity
  8
0
100
AcDbSpline
 62
7
  6
BYLAYER
 70
0
 71
3
 72
11
 73
7
 74
0
 42
0.0000001
 43
0.0000001
 44
0.0000000001
 40
0.0
 40
0.0
 40
0.0
 40
0.0
 40
0.2896413964
 40
0.5491107671
 40
0.7822355978
 40
1.0
 40
1.0
 40
1.0
 40
1.0
 10
32.8217723851
 20
61.6156595531
 30
0.0
 10
32.8217723851
 20
61.5143451213
 30
0.0
 10
32.806372554
 20
61.3216210911
 30
0.0
 10
32.7283698047
 20
61.0568244677
 30
0.0
 10
32.596974464
 20
60.8419043515
 30
0.0
 10
32.4734825329
 20
60.738231137
 30
0.0
 10
32.4075305179
 20
60.7001186151
 30
0.0
  0
SPLINE
  5
33D
100
AcDbEntity
  8
0
100
AcDbSpline
 62
7
  6
BYLAYER
 70
0
 71
3
 72
11
 73
7
 74
0
 42
0.0000001
 43
0.0000001
 44
0.0000000001
 40
0.0
 40
0.0
 40
0.0
 40
0.0
 40
0.2896413964
 40
0.5491107671
 40
0.7822355978
 40
1.0
 40
1.0
 40
1.0
 40
1.0
 10
29.2296549814
 20
63.6895225861
 30
0.0
 10
29.2296549814
 20
63.5882081543
 30
0.0
 10
29.2142551503
 20
63.395484124
 30
0.0
 10
29.136252401
 20
63.1306875006
 30
0.0
 10
29.0048570602
 20
62.9157673845
 30
0.0
 10
28.8813651292
 20
62.8120941699
 30
0.0
 10
28.8154131141
 20
62.773981648
 30
0.0
  0
SPLINE
  5
33E
100
AcDbEntity
  8
0
100
AcDbSpline
 62
7
  6
BYLAYER
 70
0
 71
3
 72
11
 73
7
 74
0
 42
0.0000001
 43
0.0000001
 44
0.0000000001
 40
0.0
 40
0.0
 40
0.0
 40
0.0
 40
0.2896413964
 40
0.5491107671
 40
0.7822355978
 40
1.0
 40
1.0
 40
1.0
 40
1.0
 10
25.6375375776
 20
65.763385619
 30
0.0
 10
25.6375375776
 20
65.6620711872
 30
0.0
 10
25.6221377465
 20
65.469347157
 30
0.0
 10
25.5441349972
 20
65.2045505336
 30
0.0
 10
25.4127396565
 20
64.9896304174
 30
0.0
 10
25.2892477254
 20
64.8859572029
 30
0.0
 10
25.2232957104
 20
64.847844681
 30
0.0
  0
SPLINE
  5
33F
100
AcDbEntity
  8
0
100
AcDbSpline
 62
7
  6
BYLAYER
 70
0
 71
3
 72
11
 73
7
 74
0
 42
0.0000001
 43
0.0000001
 44
0.0000000001
 40
0.0
 40
0.0
 40
0.0
 40
0.0
 40
0.2896413964
 40
0.5491107671
 40
0.7822355978
 40
1.0
 40
1.0
 40
1.0
 40
1.0
 10
22.0454201739
 20
67.837248652
 30
0.0
 10
22.0454201739
 20
67.7359342202
 30
0.0
 10
22.0300203428
 20
67.54321019
 30
0.0
 10
21.9520175935
 20
67.2784135665
 30
0.0
 10
21.8206222527
 20
67.0634934504
 30
0.0
 10
21.6971303217
 20
66.9598202359
 30
0.0
 10
21.6311783067
 20
66.921707714
 30
0.0
  0
SPLINE
  5
340
100
AcDbEntity
  8
0
100
AcDbSpline
 62
7
  6
BYLAYER
 70
0
 71
3
 72
11
 73
7
 74
0
 42
0.0000001
 43
0.0000001
 44
0.0000000001
 40
0.0
 40
0.0
 40
0.0
 40
0.0
 40
0.2896413964
 40
0.5491107671
 40
0.7822355978
 40
1.0
 40
1.0
 40
1.0
 40
1.0
 10
23.8414788758
 20
106.0740833994
 30
0.0
 10
23.8414788758
 20
105.9727689677
 30
0.0
 10
23.8260790447
 20
105.7800449374
 30
0.0
 10
23.7480762953
 20
105.515248314
 30
0.0
 10
23.6166809546
 20
105.3003281979
 30
0.0
 10
23.4931890235
 20
105.1966549833
 30
0.0
 10
23.4272370085
 20
105.1585424614
 30
0.0
  0
SPLINE
  5
341
100
AcDbEntity
  8
0
100
AcDbSpline
 62
7
  6
BYLAYER
 70
0
 71
3
 72
11
 73
7
 74
0
 42
0.0000001
 43
0.0000001
 44
0.0000000001
 40
0.0
 40
0.0
 40
0.0
 40
0.0
 40
0.2896413964
 40
0.5491107671
 40
0.7822355978
 40
1.0
 40
1.0
 40
1.0
 40
1.0
 10
29.2296549814
 20
102.96328885
 30
0.0
 10
29.2296549814
 20
102.8619744182
 30
0.0
 10
29.2142551503
 20
102.669250388
 30
0.0
 10
29.136252401
 20
102.4044537646
 30
0.0
 10
29.0048570602
 20
102.1895336484
 30
0.0
 10
28.8813651292
 20
102.0858604339
 30
0.0
 10
28.8154131141
 20
102.047747912
 30
0.0
  0
SPLINE
  5
342
100
AcDbEntity
  8
0
100
AcDbSpline
 62
7
  6
BYLAYER
 70
0
 71
3
 72
11
 73
7
 74
0
 42
0.0000001
 43
0.0000001
 44
0.0000000001
 40
0.0
 40
0.0
 40
0.0
 40
0.0
 40
0.2896413964
 40
0.5491107671
 40
0.7822355978
 40
1.0
 40
1.0
 40
1.0
 40
1.0
 10
34.617831087
 20
99.8524943006
 30
0.0
 10
34.617831087
 20
99.7511798688
 30
0.0
 10
34.6024312559
 20
99.5584558385
 30
0.0
 10
34.5244285066
 20
99.2936592151
 30
0.0
 10
34.3930331658
 20
99.078739099
 30
0.0
 10
34.2695412348
 20
98.9750658844
 30
0.0
 10
34.2035892198
 20
98.9369533625
 30
0.0
  0
SPLINE
  5
343
100
AcDbEntity
  8
0
100
AcDbSpline
 62
7
  6
BYLAYER
 70
0
 71
3
 72
11
 73
7
 74
0
 42
0.0000001
 43
0.0000001
 44
0.0000000001
 40
0.0
 40
0.0
 40
0.0
 40
0.0
 40
0.2896413964
 40
0.5491107671
 40
0.7822355978
 40
1.0
 40
1.0
 40
1.0
 40
1.0
 10
40.0060071926
 20
96.7416997511
 30
0.0
 10
40.0060071926
 20
96.6403853193
 30
0.0
 10
39.9906073615
 20
96.4476612891
 30
0.0
 10
39.9126046122
 20
96.1828646657
 30
0.0
 10
39.7812092715
 20
95.9679445495
 30
0.0
 10
39.6577173404
 20
95.864271335
 30
0.0
 10
39.5917653254
 20
95.8261588131
 30
0.0
  0
SPLINE
  5
344
100
AcDbEntity
  8
0
100
AcDbSpline
 62
7
  6
BYLAYER
 70
0
 71
3
 72
11
 73
7
 74
0
 42
0.0000001
 43
0.0000001
 44
0.0000000001
 40
0.0
 40
0.0
 40
0.0
 40
0.0
 40
0.2896413964
 40
0.5491107671
 40
0.7822355978
 40
1.0
 40
1.0
 40
1.0
 40
1.0
 10
45.3941832983
 20
93.6309052017
 30
0.0
 10
45.3941832983
 20
93.5295907699
 30
0.0
 10
45.3787834672
 20
93.3368667396
 30
0.0
 10
45.3007807178
 20
93.0720701162
 30
0.0
 10
45.1693853771
 20
92.8571500001
 30
0.0
 10
45.045893446
 20
92.7534767855
 30
0.0
 10
44.979941431
 20
92.7153642636
 30
0.0
  0
SPLINE
  5
345
100
AcDbEntity
  8
0
100
AcDbSpline
 62
7
  6
BYLAYER
 70
0
 71
3
 72
17
 73
13
 74
0
 42
0.0000001
 43
0.0000001
 44
0.0000000001
 40
0.0
 40
0.0
 40
0.0
 40
0.0
 40
0.042857965
 40
0.0874854797
 40
0.1353180708
 40
0.1872814984
 40
0.3045423159
 40
0.4382097446
 40
0.5825520305
 40
0.7297107839
 40
0.8713099826
 40
1.0
 40
1.0
 40
1.0
 40
1.0
 10
21.6311783067
 20
66.921707714
 30
0.0
 10
21.5818847668
 20
66.893221835
 30
0.0
 10
21.4731876719
 20
66.8480677046
 30
0.0
 10
21.2937861236
 20
66.8217550661
 30
0.0
 10
21.1011168423
 20
66.8359526965
 30
0.0
 10
20.8211668027
 20
66.9103928657
 30
0.0
 10
20.4632933756
 20
67.1060788567
 30
0.0
 10
20.0679021882
 20
67.4562350057
 30
0.0
 10
19.7183923005
 20
67.9035909613
 30
0.0
 10
19.4433137862
 20
68.4120096812
 30
0.0
 10
19.2648105038
 20
68.9397996961
 30
0.0
 10
19.2169812733
 20
69.2992602079
 30
0.0
 10
19.2169812733
 20
69.4702116701
 30
0.0
  0
SPLINE
  5
346
100
AcDbEntity
  8
0
100
AcDbSpline
 62
7
  6
BYLAYER
 70
0
 71
3
 72
11
 73
7
 74
0
 42
0.0000001
 43
0.0000001
 44
0.0000000001
 40
0.0
 40
0.0
 40
0.0
 40
0.0
 40
0.2379186915
 40
0.4999988728
 40
0.7620796644
 40
1.0
 40
1.0
 40
1.0
 40
1.0
 10
20.4049232563
 20
111.2833110105
 30
0.0
 10
20.355231446
 20
111.2533954522
 30
0.0
 10
20.2613537623
 20
111.1727948294
 30
0.0
 10
20.1512638895
 20
111.021511896
 30
0.0
 10
20.0752953906
 20
110.8505287282
 30
0.0
 10
20.0524328376
 20
110.7289272956
 30
0.0
 10
20.0513713385
 20
110.6709347412
 30
0.0
  0
SPLINE
  5
347
100
AcDbEntity
  8
0
100
AcDbSpline
 62
7
  6
BYLAYER
 70
0
 71
3
 72
9
 73
5
 74
0
 42
0.0000001
 43
0.0000001
 44
0.0000000001
 40
0.0
 40
0.0
 40
0.0
 40
0.0
 40
0.260257614
 40
1.0
 40
1.0
 40
1.0
 40
1.0
 10
21.1628389465
 20
111.7389444995
 30
0.0
 10
21.1544958076
 20
111.7313370881
 30
0.0
 10
21.1217924307
 20
111.7028344042
 30
0.0
 10
21.0864259865
 20
111.6773014963
 30
0.0
 10
21.0588643305
 20
111.6608618121
 30
0.0
  0
SPLINE
  5
348
100
AcDbEntity
  8
0
100
AcDbSpline
 62
7
  6
BYLAYER
 70
0
 71
3
 72
17
 73
13
 74
0
 42
0.0000001
 43
0.0000001
 44
0.0000000001
 40
0.0
 40
0.0
 40
0.0
 40
0.0
 40
0.042857965
 40
0.0874854797
 40
0.1353180708
 40
0.1872814984
 40
0.3045423159
 40
0.4382097446
 40
0.5825520305
 40
0.7297107839
 40
0.8713099826
 40
1.0
 40
1.0
 40
1.0
 40
1.0
 10
25.2232957104
 20
64.847844681
 30
0.0
 10
25.1740021705
 20
64.819358802
 30
0.0
 10
25.0653050756
 20
64.7742046716
 30
0.0
 10
24.8859035274
 20
64.7478920331
 30
0.0
 10
24.6932342461
 20
64.7620896636
 30
0.0
 10
24.4132842065
 20
64.8365298327
 30
0.0
 10
24.0554107794
 20
65.0322158238
 30
0.0
 10
23.660019592
 20
65.3823719728
 30
0.0
 10
23.3105097043
 20
65.8297279283
 30
0.0
 10
23.03543119
 20
66.3381466482
 30
0.0
 10
22.8569279075
 20
66.8659366632
 30
0.0
 10
22.8090986771
 20
67.2253971749
 30
0.0
 10
22.8090986771
 20
67.3963486371
 30
0.0
  0
SPLINE
  5
349
100
AcDbEntity
  8
0
100
AcDbSpline
 62
7
  6
BYLAYER
 70
0
 71
3
 72
17
 73
13
 74
0
 42
0.0000001
 43
0.0000001
 44
0.0000000001
 40
0.0
 40
0.0
 40
0.0
 40
0.0
 40
0.042857965
 40
0.0874854797
 40
0.1353180708
 40
0.1872814984
 40
0.3045423159
 40
0.4382097446
 40
0.5825520305
 40
0.7297107839
 40
0.8713099826
 40
1.0
 40
1.0
 40
1.0
 40
1.0
 10
28.8154131141
 20
62.773981648
 30
0.0
 10
28.7661195743
 20
62.7454957691
 30
0.0
 10
28.6574224794
 20
62.7003416386
 30
0.0
 10
28.4780209311
 20
62.6740290002
 30
0.0
 10
28.2853516498
 20
62.6882266306
 30
0.0
 10
28.0054016102
 20
62.7626667998
 30
0.0
 10
27.6475281831
 20
62.9583527908
 30
0.0
 10
27.2521369957
 20
63.3085089398
 30
0.0
 10
26.902627108
 20
63.7558648954
 30
0.0
 10
26.6275485937
 20
64.2642836152
 30
0.0
 10
26.4490453113
 20
64.7920736302
 30
0.0
 10
26.4012160808
 20
65.151534142
 30
0.0
 10
26.4012160808
 20
65.3224856042
 30
0.0
  0
SPLINE
  5
34A
100
AcDbEntity
  8
0
100
AcDbSpline
 62
7
  6
BYLAYER
 70
0
 71
3
 72
11
 73
7
 74
0
 42
0.0000001
 43
0.0000001
 44
0.0000000001
 40
0.0
 40
0.0
 40
0.0
 40
0.0
 40
0.2179451018
 40
0.4527049146
 40
0.7125834472
 40
1.0
 40
1.0
 40
1.0
 40
1.0
 10
47.5884492889
 20
104.6085221381
 30
0.0
 10
47.5810636945
 20
104.6793798523
 30
0.0
 10
47.5416971911
 20
104.824803227
 30
0.0
 10
47.4184028717
 20
105.0253661978
 30
0.0
 10
47.2363736393
 20
105.207465329
 30
0.0
 10
47.087687218
 20
105.3087210364
 30
0.0
 10
47.0063234052
 20
105.3556953929
 30
0.0
  0
SPLINE
  5
34B
100
AcDbEntity
  8
0
100
AcDbSpline
 62
7
  6
BYLAYER
 70
0
 71
3
 72
17
 73
13
 74
0
 42
0.0000001
 43
0.0000001
 44
0.0000000001
 40
0.0
 40
0.0
 40
0.0
 40
0.0
 40
0.042857965
 40
0.0874854797
 40
0.1353180708
 40
0.1872814984
 40
0.3045423159
 40
0.4382097446
 40
0.5825520305
 40
0.7297107839
 40
0.8713099826
 40
1.0
 40
1.0
 40
1.0
 40
1.0
 10
32.4075305179
 20
60.7001186151
 30
0.0
 10
32.358236978
 20
60.6716327361
 30
0.0
 10
32.2495398831
 20
60.6264786057
 30
0.0
 10
32.0701383349
 20
60.6001659672
 30
0.0
 10
31.8774690536
 20
60.6143635976
 30
0.0
 10
31.5975190139
 20
60.6888037668
 30
0.0
 10
31.2396455869
 20
60.8844897578
 30
0.0
 10
30.8442543995
 20
61.2346459068
 30
0.0
 10
30.4947445118
 20
61.6820018624
 30
0.0
 10
30.2196659975
 20
62.1904205823
 30
0.0
 10
30.041162715
 20
62.7182105973
 30
0.0
 10
29.9933334846
 20
63.077671109
 30
0.0
 10
29.9933334846
 20
63.2486225712
 30
0.0
  0
SPLINE
  5
34C
100
AcDbEntity
  8
0
100
AcDbSpline
 62
7
  6
BYLAYER
 70
0
 71
3
 72
9
 73
5
 74
0
 42
0.0000001
 43
0.0000001
 44
0.0000000001
 40
0.0
 40
0.0
 40
0.0
 40
0.0
 40
0.2395702099
 40
1.0
 40
1.0
 40
1.0
 40
1.0
 10
25.7613647988
 20
116.0088403514
 30
0.0
 10
25.7524383172
 20
116.0035159783
 30
0.0
 10
25.7158188548
 20
115.9802220457
 30
0.0
 10
25.6817687313
 20
115.9529864257
 30
0.0
 10
25.6573901824
 20
115.9307576638
 30
0.0
  0
SPLINE
  5
34D
100
AcDbEntity
  8
0
100
AcDbSpline
 62
7
  6
BYLAYER
 70
0
 71
3
 72
17
 73
13
 74
0
 42
0.0000001
 43
0.0000001
 44
0.0000000001
 40
0.0
 40
0.0
 40
0.0
 40
0.0
 40
0.0428571277
 40
0.087483909
 40
0.1353159407
 40
0.187279013
 40
0.3045397097
 40
0.4382076182
 40
0.5825507004
 40
0.7297102646
 40
0.8713099941
 40
1.0
 40
1.0
 40
1.0
 40
1.0
 10
38.2039753966
 20
107.7316519404
 30
0.0
 10
38.2039525249
 20
107.7885830122
 30
0.0
 10
38.219196258
 20
107.9052920537
 30
0.0
 10
38.2861095948
 20
108.0738109488
 30
0.0
 10
38.394739832
 20
108.2335650567
 30
0.0
 10
38.5991826186
 20
108.4387846553
 30
0.0
 10
38.9475892971
 20
108.6508644874
 30
0.0
 10
39.4485295755
 20
108.8182016555
 30
0.0
 10
40.0107068651
 20
108.8972067681
 30
0.0
 10
40.5885502341
 20
108.8812232911
 30
0.0
 10
41.1348816061
 20
108.771919742
 30
0.0
 10
41.4700987207
 20
108.6336141372
 30
0.0
 10
41.6181472996
 20
108.5481401841
 30
0.0
  0
SPLINE
  5
34E
100
AcDbEntity
  8
0
100
AcDbSpline
 62
7
  6
BYLAYER
 70
0
 71
3
 72
17
 73
13
 74
0
 42
0.0000001
 43
0.0000001
 44
0.0000000001
 40
0.0
 40
0.0
 40
0.0
 40
0.0
 40
0.042857965
 40
0.0874854797
 40
0.1353180708
 40
0.1872814984
 40
0.3045423159
 40
0.4382097446
 40
0.5825520305
 40
0.7297107839
 40
0.8713099826
 40
1.0
 40
1.0
 40
1.0
 40
1.0
 10
35.9996479216
 20
58.6262555821
 30
0.0
 10
35.9503543818
 20
58.5977697031
 30
0.0
 10
35.8416572869
 20
58.5526155727
 30
0.0
 10
35.6622557386
 20
58.5263029343
 30
0.0
 10
35.4695864573
 20
58.5405005647
 30
0.0
 10
35.1896364177
 20
58.6149407338
 30
0.0
 10
34.8317629906
 20
58.8106267249
 30
0.0
 10
34.4363718032
 20
59.1607828739
 30
0.0
 10
34.0868619155
 20
59.6081388294
 30
0.0
 10
33.8117834012
 20
60.1165575493
 30
0.0
 10
33.6332801188
 20
60.6443475643
 30
0.0
 10
33.5854508883
 20
61.0038080761
 30
0.0
 10
33.5854508883
 20
61.1747595382
 30
0.0
  0
SPLINE
  5
34F
100
AcDbEntity
  8
0
100
AcDbSpline
 62
7
  6
BYLAYER
 70
0
 71
3
 72
17
 73
13
 74
0
 42
0.0000001
 43
0.0000001
 44
0.0000000001
 40
0.0
 40
0.0
 40
0.0
 40
0.0
 40
0.042857965
 40
0.0874854797
 40
0.1353180708
 40
0.1872814984
 40
0.3045423159
 40
0.4382097446
 40
0.5825520305
 40
0.7297107839
 40
0.8713099826
 40
1.0
 40
1.0
 40
1.0
 40
1.0
 10
39.5917653254
 20
56.5523925491
 30
0.0
 10
39.5424717855
 20
56.5239066702
 30
0.0
 10
39.4337746906
 20
56.4787525397
 30
0.0
 10
39.2543731424
 20
56.4524399013
 30
0.0
 10
39.0617038611
 20
56.4666375317
 30
0.0
 10
38.7817538214
 20
56.5410777009
 30
0.0
 10
38.4238803944
 20
56.7367636919
 30
0.0
 10
38.028489207
 20
57.0869198409
 30
0.0
 10
37.6789793193
 20
57.5342757965
 30
0.0
 10
37.403900805
 20
58.0426945163
 30
0.0
 10
37.2253975225
 20
58.5704845313
 30
0.0
 10
37.177568292
 20
58.9299450431
 30
0.0
 10
37.177568292
 20
59.1008965053
 30
0.0
  0
SPLINE
  5
350
100
AcDbEntity
  8
0
100
AcDbSpline
 62
7
  6
BYLAYER
 70
0
 71
3
 72
11
 73
7
 74
0
 42
0.0000001
 43
0.0000001
 44
0.0000000001
 40
0.0
 40
0.0
 40
0.0
 40
0.0
 40
0.2372444216
 40
0.5000010894
 40
0.7627571652
 40
1.0
 40
1.0
 40
1.0
 40
1.0
 10
122.5374518529
 20
144.4175267738
 30
0.0
 10
122.5374518529
 20
144.4523031195
 30
0.0
 10
122.5244045958
 20
144.5256423234
 30
0.0
 10
122.4789429277
 20
144.6286962281
 30
0.0
 10
122.4124261927
 20
144.7195936528
 30
0.0
 10
122.3554361173
 20
144.7675619523
 30
0.0
 10
122.3253189496
 20
144.7849497138
 30
0.0
  0
SPLINE
  5
351
100
AcDbEntity
  8
0
100
AcDbSpline
 62
7
  6
BYLAYER
 70
0
 71
3
 72
11
 73
7
 74
0
 42
0.0000001
 43
0.0000001
 44
0.0000000001
 40
0.0
 40
0.0
 40
0.0
 40
0.0
 40
0.2312667727
 40
0.4867257164
 40
0.7492444938
 40
1.0
 40
1.0
 40
1.0
 40
1.0
 10
119.9653113422
 20
143.9020882731
 30
0.0
 10
119.9653113422
 20
143.394366172
 30
0.0
 10
120.1255326477
 20
142.3247133552
 30
0.0
 10
120.7085849646
 20
140.7766120416
 30
0.0
 10
121.5911447091
 20
139.3272280082
 30
0.0
 10
122.3555390852
 20
138.4860469317
 30
0.0
 10
122.7712748852
 20
138.125183598
 30
0.0
  0
SPLINE
  5
352
100
AcDbEntity
  8
0
100
AcDbSpline
 62
7
  6
BYLAYER
 70
0
 71
3
 72
11
 73
7
 74
0
 42
0.0000001
 43
0.0000001
 44
0.0000000001
 40
0.0
 40
0.0
 40
0.0
 40
0.0
 40
0.2179451018
 40
0.4527049146
 40
0.7125834472
 40
1.0
 40
1.0
 40
1.0
 40
1.0
 10
52.9766253946
 20
101.4977275886
 30
0.0
 10
52.9692398001
 20
101.5685853029
 30
0.0
 10
52.9298732968
 20
101.7140086776
 30
0.0
 10
52.8065789773
 20
101.9145716483
 30
0.0
 10
52.6245497449
 20
102.0966707796
 30
0.0
 10
52.4758633236
 20
102.1979264869
 30
0.0
 10
52.3944995108
 20
102.2449008434
 30
0.0
  0
SPLINE
  5
353
100
AcDbEntity
  8
0
100
AcDbSpline
 62
7
  6
BYLAYER
 70
0
 71
3
 72
11
 73
7
 74
0
 42
0.0000001
 43
0.0000001
 44
0.0000000001
 40
0.0
 40
0.0
 40
0.0
 40
0.0
 40
0.2179451018
 40
0.4527049146
 40
0.7125834472
 40
1.0
 40
1.0
 40
1.0
 40
1.0
 10
42.2002731833
 20
107.7193166875
 30
0.0
 10
42.1928875889
 20
107.7901744018
 30
0.0
 10
42.1535210855
 20
107.9355977765
 30
0.0
 10
42.0302267661
 20
108.1361607472
 30
0.0
 10
41.8481975337
 20
108.3182598785
 30
0.0
 10
41.6995111124
 20
108.4195155858
 30
0.0
 10
41.6181472996
 20
108.4664899423
 30
0.0
  0
SPLINE
  5
354
100
AcDbEntity
  8
0
100
AcDbSpline
 62
7
  6
BYLAYER
 70
0
 71
3
 72
11
 73
7
 74
0
 42
0.0000001
 43
0.0000001
 44
0.0000000001
 40
0.0
 40
0.0
 40
0.0
 40
0.0
 40
0.2842765804
 40
0.5439363936
 40
0.7807642214
 40
1.0
 40
1.0
 40
1.0
 40
1.0
 10
122.1927069764
 20
143.4326323135
 30
0.0
 10
122.1927069764
 20
143.5213884785
 30
0.0
 10
122.2040798716
 20
143.6915771733
 30
0.0
 10
122.260385383
 20
143.9301203804
 30
0.0
 10
122.3546996587
 20
144.1345672261
 30
0.0
 10
122.4446250327
 20
144.2473845315
 30
0.0
 10
122.4943587434
 20
144.2944149663
 30
0.0
  0
SPLINE
  5
355
100
AcDbEntity
  8
0
100
AcDbSpline
 62
7
  6
BYLAYER
 70
0
 71
3
 72
9
 73
5
 74
0
 42
0.0000001
 43
0.0000001
 44
0.0000000001
 40
0.0
 40
0.0
 40
0.0
 40
0.0
 40
0.2211747546
 40
1.0
 40
1.0
 40
1.0
 40
1.0
 10
122.4943587434
 20
144.2944149663
 30
0.0
 10
122.5014635592
 20
144.3011335998
 30
0.0
 10
122.5293457718
 20
144.3361454563
 30
0.0
 10
122.5374518529
 20
144.3830937389
 30
0.0
 10
122.5374518529
 20
144.4175267738
 30
0.0
  0
SPLINE
  5
356
100
AcDbEntity
  8
0
100
AcDbSpline
 62
7
  6
BYLAYER
 70
0
 71
3
 72
17
 73
13
 74
0
 42
0.0000001
 43
0.0000001
 44
0.0000000001
 40
0.0
 40
0.0
 40
0.0
 40
0.0
 40
0.042857965
 40
0.0874854797
 40
0.1353180708
 40
0.1872814984
 40
0.3045423159
 40
0.4382097446
 40
0.5825520305
 40
0.7297107839
 40
0.8713099826
 40
1.0
 40
1.0
 40
1.0
 40
1.0
 10
43.1838827291
 20
54.4785295162
 30
0.0
 10
43.1345891893
 20
54.4500436372
 30
0.0
 10
43.0258920944
 20
54.4048895068
 30
0.0
 10
42.8464905461
 20
54.3785768683
 30
0.0
 10
42.6538212648
 20
54.3927744988
 30
0.0
 10
42.3738712252
 20
54.4672146679
 30
0.0
 10
42.0159977981
 20
54.6629006589
 30
0.0
 10
41.6206066107
 20
55.0130568079
 30
0.0
 10
41.271096723
 20
55.4604127635
 30
0.0
 10
40.9960182087
 20
55.9688314834
 30
0.0
 10
40.8175149263
 20
56.4966214984
 30
0.0
 10
40.7696856958
 20
56.8560820101
 30
0.0
 10
40.7696856958
 20
57.0270334723
 30
0.0
  0
SPLINE
  5
357
100
AcDbEntity
  8
0
100
AcDbSpline
 62
7
  6
BYLAYER
 70
0
 71
3
 72
17
 73
13
 74
0
 42
0.0000001
 43
0.0000001
 44
0.0000000001
 40
0.0
 40
0.0
 40
0.0
 40
0.0
 40
0.042857965
 40
0.0874854797
 40
0.1353180708
 40
0.1872814984
 40
0.3045423159
 40
0.4382097446
 40
0.5825520305
 40
0.7297107839
 40
0.8713099826
 40
1.0
 40
1.0
 40
1.0
 40
1.0
 10
46.7760001329
 20
52.4046664832
 30
0.0
 10
46.726706593
 20
52.3761806042
 30
0.0
 10
46.6180094981
 20
52.3310264738
 30
0.0
 10
46.4386079499
 20
52.3047138354
 30
0.0
 10
46.2459386685
 20
52.3189114658
 30
0.0
 10
45.9659886289
 20
52.393351635
 30
0.0
 10
45.6081152018
 20
52.589037626
 30
0.0
 10
45.2127240144
 20
52.939193775
 30
0.0
 10
44.8632141267
 20
53.3865497305
 30
0.0
 10
44.5881356125
 20
53.8949684504
 30
0.0
 10
44.40963233
 20
54.4227584654
 30
0.0
 10
44.3618030995
 20
54.7822189772
 30
0.0
 10
44.3618030995
 20
54.9531704393
 30
0.0
  0
SPLINE
  5
358
100
AcDbEntity
  8
0
100
AcDbSpline
 62
7
  6
BYLAYER
 70
0
 71
3
 72
17
 73
13
 74
0
 42
0.0000001
 43
0.0000001
 44
0.0000000001
 40
0.0
 40
0.0
 40
0.0
 40
0.0
 40
0.0428571277
 40
0.087483909
 40
0.1353159407
 40
0.187279013
 40
0.3045397097
 40
0.4382076182
 40
0.5825507004
 40
0.7297102646
 40
0.8713099941
 40
1.0
 40
1.0
 40
1.0
 40
1.0
 10
32.815799291
 20
110.8424464898
 30
0.0
 10
32.8157764193
 20
110.8993775616
 30
0.0
 10
32.8310201523
 20
111.0160866032
 30
0.0
 10
32.8979334891
 20
111.1846054983
 30
0.0
 10
33.0065637264
 20
111.3443596062
 30
0.0
 10
33.211006513
 20
111.5495792047
 30
0.0
 10
33.5594131915
 20
111.7616590369
 30
0.0
 10
34.0603534699
 20
111.928996205
 30
0.0
 10
34.6225307594
 20
112.0080013176
 30
0.0
 10
35.2003741285
 20
111.9920178406
 30
0.0
 10
35.7467055005
 20
111.8827142914
 30
0.0
 10
36.0819226151
 20
111.7444086867
 30
0.0
 10
36.2299711939
 20
111.6589347335
 30
0.0
  0
SPLINE
  5
359
100
AcDbEntity
  8
0
100
AcDbSpline
 62
7
  6
BYLAYER
 70
0
 71
3
 72
11
 73
7
 74
0
 42
0.0000001
 43
0.0000001
 44
0.0000000001
 40
0.0
 40
0.0
 40
0.0
 40
0.0
 40
0.2179451018
 40
0.4527049146
 40
0.7125834472
 40
1.0
 40
1.0
 40
1.0
 40
1.0
 10
36.8120970777
 20
110.830111237
 30
0.0
 10
36.8047114832
 20
110.9009689512
 30
0.0
 10
36.7653449799
 20
111.0463923259
 30
0.0
 10
36.6420506605
 20
111.2469552967
 30
0.0
 10
36.460021428
 20
111.4290544279
 30
0.0
 10
36.3113350067
 20
111.5303101353
 30
0.0
 10
36.2299711939
 20
111.5772844918
 30
0.0
  0
SPLINE
  5
35A
100
AcDbEntity
  8
0
100
AcDbSpline
 62
7
  6
BYLAYER
 70
0
 71
3
 72
11
 73
7
 74
0
 42
0.0000001
 43
0.0000001
 44
0.0000000001
 40
0.0
 40
0.0
 40
0.0
 40
0.0
 40
0.2896433527
 40
0.5491132405
 40
0.7822372579
 40
1.0
 40
1.0
 40
1.0
 40
1.0
 10
30.8417950883
 20
114.7697292829
 30
0.0
 10
30.9295350259
 20
114.7190737523
 30
0.0
 10
31.0887372619
 20
114.6093789198
 30
0.0
 10
31.2790550191
 20
114.4094348405
 30
0.0
 10
31.399483132
 20
114.1881901323
 30
0.0
 10
31.4275210417
 20
114.0294109556
 30
0.0
 10
31.4275516424
 20
113.9532409111
 30
0.0
  0
SPLINE
  5
35B
100
AcDbEntity
  8
0
100
AcDbSpline
 62
7
  6
BYLAYER
 70
0
 71
3
 72
13
 73
9
 74
0
 42
0.0000001
 43
0.0000001
 44
0.0000000001
 40
0.0
 40
0.0
 40
0.0
 40
0.0
 40
0.108805104
 40
0.2287711938
 40
0.4907778276
 40
0.7579161526
 40
0.8838712072
 40
1.0
 40
1.0
 40
1.0
 40
1.0
 10
123.8796888812
 20
139.943478452
 30
0.0
 10
123.7690821798
 20
139.9898010026
 30
0.0
 10
123.5471095374
 20
140.1132455169
 30
0.0
 10
123.1240422976
 20
140.453127394
 30
0.0
 10
122.669413695
 20
141.0165486339
 30
0.0
 10
122.3555394953
 20
141.6752924196
 30
0.0
 10
122.2183441958
 20
142.2210546451
 30
0.0
 10
122.1927069764
 20
142.488143337
 30
0.0
 10
122.1927069764
 20
142.6161298964
 30
0.0
  0
SPLINE
  5
35C
100
AcDbEntity
  8
0
100
AcDbSpline
 62
7
  6
BYLAYER
 70
0
 71
3
 72
11
 73
7
 74
0
 42
0.0000001
 43
0.0000001
 44
0.0000000001
 40
0.0
 40
0.0
 40
0.0
 40
0.0
 40
0.2896433527
 40
0.5491132405
 40
0.7822372579
 40
1.0
 40
1.0
 40
1.0
 40
1.0
 10
36.2299711939
 20
111.6589347335
 30
0.0
 10
36.3177111316
 20
111.6082792029
 30
0.0
 10
36.4769133675
 20
111.4985843703
 30
0.0
 10
36.6672311247
 20
111.298640291
 30
0.0
 10
36.7876592376
 20
111.0773955829
 30
0.0
 10
36.8156971473
 20
110.9186164062
 30
0.0
 10
36.8157277481
 20
110.8424463617
 30
0.0
  0
SPLINE
  5
35D
100
AcDbEntity
  8
0
100
AcDbSpline
 62
7
  6
BYLAYER
 70
0
 71
3
 72
11
 73
7
 74
0
 42
0.0000001
 43
0.0000001
 44
0.0000000001
 40
0.0
 40
0.0
 40
0.0
 40
0.0
 40
0.2896433527
 40
0.5491132405
 40
0.7822372579
 40
1.0
 40
1.0
 40
1.0
 40
1.0
 10
41.6181472996
 20
108.5481401841
 30
0.0
 10
41.7058872372
 20
108.4974846534
 30
0.0
 10
41.8650894732
 20
108.3877898209
 30
0.0
 10
42.0554072304
 20
108.1878457416
 30
0.0
 10
42.1758353432
 20
107.9666010334
 30
0.0
 10
42.2038732529
 20
107.8078218567
 30
0.0
 10
42.2039038537
 20
107.7316518123
 30
0.0
  0
SPLINE
  5
35E
100
AcDbEntity
  8
0
100
AcDbSpline
 62
7
  6
BYLAYER
 70
0
 71
3
 72
18
 73
14
 74
0
 42
0.0000001
 43
0.0000001
 44
0.0000000001
 40
0.0
 40
0.0
 40
0.0
 40
0.0
 40
0.1270553145
 40
0.2666694616
 40
0.4121072848
 40
0.4846609272
 40
0.555771831
 40
0.6899945493
 40
0.8091840742
 40
0.8623914735
 40
0.9114285007
 40
0.9569226511
 40
1.0
 40
1.0
 40
1.0
 40
1.0
 10
30.8417950883
 20
114.6880790412
 30
0.0
 10
30.6988382213
 20
114.7706133597
 30
0.0
 10
30.3761238238
 20
114.9053926959
 30
0.0
 10
29.8498117324
 20
115.0157309697
 30
0.0
 10
29.3832866736
 20
115.0350054601
 30
0.0
 10
29.0085484941
 20
115.0045860099
 30
0.0
 10
28.6520653805
 20
114.9451391479
 30
0.0
 10
28.2463119593
 20
114.8221057027
 30
0.0
 10
27.8933003906
 20
114.627896727
 30
0.0
 10
27.6763682917
 20
114.4373017233
 30
0.0
 10
27.5545508246
 20
114.2875640652
 30
0.0
 10
27.4706110767
 20
114.1282785111
 30
0.0
 10
27.4409094474
 20
114.0157727709
 30
0.0
 10
27.4335100911
 20
113.9602975741
 30
0.0
  0
SPLINE
  5
35F
100
AcDbEntity
  8
0
100
AcDbSpline
 62
7
  6
BYLAYER
 70
0
 71
3
 72
17
 73
13
 74
0
 42
0.0000001
 43
0.0000001
 44
0.0000000001
 40
0.0
 40
0.0
 40
0.0
 40
0.0
 40
0.0428571277
 40
0.087483909
 40
0.1353159407
 40
0.187279013
 40
0.3045397097
 40
0.4382076182
 40
0.5825507004
 40
0.7297102646
 40
0.8713099941
 40
1.0
 40
1.0
 40
1.0
 40
1.0
 10
43.5921515022
 20
104.6208573909
 30
0.0
 10
43.5921286305
 20
104.6777884628
 30
0.0
 10
43.6073723636
 20
104.7944975043
 30
0.0
 10
43.6742857004
 20
104.9630163994
 30
0.0
 10
43.7829159376
 20
105.1227705073
 30
0.0
 10
43.9873587242
 20
105.3279901059
 30
0.0
 10
44.3357654028
 20
105.540069938
 30
0.0
 10
44.8367056811
 20
105.7074071061
 30
0.0
 10
45.3988829707
 20
105.7864122187
 30
0.0
 10
45.9767263397
 20
105.7704287417
 30
0.0
 10
46.5230577117
 20
105.6611251925
 30
0.0
 10
46.8582748263
 20
105.5228195878
 30
0.0
 10
47.0063234052
 20
105.4373456346
 30
0.0
  0
SPLINE
  5
360
100
AcDbEntity
  8
0
100
AcDbSpline
 62
7
  6
BYLAYER
 70
0
 71
3
 72
11
 73
7
 74
0
 42
0.0000001
 43
0.0000001
 44
0.0000000001
 40
0.0
 40
0.0
 40
0.0
 40
0.0
 40
0.2896433527
 40
0.5491132405
 40
0.7822372579
 40
1.0
 40
1.0
 40
1.0
 40
1.0
 10
47.0063234052
 20
105.4373456346
 30
0.0
 10
47.0940633428
 20
105.386690104
 30
0.0
 10
47.2532655788
 20
105.2769952714
 30
0.0
 10
47.443583336
 20
105.0770511921
 30
0.0
 10
47.5640114489
 20
104.855806484
 30
0.0
 10
47.5920493585
 20
104.6970273073
 30
0.0
 10
47.5920799593
 20
104.6208572628
 30
0.0
  0
SPLINE
  5
361
100
AcDbEntity
  8
0
100
AcDbSpline
 62
7
  6
BYLAYER
 70
0
 71
3
 72
11
 73
7
 74
0
 42
0.0000001
 43
0.0000001
 44
0.0000000001
 40
0.0
 40
0.0
 40
0.0
 40
0.0
 40
0.2896413964
 40
0.5491107671
 40
0.7822355978
 40
1.0
 40
1.0
 40
1.0
 40
1.0
 10
44.3618030995
 20
54.9531704393
 30
0.0
 10
44.3618030995
 20
55.0544848711
 30
0.0
 10
44.3772029306
 20
55.2472089014
 30
0.0
 10
44.45520568
 20
55.5120055248
 30
0.0
 10
44.5866010207
 20
55.7269256409
 30
0.0
 10
44.7100929518
 20
55.8305988555
 30
0.0
 10
44.7760449668
 20
55.8687113774
 30
0.0
  0
SPLINE
  5
362
100
AcDbEntity
  8
0
100
AcDbSpline
 62
7
  6
BYLAYER
 70
0
 71
3
 72
17
 73
13
 74
0
 42
0.0000001
 43
0.0000001
 44
0.0000000001
 40
0.0
 40
0.0
 40
0.0
 40
0.0
 40
0.0428571277
 40
0.087483909
 40
0.1353159407
 40
0.187279013
 40
0.3045397097
 40
0.4382076182
 40
0.5825507004
 40
0.7297102646
 40
0.8713099941
 40
1.0
 40
1.0
 40
1.0
 40
1.0
 10
48.9803276078
 20
101.5100628415
 30
0.0
 10
48.9803047362
 20
101.5669939133
 30
0.0
 10
48.9955484692
 20
101.6837029548
 30
0.0
 10
49.062461806
 20
101.8522218499
 30
0.0
 10
49.1710920432
 20
102.0119759578
 30
0.0
 10
49.3755348298
 20
102.2171955564
 30
0.0
 10
49.7239415084
 20
102.4292753885
 30
0.0
 10
50.2248817867
 20
102.5966125566
 30
0.0
 10
50.7870590763
 20
102.6756176692
 30
0.0
 10
51.3649024453
 20
102.6596341922
 30
0.0
 10
51.9112338173
 20
102.5503306431
 30
0.0
 10
52.246450932
 20
102.4120250383
 30
0.0
 10
52.3944995108
 20
102.3265510852
 30
0.0
  0
SPLINE
  5
363
100
AcDbEntity
  8
0
100
AcDbSpline
 62
7
  6
BYLAYER
 70
0
 71
3
 72
11
 73
7
 74
0
 42
0.0000001
 43
0.0000001
 44
0.0000000001
 40
0.0
 40
0.0
 40
0.0
 40
0.0
 40
0.2896413964
 40
0.5491107671
 40
0.7822355978
 40
1.0
 40
1.0
 40
1.0
 40
1.0
 10
40.7696856958
 20
57.0270334723
 30
0.0
 10
40.7696856958
 20
57.1283479041
 30
0.0
 10
40.7850855269
 20
57.3210719343
 30
0.0
 10
40.8630882762
 20
57.5858685578
 30
0.0
 10
40.994483617
 20
57.8007886739
 30
0.0
 10
41.117975548
 20
57.9044618884
 30
0.0
 10
41.183927563
 20
57.9425744103
 30
0.0
  0
SPLINE
  5
364
100
AcDbEntity
  8
0
100
AcDbSpline
 62
7
  6
BYLAYER
 70
0
 71
3
 72
11
 73
7
 74
0
 42
0.0000001
 43
0.0000001
 44
0.0000000001
 40
0.0
 40
0.0
 40
0.0
 40
0.0
 40
0.2896433527
 40
0.5491132405
 40
0.7822372579
 40
1.0
 40
1.0
 40
1.0
 40
1.0
 10
52.3944995108
 20
102.3265510852
 30
0.0
 10
52.4822394484
 20
102.2758955545
 30
0.0
 10
52.6414416844
 20
102.166200722
 30
0.0
 10
52.8317594416
 20
101.9662566427
 30
0.0
 10
52.9521875545
 20
101.7450119345
 30
0.0
 10
52.9802254641
 20
101.5862327578
 30
0.0
 10
52.9802560649
 20
101.5100627134
 30
0.0
  0
SPLINE
  5
365
100
AcDbEntity
  8
0
100
AcDbSpline
 62
7
  6
BYLAYER
 70
0
 71
3
 72
11
 73
7
 74
0
 42
0.0000001
 43
0.0000001
 44
0.0000000001
 40
0.0
 40
0.0
 40
0.0
 40
0.0
 40
0.2896413964
 40
0.5491107671
 40
0.7822355978
 40
1.0
 40
1.0
 40
1.0
 40
1.0
 10
37.177568292
 20
59.1008965053
 30
0.0
 10
37.177568292
 20
59.2022109371
 30
0.0
 10
37.1929681231
 20
59.3949349673
 30
0.0
 10
37.2709708725
 20
59.6597315907
 30
0.0
 10
37.4023662132
 20
59.8746517068
 30
0.0
 10
37.5258581443
 20
59.9783249214
 30
0.0
 10
37.5918101593
 20
60.0164374433
 30
0.0
  0
SPLINE
  5
366
100
AcDbEntity
  8
0
100
AcDbSpline
 62
7
  6
BYLAYER
 70
0
 71
3
 72
11
 73
7
 74
0
 42
0.0000001
 43
0.0000001
 44
0.0000000001
 40
0.0
 40
0.0
 40
0.0
 40
0.0
 40
0.2896413964
 40
0.5491107671
 40
0.7822355978
 40
1.0
 40
1.0
 40
1.0
 40
1.0
 10
33.5854508883
 20
61.1747595382
 30
0.0
 10
33.5854508883
 20
61.27607397
 30
0.0
 10
33.6008507194
 20
61.4687980003
 30
0.0
 10
33.6788534687
 20
61.7335946237
 30
0.0
 10
33.8102488095
 20
61.9485147398
 30
0.0
 10
33.9337407405
 20
62.0521879544
 30
0.0
 10
33.9996927555
 20
62.0903004763
 30
0.0
  0
SPLINE
  5
367
100
AcDbEntity
  8
0
100
AcDbSpline
 62
7
  6
BYLAYER
 70
0
 71
3
 72
11
 73
7
 74
0
 42
0.0000001
 43
0.0000001
 44
0.0000000001
 40
0.0
 40
0.0
 40
0.0
 40
0.0
 40
0.2896413964
 40
0.5491107671
 40
0.7822355978
 40
1.0
 40
1.0
 40
1.0
 40
1.0
 10
29.9933334846
 20
63.2486225712
 30
0.0
 10
29.9933334846
 20
63.349937003
 30
0.0
 10
30.0087333157
 20
63.5426610332
 30
0.0
 10
30.086736065
 20
63.8074576566
 30
0.0
 10
30.2181314057
 20
64.0223777728
 30
0.0
 10
30.3416233368
 20
64.1260509873
 30
0.0
 10
30.4075753518
 20
64.1641635092
 30
0.0
  0
SPLINE
  5
368
100
AcDbEntity
  8
0
100
AcDbSpline
 62
7
  6
BYLAYER
 70
0
 71
3
 72
11
 73
7
 74
0
 42
0.0000001
 43
0.0000001
 44
0.0000000001
 40
0.0
 40
0.0
 40
0.0
 40
0.0
 40
0.2896413964
 40
0.5491107671
 40
0.7822355978
 40
1.0
 40
1.0
 40
1.0
 40
1.0
 10
26.4012160808
 20
65.3224856042
 30
0.0
 10
26.4012160808
 20
65.4238000359
 30
0.0
 10
26.4166159119
 20
65.6165240662
 30
0.0
 10
26.4946186612
 20
65.8813206896
 30
0.0
 10
26.626014002
 20
66.0962408057
 30
0.0
 10
26.749505933
 20
66.1999140203
 30
0.0
 10
26.8154579481
 20
66.2380265422
 30
0.0
  0
SPLINE
  5
369
100
AcDbEntity
  8
0
100
AcDbSpline
 62
7
  6
BYLAYER
 70
0
 71
3
 72
11
 73
7
 74
0
 42
0.0000001
 43
0.0000001
 44
0.0000000001
 40
0.0
 40
0.0
 40
0.0
 40
0.0
 40
0.2379186915
 40
0.4999988728
 40
0.7620796644
 40
1.0
 40
1.0
 40
1.0
 40
1.0
 10
49.3964219874
 20
94.5454400752
 30
0.0
 10
49.346730177
 20
94.5155245168
 30
0.0
 10
49.2528524933
 20
94.4349238941
 30
0.0
 10
49.1427626206
 20
94.2836409607
 30
0.0
 10
49.0667941216
 20
94.1126577929
 30
0.0
 10
49.0439315687
 20
93.9910563603
 30
0.0
 10
49.0428700695
 20
93.9330638059
 30
0.0
  0
SPLINE
  5
36A
100
AcDbEntity
  8
0
100
AcDbSpline
 62
7
  6
BYLAYER
 70
0
 71
3
 72
11
 73
7
 74
0
 42
0.0000001
 43
0.0000001
 44
0.0000000001
 40
0.0
 40
0.0
 40
0.0
 40
0.0
 40
0.2891771163
 40
0.5487686028
 40
0.782261253
 40
1.0
 40
1.0
 40
1.0
 40
1.0
 10
22.8090986771
 20
67.3963486371
 30
0.0
 10
22.8090986771
 20
67.4960122006
 30
0.0
 10
22.8240265768
 20
67.6857550574
 30
0.0
 10
22.8994084064
 20
67.9469812956
 30
0.0
 10
23.0262924764
 20
68.1602734449
 30
0.0
 10
23.1458332661
 20
68.2648618625
 30
0.0
 10
23.2099113952
 20
68.3039181539
 30
0.0
  0
SPLINE
  5
36B
100
AcDbEntity
  8
0
100
AcDbSpline
 62
7
  6
BYLAYER
 70
0
 71
3
 72
9
 73
5
 74
0
 42
0.0000001
 43
0.0000001
 44
0.0000000001
 40
0.0
 40
0.0
 40
0.0
 40
0.0
 40
0.260257614
 40
1.0
 40
1.0
 40
1.0
 40
1.0
 10
50.1543376776
 20
95.0010735641
 30
0.0
 10
50.1459945386
 20
94.9934661528
 30
0.0
 10
50.1132911617
 20
94.9649634688
 30
0.0
 10
50.0779247175
 20
94.939430561
 30
0.0
 10
50.0503630615
 20
94.9229908767
 30
0.0
  0
SPLINE
  5
36C
100
AcDbEntity
  8
0
100
AcDbSpline
 62
7
  6
BYLAYER
 70
0
 71
3
 72
11
 73
7
 74
0
 42
0.0000001
 43
0.0000001
 44
0.0000000001
 40
0.0
 40
0.0
 40
0.0
 40
0.0
 40
0.2896413964
 40
0.5491107671
 40
0.7822355978
 40
1.0
 40
1.0
 40
1.0
 40
1.0
 10
19.2169812733
 20
69.4702116701
 30
0.0
 10
19.2169812733
 20
69.5715261019
 30
0.0
 10
19.2323811044
 20
69.7642501321
 30
0.0
 10
19.3103838537
 20
70.0290467555
 30
0.0
 10
19.4417791945
 20
70.2439668717
 30
0.0
 10
19.5652711255
 20
70.3476400862
 30
0.0
 10
19.6312231406
 20
70.3857526081
 30
0.0
  0
SPLINE
  5
36D
100
AcDbEntity
  8
0
100
AcDbSpline
 62
7
  6
BYLAYER
 70
0
 71
3
 72
17
 73
13
 74
0
 42
0.0000001
 43
0.0000001
 44
0.0000000001
 40
0.0
 40
0.0
 40
0.0
 40
0.0
 40
0.042857965
 40
0.0874854797
 40
0.1353180708
 40
0.1872814984
 40
0.3045423159
 40
0.4382097446
 40
0.5825520305
 40
0.7297107839
 40
0.8713099826
 40
1.0
 40
1.0
 40
1.0
 40
1.0
 10
28.8154131141
 20
102.047747912
 30
0.0
 10
28.7661195743
 20
102.019262033
 30
0.0
 10
28.6574224794
 20
101.9741079026
 30
0.0
 10
28.4780209311
 20
101.9477952641
 30
0.0
 10
28.2853516498
 20
101.9619928945
 30
0.0
 10
28.0054016102
 20
102.0364330637
 30
0.0
 10
27.6475281831
 20
102.2321190547
 30
0.0
 10
27.2521369957
 20
102.5822752037
 30
0.0
 10
26.902627108
 20
103.0296311593
 30
0.0
 10
26.6275485937
 20
103.5380498792
 30
0.0
 10
26.4490453113
 20
104.0658398942
 30
0.0
 10
26.4012160808
 20
104.4253004059
 30
0.0
 10
26.4012160808
 20
104.5962518681
 30
0.0
  0
SPLINE
  5
36E
100
AcDbEntity
  8
0
100
AcDbSpline
 62
7
  6
BYLAYER
 70
0
 71
3
 72
9
 73
5
 74
0
 42
0.0000001
 43
0.0000001
 44
0.0000000001
 40
0.0
 40
0.0
 40
0.0
 40
0.0
 40
0.2395702099
 40
1.0
 40
1.0
 40
1.0
 40
1.0
 10
54.7528635296
 20
99.2709694159
 30
0.0
 10
54.743937048
 20
99.2656450428
 30
0.0
 10
54.7073175857
 20
99.2423511103
 30
0.0
 10
54.6732674623
 20
99.2151154903
 30
0.0
 10
54.6488889134
 20
99.1928867285
 30
0.0
  0
SPLINE
  5
36F
100
AcDbEntity
  8
0
100
AcDbSpline
 62
7
  6
BYLAYER
 70
0
 71
3
 72
11
 73
7
 74
0
 42
0.0000001
 43
0.0000001
 44
0.0000000001
 40
0.0
 40
0.0
 40
0.0
 40
0.0
 40
0.2883150152
 40
0.5474222128
 40
0.7810661793
 40
1.0
 40
1.0
 40
1.0
 40
1.0
 10
66.7911763846
 20
105.241448195
 30
0.0
 10
66.7388298413
 20
105.2125177466
 30
0.0
 10
66.6347138657
 20
105.1653675986
 30
0.0
 10
66.4752483435
 20
105.1295824873
 30
0.0
 10
66.3257584869
 20
105.1352615553
 30
0.0
 10
66.235836331
 20
105.1685171859
 30
0.0
 10
66.1965043299
 20
105.1912250325
 30
0.0
  0
SPLINE
  5
370
100
AcDbEntity
  8
0
100
AcDbSpline
 62
7
  6
BYLAYER
 70
0
 71
3
 72
17
 73
13
 74
0
 42
0.0000001
 43
0.0000001
 44
0.0000000001
 40
0.0
 40
0.0
 40
0.0
 40
0.0
 40
0.042857965
 40
0.0874854797
 40
0.1353180708
 40
0.1872814984
 40
0.3045423159
 40
0.4382097446
 40
0.5825520305
 40
0.7297107839
 40
0.8713099826
 40
1.0
 40
1.0
 40
1.0
 40
1.0
 10
34.2035892198
 20
98.9369533625
 30
0.0
 10
34.1542956799
 20
98.9084674835
 30
0.0
 10
34.045598585
 20
98.8633133531
 30
0.0
 10
33.8661970368
 20
98.8370007147
 30
0.0
 10
33.6735277554
 20
98.8511983451
 30
0.0
 10
33.3935777158
 20
98.9256385143
 30
0.0
 10
33.0357042887
 20
99.1213245053
 30
0.0
 10
32.6403131013
 20
99.4714806543
 30
0.0
 10
32.2908032136
 20
99.9188366098
 30
0.0
 10
32.0157246993
 20
100.4272553297
 30
0.0
 10
31.8372214169
 20
100.9550453447
 30
0.0
 10
31.7893921864
 20
101.3145058565
 30
0.0
 10
31.7893921864
 20
101.4854573186
 30
0.0
  0
SPLINE
  5
371
100
AcDbEntity
  8
0
100
AcDbSpline
 62
7
  6
BYLAYER
 70
0
 71
3
 72
12
 73
8
 74
0
 42
0.0000001
 43
0.0000001
 44
0.0000000001
 40
0.0
 40
0.0
 40
0.0
 40
0.0
 40
0.287785727
 40
0.5461873043
 40
0.77993147
 40
0.890896633
 40
1.0
 40
1.0
 40
1.0
 40
1.0
 10
105.573555123
 20
123.5498192583
 30
0.0
 10
105.0345518838
 20
123.2579176953
 30
0.0
 10
103.9640114218
 20
122.7831946629
 30
0.0
 10
102.3271509582
 20
122.4294056688
 30
0.0
 10
101.0244223666
 20
122.488065686
 30
0.0
 10
100.0920333257
 20
122.7561025799
 30
0.0
 10
99.6659446
 20
122.9573857666
 30
0.0
 10
99.4647091208
 20
123.0736049748
 30
0.0
  0
SPLINE
  5
372
100
AcDbEntity
  8
0
100
AcDbSpline
 62
7
  6
BYLAYER
 70
0
 71
3
 72
11
 73
7
 74
0
 42
0.0000001
 43
0.0000001
 44
0.0000000001
 40
0.0
 40
0.0
 40
0.0
 40
0.0
 40
0.2629697586
 40
0.5223819186
 40
0.7703076148
 40
1.0
 40
1.0
 40
1.0
 40
1.0
 10
125.1979533337
 20
138.9624152991
 30
0.0
 10
124.7880694992
 20
138.1157539612
 30
0.0
 10
123.8660518708
 20
136.4838457532
 30
0.0
 10
122.2169946552
 20
134.2671518377
 30
0.0
 10
120.3724982788
 20
132.3724300433
 30
0.0
 10
119.0042182756
 20
131.3338422451
 30
0.0
 10
118.305957655
 20
130.9008314084
 30
0.0
  0
SPLINE
  5
373
100
AcDbEntity
  8
0
100
AcDbSpline
 62
7
  6
BYLAYER
 70
0
 71
3
 72
17
 73
13
 74
0
 42
0.0000001
 43
0.0000001
 44
0.0000000001
 40
0.0
 40
0.0
 40
0.0
 40
0.0
 40
0.042857965
 40
0.0874854797
 40
0.1353180708
 40
0.1872814984
 40
0.3045423159
 40
0.4382097446
 40
0.5825520305
 40
0.7297107839
 40
0.8713099826
 40
1.0
 40
1.0
 40
1.0
 40
1.0
 10
39.5917653254
 20
95.8261588131
 30
0.0
 10
39.5424717855
 20
95.7976729341
 30
0.0
 10
39.4337746906
 20
95.7525188037
 30
0.0
 10
39.2543731424
 20
95.7262061652
 30
0.0
 10
39.0617038611
 20
95.7404037957
 30
0.0
 10
38.7817538214
 20
95.8148439648
 30
0.0
 10
38.4238803944
 20
96.0105299558
 30
0.0
 10
38.028489207
 20
96.3606861048
 30
0.0
 10
37.6789793193
 20
96.8080420604
 30
0.0
 10
37.403900805
 20
97.3164607803
 30
0.0
 10
37.2253975225
 20
97.8442507953
 30
0.0
 10
37.177568292
 20
98.203711307
 30
0.0
 10
37.177568292
 20
98.3746627692
 30
0.0
  0
SPLINE
  5
374
100
AcDbEntity
  8
0
100
AcDbSpline
 62
7
  6
BYLAYER
 70
0
 71
3
 72
17
 73
13
 74
0
 42
0.0000001
 43
0.0000001
 44
0.0000000001
 40
0.0
 40
0.0
 40
0.0
 40
0.0
 40
0.042857965
 40
0.0874854797
 40
0.1353180708
 40
0.1872814984
 40
0.3045423159
 40
0.4382097446
 40
0.5825520305
 40
0.7297107839
 40
0.8713099826
 40
1.0
 40
1.0
 40
1.0
 40
1.0
 10
44.979941431
 20
92.7153642636
 30
0.0
 10
44.9306478911
 20
92.6868783847
 30
0.0
 10
44.8219507962
 20
92.6417242542
 30
0.0
 10
44.642549248
 20
92.6154116158
 30
0.0
 10
44.4498799667
 20
92.6296092462
 30
0.0
 10
44.1699299271
 20
92.7040494154
 30
0.0
 10
43.8120565
 20
92.8997354064
 30
0.0
 10
43.4166653126
 20
93.2498915554
 30
0.0
 10
43.0671554249
 20
93.6972475109
 30
0.0
 10
42.7920769106
 20
94.2056662308
 30
0.0
 10
42.6135736281
 20
94.7334562458
 30
0.0
 10
42.5657443977
 20
95.0929167576
 30
0.0
 10
42.5657443977
 20
95.2638682198
 30
0.0
  0
SPLINE
  5
375
100
AcDbEntity
  8
0
100
AcDbSpline
 62
7
  6
BYLAYER
 70
0
 71
3
 72
11
 73
7
 74
0
 42
0.0000001
 43
0.0000001
 44
0.0000000001
 40
0.0
 40
0.0
 40
0.0
 40
0.0
 40
0.2179451018
 40
0.4527049146
 40
0.7125834472
 40
1.0
 40
1.0
 40
1.0
 40
1.0
 10
31.4239209721
 20
113.9409057864
 30
0.0
 10
31.4165353776
 20
114.0117635007
 30
0.0
 10
31.3771688743
 20
114.1571868754
 30
0.0
 10
31.2538745548
 20
114.3577498461
 30
0.0
 10
31.0718453224
 20
114.5398489773
 30
0.0
 10
30.9231589011
 20
114.6411046847
 30
0.0
 10
30.8417950883
 20
114.6880790412
 30
0.0
  0
SPLINE
  5
376
100
AcDbEntity
  8
0
100
AcDbSpline
 62
7
  6
BYLAYER
 70
0
 71
3
 72
17
 73
13
 74
0
 42
0.0000001
 43
0.0000001
 44
0.0000000001
 40
0.0
 40
0.0
 40
0.0
 40
0.0
 40
0.042857965
 40
0.0874854797
 40
0.1353180708
 40
0.1872814984
 40
0.3045423159
 40
0.4382097446
 40
0.5825520305
 40
0.7297107839
 40
0.8713099826
 40
1.0
 40
1.0
 40
1.0
 40
1.0
 10
23.4272370085
 20
105.1585424614
 30
0.0
 10
23.3779434687
 20
105.1300565824
 30
0.0
 10
23.2692463738
 20
105.084902452
 30
0.0
 10
23.0898448255
 20
105.0585898136
 30
0.0
 10
22.8971755442
 20
105.072787444
 30
0.0
 10
22.6172255046
 20
105.1472276132
 30
0.0
 10
22.2593520775
 20
105.3429136042
 30
0.0
 10
21.8639608901
 20
105.6930697532
 30
0.0
 10
21.5144510024
 20
106.1404257087
 30
0.0
 10
21.2393724881
 20
106.6488444286
 30
0.0
 10
21.0608692056
 20
107.1766344436
 30
0.0
 10
21.0130399752
 20
107.5360949554
 30
0.0
 10
21.0130399752
 20
107.7070464175
 30
0.0
  0
SPLINE
  5
377
100
AcDbEntity
  8
0
100
AcDbSpline
 62
7
  6
BYLAYER
 70
0
 71
3
 72
17
 73
13
 74
0
 42
0.0000001
 43
0.0000001
 44
0.0000000001
 40
0.0
 40
0.0
 40
0.0
 40
0.0
 40
0.0428571277
 40
0.087483909
 40
0.1353159407
 40
0.187279013
 40
0.3045397097
 40
0.4382076182
 40
0.5825507004
 40
0.7297102646
 40
0.8713099941
 40
1.0
 40
1.0
 40
1.0
 40
1.0
 10
27.4276231854
 20
113.9532410392
 30
0.0
 10
27.4276003137
 20
114.0101721111
 30
0.0
 10
27.4428440467
 20
114.1268811526
 30
0.0
 10
27.5097573835
 20
114.2954000477
 30
0.0
 10
27.6183876207
 20
114.4551541556
 30
0.0
 10
27.8228304073
 20
114.6603737542
 30
0.0
 10
28.1712370859
 20
114.8724535863
 30
0.0
 10
28.6721773643
 20
115.0397907544
 30
0.0
 10
29.2343546538
 20
115.118795867
 30
0.0
 10
29.8121980229
 20
115.10281239
 30
0.0
 10
30.3585293949
 20
114.9935088409
 30
0.0
 10
30.6937465095
 20
114.8552032361
 30
0.0
 10
30.8417950883
 20
114.7697292829
 30
0.0
  0
SPLINE
  5
378
100
AcDbEntity
  8
0
100
AcDbSpline
 62
7
  6
BYLAYER
 70
0
 71
3
 72
18
 73
14
 74
0
 42
0.0000001
 43
0.0000001
 44
0.0000000001
 40
0.0
 40
0.0
 40
0.0
 40
0.0
 40
0.1270553145
 40
0.2666694616
 40
0.4121072848
 40
0.4846609272
 40
0.555771831
 40
0.6899945493
 40
0.8091840742
 40
0.8623914735
 40
0.9114285007
 40
0.9569226511
 40
1.0
 40
1.0
 40
1.0
 40
1.0
 10
52.3944995108
 20
102.2449008434
 30
0.0
 10
52.2515426438
 20
102.3274351619
 30
0.0
 10
51.9288282463
 20
102.4622144981
 30
0.0
 10
51.4025161549
 20
102.572552772
 30
0.0
 10
50.935991096
 20
102.5918272623
 30
0.0
 10
50.5612529166
 20
102.5614078121
 30
0.0
 10
50.2047698029
 20
102.5019609502
 30
0.0
 10
49.7990163818
 20
102.378927505
 30
0.0
 10
49.446004813
 20
102.1847185292
 30
0.0
 10
49.2290727142
 20
101.9941235255
 30
0.0
 10
49.107255247
 20
101.8443858674
 30
0.0
 10
49.0233154992
 20
101.6851003133
 30
0.0
 10
48.9936138699
 20
101.5725945731
 30
0.0
 10
48.9862145136
 20
101.5171193763
 30
0.0
  0
SPLINE
  5
379
100
AcDbEntity
  8
0
100
AcDbSpline
 62
7
  6
BYLAYER
 70
0
 71
3
 72
11
 73
7
 74
0
 42
0.0000001
 43
0.0000001
 44
0.0000000001
 40
0.0
 40
0.0
 40
0.0
 40
0.0
 40
0.242027484
 40
0.4999895916
 40
0.7580050704
 40
1.0
 40
1.0
 40
1.0
 40
1.0
 10
45.9928698421
 20
55.6076018702
 30
0.0
 10
46.0179505787
 20
55.4172717285
 30
0.0
 10
46.1169235101
 20
55.0297256372
 30
0.0
 10
46.3722080031
 20
54.4821149827
 30
0.0
 10
46.7185055803
 20
53.9870458873
 30
0.0
 10
47.0044202278
 20
53.7073258908
 30
0.0
 10
47.1565660519
 20
53.5902945247
 30
0.0
  0
SPLINE
  5
37A
100
AcDbEntity
  8
0
100
AcDbSpline
 62
7
  6
BYLAYER
 70
0
 71
3
 72
11
 73
7
 74
0
 42
0.0000001
 43
0.0000001
 44
0.0000000001
 40
0.0
 40
0.0
 40
0.0
 40
0.0
 40
0.242027484
 40
0.4999895916
 40
0.7580050704
 40
1.0
 40
1.0
 40
1.0
 40
1.0
 10
42.4007524383
 20
57.6814649031
 30
0.0
 10
42.4258331749
 20
57.4911347615
 30
0.0
 10
42.5248061063
 20
57.1035886702
 30
0.0
 10
42.7800905993
 20
56.5559780156
 30
0.0
 10
43.1263881766
 20
56.0609089203
 30
0.0
 10
43.412302824
 20
55.7811889237
 30
0.0
 10
43.5644486482
 20
55.6641575577
 30
0.0
  0
SPLINE
  5
37B
100
AcDbEntity
  8
0
100
AcDbSpline
 62
7
  6
BYLAYER
 70
0
 71
3
 72
11
 73
7
 74
0
 42
0.0000001
 43
0.0000001
 44
0.0000000001
 40
0.0
 40
0.0
 40
0.0
 40
0.0
 40
0.242027484
 40
0.4999895916
 40
0.7580050704
 40
1.0
 40
1.0
 40
1.0
 40
1.0
 10
38.8086350346
 20
59.7553279361
 30
0.0
 10
38.8337157712
 20
59.5649977944
 30
0.0
 10
38.9326887026
 20
59.1774517032
 30
0.0
 10
39.1879731956
 20
58.6298410486
 30
0.0
 10
39.5342707728
 20
58.1347719533
 30
0.0
 10
39.8201854203
 20
57.8550519567
 30
0.0
 10
39.9723312444
 20
57.7380205906
 30
0.0
  0
SPLINE
  5
37C
100
AcDbEntity
  8
0
100
AcDbSpline
 62
7
  6
BYLAYER
 70
0
 71
3
 72
11
 73
7
 74
0
 42
0.0000001
 43
0.0000001
 44
0.0000000001
 40
0.0
 40
0.0
 40
0.0
 40
0.0
 40
0.242027484
 40
0.4999895916
 40
0.7580050704
 40
1.0
 40
1.0
 40
1.0
 40
1.0
 10
35.2165176308
 20
61.8291909691
 30
0.0
 10
35.2415983674
 20
61.6388608274
 30
0.0
 10
35.3405712988
 20
61.2513147361
 30
0.0
 10
35.5958557918
 20
60.7037040816
 30
0.0
 10
35.9421533691
 20
60.2086349862
 30
0.0
 10
36.2280680165
 20
59.9289149896
 30
0.0
 10
36.3802138407
 20
59.8118836236
 30
0.0
  0
SPLINE
  5
37D
100
AcDbEntity
  8
0
100
AcDbSpline
 62
7
  6
BYLAYER
 70
0
 71
3
 72
11
 73
7
 74
0
 42
0.0000001
 43
0.0000001
 44
0.0000000001
 40
0.0
 40
0.0
 40
0.0
 40
0.0
 40
0.242027484
 40
0.4999895916
 40
0.7580050704
 40
1.0
 40
1.0
 40
1.0
 40
1.0
 10
31.6244002271
 20
63.903054002
 30
0.0
 10
31.6494809637
 20
63.7127238604
 30
0.0
 10
31.7484538951
 20
63.3251777691
 30
0.0
 10
32.0037383881
 20
62.7775671145
 30
0.0
 10
32.3500359653
 20
62.2824980192
 30
0.0
 10
32.6359506128
 20
62.0027780226
 30
0.0
 10
32.7880964369
 20
61.8857466566
 30
0.0
  0
SPLINE
  5
37E
100
AcDbEntity
  8
0
100
AcDbSpline
 62
7
  6
BYLAYER
 70
0
 71
3
 72
11
 73
7
 74
0
 42
0.0000001
 43
0.0000001
 44
0.0000000001
 40
0.0
 40
0.0
 40
0.0
 40
0.0
 40
0.242027484
 40
0.4999895916
 40
0.7580050704
 40
1.0
 40
1.0
 40
1.0
 40
1.0
 10
28.0322828233
 20
65.976917035
 30
0.0
 10
28.0573635599
 20
65.7865868933
 30
0.0
 10
28.1563364913
 20
65.3990408021
 30
0.0
 10
28.4116209844
 20
64.8514301475
 30
0.0
 10
28.7579185616
 20
64.3563610522
 30
0.0
 10
29.043833209
 20
64.0766410556
 30
0.0
 10
29.1959790332
 20
63.9596096895
 30
0.0
  0
SPLINE
  5
37F
100
AcDbEntity
  8
0
100
AcDbSpline
 62
7
  6
BYLAYER
 70
0
 71
3
 72
11
 73
7
 74
0
 42
0.0000001
 43
0.0000001
 44
0.0000000001
 40
0.0
 40
0.0
 40
0.0
 40
0.0
 40
0.242027484
 40
0.4999895916
 40
0.7580050704
 40
1.0
 40
1.0
 40
1.0
 40
1.0
 10
24.4401654196
 20
68.0507800679
 30
0.0
 10
24.4652461562
 20
67.8604499263
 30
0.0
 10
24.5642190876
 20
67.472903835
 30
0.0
 10
24.8195035806
 20
66.9252931805
 30
0.0
 10
25.1658011578
 20
66.4302240851
 30
0.0
 10
25.4517158053
 20
66.1505040885
 30
0.0
 10
25.6038616294
 20
66.0334727225
 30
0.0
  0
SPLINE
  5
380
100
AcDbEntity
  8
0
100
AcDbSpline
 62
7
  6
BYLAYER
 70
0
 71
3
 72
11
 73
7
 74
0
 42
0.0000001
 43
0.0000001
 44
0.0000000001
 40
0.0
 40
0.0
 40
0.0
 40
0.0
 40
0.242027484
 40
0.4999895916
 40
0.7580050704
 40
1.0
 40
1.0
 40
1.0
 40
1.0
 10
20.8480480158
 20
70.1246431009
 30
0.0
 10
20.8731287525
 20
69.9343129592
 30
0.0
 10
20.9721016838
 20
69.546766868
 30
0.0
 10
21.2273861769
 20
68.9991562134
 30
0.0
 10
21.5736837541
 20
68.5040871181
 30
0.0
 10
21.8595984015
 20
68.2243671215
 30
0.0
 10
22.0117442257
 20
68.1073357555
 30
0.0
  0
SPLINE
  5
381
100
AcDbEntity
  8
0
100
AcDbSpline
 62
7
  6
BYLAYER
 70
0
 71
3
 72
18
 73
14
 74
0
 42
0.0000001
 43
0.0000001
 44
0.0000000001
 40
0.0
 40
0.0
 40
0.0
 40
0.0
 40
0.1270553145
 40
0.2666694616
 40
0.4121072848
 40
0.4846609272
 40
0.555771831
 40
0.6899945493
 40
0.8091840742
 40
0.8623914735
 40
0.9114285007
 40
0.9569226511
 40
1.0
 40
1.0
 40
1.0
 40
1.0
 10
47.0063234052
 20
105.3556953929
 30
0.0
 10
46.8633665382
 20
105.4382297114
 30
0.0
 10
46.5406521406
 20
105.5730090475
 30
0.0
 10
46.0143400493
 20
105.6833473214
 30
0.0
 10
45.5478149904
 20
105.7026218118
 30
0.0
 10
45.173076811
 20
105.6722023616
 30
0.0
 10
44.8165936973
 20
105.6127554996
 30
0.0
 10
44.4108402761
 20
105.4897220544
 30
0.0
 10
44.0578287074
 20
105.2955130786
 30
0.0
 10
43.8408966086
 20
105.104918075
 30
0.0
 10
43.7190791414
 20
104.9551804169
 30
0.0
 10
43.6351393936
 20
104.7958948628
 30
0.0
 10
43.6054377643
 20
104.6833891226
 30
0.0
 10
43.598038408
 20
104.6279139258
 30
0.0
  0
SPLINE
  5
382
100
AcDbEntity
  8
0
100
AcDbSpline
 62
7
  6
BYLAYER
 70
0
 71
3
 72
11
 73
7
 74
0
 42
0.0000001
 43
0.0000001
 44
0.0000000001
 40
0.0
 40
0.0
 40
0.0
 40
0.0
 40
0.2896413964
 40
0.5491107671
 40
0.7822355978
 40
1.0
 40
1.0
 40
1.0
 40
1.0
 10
21.0130399752
 20
107.7070464175
 30
0.0
 10
21.0130399752
 20
107.8083608493
 30
0.0
 10
21.0284398063
 20
108.0010848796
 30
0.0
 10
21.1064425556
 20
108.265881503
 30
0.0
 10
21.2378378964
 20
108.4808016191
 30
0.0
 10
21.3613298274
 20
108.5844748337
 30
0.0
 10
21.4272818424
 20
108.6225873556
 30
0.0
  0
SPLINE
  5
383
100
AcDbEntity
  8
0
100
AcDbSpline
 62
7
  6
BYLAYER
 70
0
 71
3
 72
11
 73
7
 74
0
 42
0.0000001
 43
0.0000001
 44
0.0000000001
 40
0.0
 40
0.0
 40
0.0
 40
0.0
 40
0.2896413964
 40
0.5491107671
 40
0.7822355978
 40
1.0
 40
1.0
 40
1.0
 40
1.0
 10
26.4012160808
 20
104.5962518681
 30
0.0
 10
26.4012160808
 20
104.6975662999
 30
0.0
 10
26.4166159119
 20
104.8902903301
 30
0.0
 10
26.4946186612
 20
105.1550869535
 30
0.0
 10
26.626014002
 20
105.3700070697
 30
0.0
 10
26.749505933
 20
105.4736802842
 30
0.0
 10
26.8154579481
 20
105.5117928061
 30
0.0
  0
SPLINE
  5
384
100
AcDbEntity
  8
0
100
AcDbSpline
 62
7
  6
BYLAYER
 70
0
 71
3
 72
11
 73
7
 74
0
 42
0.0000001
 43
0.0000001
 44
0.0000000001
 40
0.0
 40
0.0
 40
0.0
 40
0.0
 40
0.2896413964
 40
0.5491107671
 40
0.7822355978
 40
1.0
 40
1.0
 40
1.0
 40
1.0
 10
31.7893921864
 20
101.4854573186
 30
0.0
 10
31.7893921864
 20
101.5867717504
 30
0.0
 10
31.8047920175
 20
101.7794957807
 30
0.0
 10
31.8827947669
 20
102.0442924041
 30
0.0
 10
32.0141901076
 20
102.2592125202
 30
0.0
 10
32.1376820387
 20
102.3628857348
 30
0.0
 10
32.2036340537
 20
102.4009982567
 30
0.0
  0
SPLINE
  5
385
100
AcDbEntity
  8
0
100
AcDbSpline
 62
7
  6
BYLAYER
 70
0
 71
3
 72
11
 73
7
 74
0
 42
0.0000001
 43
0.0000001
 44
0.0000000001
 40
0.0
 40
0.0
 40
0.0
 40
0.0
 40
0.2896413964
 40
0.5491107671
 40
0.7822355978
 40
1.0
 40
1.0
 40
1.0
 40
1.0
 10
37.177568292
 20
98.3746627692
 30
0.0
 10
37.177568292
 20
98.475977201
 30
0.0
 10
37.1929681231
 20
98.6687012312
 30
0.0
 10
37.2709708725
 20
98.9334978546
 30
0.0
 10
37.4023662132
 20
99.1484179708
 30
0.0
 10
37.5258581443
 20
99.2520911853
 30
0.0
 10
37.5918101593
 20
99.2902037072
 30
0.0
  0
SPLINE
  5
386
100
AcDbEntity
  8
0
100
AcDbSpline
 62
7
  6
BYLAYER
 70
0
 71
3
 72
11
 73
7
 74
0
 42
0.0000001
 43
0.0000001
 44
0.0000000001
 40
0.0
 40
0.0
 40
0.0
 40
0.0
 40
0.2896413964
 40
0.5491107671
 40
0.7822355978
 40
1.0
 40
1.0
 40
1.0
 40
1.0
 10
42.5657443977
 20
95.2638682198
 30
0.0
 10
42.5657443977
 20
95.3651826515
 30
0.0
 10
42.5811442288
 20
95.5579066818
 30
0.0
 10
42.6591469781
 20
95.8227033052
 30
0.0
 10
42.7905423188
 20
96.0376234213
 30
0.0
 10
42.9140342499
 20
96.1412966359
 30
0.0
 10
42.9799862649
 20
96.1794091578
 30
0.0
  0
SPLINE
  5
387
100
AcDbEntity
  8
0
100
AcDbSpline
 62
7
  6
BYLAYER
 70
0
 71
3
 72
18
 73
14
 74
0
 42
0.0000001
 43
0.0000001
 44
0.0000000001
 40
0.0
 40
0.0
 40
0.0
 40
0.0
 40
0.1270553145
 40
0.2666694616
 40
0.4121072848
 40
0.4846609272
 40
0.555771831
 40
0.6899945493
 40
0.8091840742
 40
0.8623914735
 40
0.9114285007
 40
0.9569226511
 40
1.0
 40
1.0
 40
1.0
 40
1.0
 10
41.6181472996
 20
108.4664899423
 30
0.0
 10
41.4751904326
 20
108.5490242608
 30
0.0
 10
41.152476035
 20
108.683803597
 30
0.0
 10
40.6261639437
 20
108.7941418708
 30
0.0
 10
40.1596388848
 20
108.8134163612
 30
0.0
 10
39.7849007054
 20
108.782996911
 30
0.0
 10
39.4284175917
 20
108.7235500491
 30
0.0
 10
39.0226641705
 20
108.6005166038
 30
0.0
 10
38.6696526018
 20
108.4063076281
 30
0.0
 10
38.452720503
 20
108.2157126244
 30
0.0
 10
38.3309030358
 20
108.0659749663
 30
0.0
 10
38.246963288
 20
107.9066894122
 30
0.0
 10
38.2172616587
 20
107.794183672
 30
0.0
 10
38.2098623024
 20
107.7387084752
 30
0.0
  0
SPLINE
  5
388
100
AcDbEntity
  8
0
100
AcDbSpline
 62
7
  6
BYLAYER
 70
0
 71
3
 72
11
 73
7
 74
0
 42
0.0000001
 43
0.0000001
 44
0.0000000001
 40
0.0
 40
0.0
 40
0.0
 40
0.0
 40
0.242027484
 40
0.4999895916
 40
0.7580050704
 40
1.0
 40
1.0
 40
1.0
 40
1.0
 10
22.6441067177
 20
108.3614778484
 30
0.0
 10
22.6691874543
 20
108.1711477067
 30
0.0
 10
22.7681603857
 20
107.7836016154
 30
0.0
 10
23.0234448787
 20
107.2359909609
 30
0.0
 10
23.369742456
 20
106.7409218655
 30
0.0
 10
23.6556571034
 20
106.4612018689
 30
0.0
 10
23.8078029276
 20
106.3441705029
 30
0.0
  0
SPLINE
  5
389
100
AcDbEntity
  8
0
100
AcDbSpline
 62
7
  6
BYLAYER
 70
0
 71
3
 72
18
 73
14
 74
0
 42
0.0000001
 43
0.0000001
 44
0.0000000001
 40
0.0
 40
0.0
 40
0.0
 40
0.0
 40
0.1270553145
 40
0.2666694616
 40
0.4121072848
 40
0.4846609272
 40
0.555771831
 40
0.6899945493
 40
0.8091840742
 40
0.8623914735
 40
0.9114285007
 40
0.9569226511
 40
1.0
 40
1.0
 40
1.0
 40
1.0
 10
36.2299711939
 20
111.5772844918
 30
0.0
 10
36.087014327
 20
111.6598188102
 30
0.0
 10
35.7642999294
 20
111.7945981464
 30
0.0
 10
35.237987838
 20
111.9049364203
 30
0.0
 10
34.7714627792
 20
111.9242109107
 30
0.0
 10
34.3967245997
 20
111.8937914605
 30
0.0
 10
34.0402414861
 20
111.8343445985
 30
0.0
 10
33.6344880649
 20
111.7113111533
 30
0.0
 10
33.2814764962
 20
111.5171021775
 30
0.0
 10
33.0645443974
 20
111.3265071739
 30
0.0
 10
32.9427269302
 20
111.1767695157
 30
0.0
 10
32.8587871824
 20
111.0174839616
 30
0.0
 10
32.829085553
 20
110.9049782215
 30
0.0
 10
32.8216861967
 20
110.8495030247
 30
0.0
  0
SPLINE
  5
38A
100
AcDbEntity
  8
0
100
AcDbSpline
 62
7
  6
BYLAYER
 70
0
 71
3
 72
11
 73
7
 74
0
 42
0.0000001
 43
0.0000001
 44
0.0000000001
 40
0.0
 40
0.0
 40
0.0
 40
0.0
 40
0.242027484
 40
0.4999895916
 40
0.7580050704
 40
1.0
 40
1.0
 40
1.0
 40
1.0
 10
44.1968111402
 20
95.9182996506
 30
0.0
 10
44.2218918768
 20
95.7279695089
 30
0.0
 10
44.3208648082
 20
95.3404234177
 30
0.0
 10
44.5761493012
 20
94.7928127631
 30
0.0
 10
44.9224468784
 20
94.2977436678
 30
0.0
 10
45.2083615259
 20
94.0180236712
 30
0.0
 10
45.36050735
 20
93.9009923051
 30
0.0
  0
SPLINE
  5
38B
100
AcDbEntity
  8
0
100
AcDbSpline
 62
7
  6
BYLAYER
 70
0
 71
3
 72
11
 73
7
 74
0
 42
0.0000001
 43
0.0000001
 44
0.0000000001
 40
0.0
 40
0.0
 40
0.0
 40
0.0
 40
0.242027484
 40
0.4999895916
 40
0.7580050704
 40
1.0
 40
1.0
 40
1.0
 40
1.0
 10
38.8086350346
 20
99.0290942
 30
0.0
 10
38.8337157712
 20
98.8387640584
 30
0.0
 10
38.9326887026
 20
98.4512179671
 30
0.0
 10
39.1879731956
 20
97.9036073125
 30
0.0
 10
39.5342707728
 20
97.4085382172
 30
0.0
 10
39.8201854203
 20
97.1288182206
 30
0.0
 10
39.9723312444
 20
97.0117868546
 30
0.0
  0
SPLINE
  5
38C
100
AcDbEntity
  8
0
100
AcDbSpline
 62
7
  6
BYLAYER
 70
0
 71
3
 72
11
 73
7
 74
0
 42
0.0000001
 43
0.0000001
 44
0.0000000001
 40
0.0
 40
0.0
 40
0.0
 40
0.0
 40
0.242027484
 40
0.4999895916
 40
0.7580050704
 40
1.0
 40
1.0
 40
1.0
 40
1.0
 10
33.4204589289
 20
102.1398887495
 30
0.0
 10
33.4455396656
 20
101.9495586078
 30
0.0
 10
33.544512597
 20
101.5620125165
 30
0.0
 10
33.79979709
 20
101.014401862
 30
0.0
 10
34.1460946672
 20
100.5193327666
 30
0.0
 10
34.4320093147
 20
100.2396127701
 30
0.0
 10
34.5841551388
 20
100.122581404
 30
0.0
  0
SPLINE
  5
38D
100
AcDbEntity
  8
0
100
AcDbSpline
 62
7
  6
BYLAYER
 70
0
 71
3
 72
11
 73
7
 74
0
 42
0.0000001
 43
0.0000001
 44
0.0000000001
 40
0.0
 40
0.0
 40
0.0
 40
0.0
 40
0.242027484
 40
0.4999895916
 40
0.7580050704
 40
1.0
 40
1.0
 40
1.0
 40
1.0
 10
28.0322828233
 20
105.2506832989
 30
0.0
 10
28.0573635599
 20
105.0603531572
 30
0.0
 10
28.1563364913
 20
104.672807066
 30
0.0
 10
28.4116209844
 20
104.1251964114
 30
0.0
 10
28.7579185616
 20
103.6301273161
 30
0.0
 10
29.043833209
 20
103.3504073195
 30
0.0
 10
29.1959790332
 20
103.2333759535
 30
0.0
  0
ENDSEC
  0
SECTION
  2
OBJECTS
  0
DICTIONARY
  5
C
100
AcDbDictionary
280
0
281
1
  3
ACAD_GROUP
350
D
  3
ACAD_MLINESTYLE
350
17
  3
ACAD_LAYOUT
350
1A
  3
ACAD_PLOTSETTINGS
350
19
  3
ACAD_PLOTSTYLENAME
350
E
  0
DICTIONARY
  5
D
102
{ACAD_REACTORS
330
C
102
}
100
AcDbDictionary
280
0
281
1
  0
ACDBDICTIONARYWDFLT
  5
E
102
{ACAD_REACTORS
330
C
102
}
100
AcDbDictionary
281
1
  3
Normal
350
F
100
AcDbDictionaryWithDefault
340
F
  0
DICTIONARY
  5
17
102
{ACAD_REACTORS
330
C
102
}
100
AcDbDictionary
280
0
281
1
  3
Standard
350
18
  0
DICTIONARY
  5
19
102
{ACAD_REACTORS
330
C
102
}
100
AcDbDictionary
281
1
  0
DICTIONARY
  5
1A
102
{ACAD_REACTORS
330
C
102
}
100
AcDbDictionary
281
1
  3
Model
350
38E
  3
Layout1
350
38F
  0
ACDBPLACEHOLDER
  5
F
102
{ACAD_REACTORS
330
E
102
}
  0
MLINESTYLE
  5
18
102
{ACAD_REACTORS
330
17
102
}
100
AcDbMlineStyle
  2
STANDARD
 70
0
  3

 62
256
 51
90.0
 52
90.0
 71
2
 49
0.5
 62
256
  6
BYLAYER
 49
-0.5
 62
256
  6
BYLAYER
  0
LAYOUT
  5
38E
102
{ACAD_REACTORS
330
1A
102
}
100
AcDbPlotSettings
  1

  2
none_device
  4

  6

 40
0.0
 41
0.0
 42
0.0
 43
0.0
 44
210.0
 45
297.0
 46
0.0
 47
0.0
 48
0.0
 49
0.0
140
0.0
141
0.0
142
1.0
143
1.0
 70
1024
 72
1
 73
0
 74
0
  7

 75
0
147
1.0
148
0.0
149
0.0
100
AcDbLayout
  1
Model
 70
0
 71
0
 10
0.0
 20
0.0
 11
210.0
 21
297.0
 12
0.0
 22
0.0
 32
0.0
 14
0.0
 24
0.0
 34
0.0
 15
0.0
 25
0.0
 35
0.0
146
0.0
 13
0.0
 23
0.0
 33
0.0
 16
1.0
 26
0.0
 36
0.0
 17
0.0
 27
1.0
 37
0.0
 76
0
330
210
345
0
346
0
  0
LAYOUT
  5
38F
102
{ACAD_REACTORS
330
1A
102
}
100
AcDbPlotSettings
  1

  2
none_device
  4

  6

 40
0.0
 41
0.0
 42
0.0
 43
0.0
 44
210.0
 45
297.0
 46
0.0
 47
0.0
 48
0.0
 49
0.0
140
0.0
141
0.0
142
1.0
143
1.0
 70
0
 72
1
 73
0
 74
0
  7

 75
0
147
1.0
148
0.0
149
0.0
100
AcDbLayout
  1
Layout1
 70
0
 71
1
 10
0.0
 20
0.0
 11
210.0
 21
297.0
 12
0.0
 22
0.0
 32
0.0
 14
0.0
 24
0.0
 34
0.0
 15
0.0
 25
0.0
 35
0.0
146
0.0
 13
0.0
 23
0.0
 33
0.0
 16
1.0
 26
0.0
 36
0.0
 17
0.0
 27
1.0
 37
0.0
 76
0
330
211
345
0
346
0
  0
ENDSEC
  0
EOF
