999
DXF file: C:\Users\sesa63760\Dev\_Creo\CAD\MCADPD0005315_3D-CAD\drw0001_7.dxf
999
Pro/ENGINEER 2019471 by Parametric Technology Corporation
  0
SECTION
  2
HEADER
  9
$ACADVER
  1
AC1024
  9
$DWGCODEPAGE
  3
ANSI_1252
  9
$EXTMAX
 10
207.3066347255
 20
293.190811969
 30
0.0
  9
$EXTMIN
 10
0.0
 20
0.0
 30
0.0
  9
$LIMMIN
 10
0.0
 20
0.0
  9
$LIMMAX
 10
207.3066347255
 20
293.190811969
  9
$VIEWCTR
 10
103.6533173628
 20
146.5954059845
  9
$VIEWSIZE
 40
293.190811969
  9
$CLAYER
  8
0
  9
$LTSCALE
 40
19.1116973728
  9
$CELTYPE
  6
BYLAYER
  9
$DIMSCALE
 40
1.0
  9
$DIMASZ
 40
2.4679361277
  9
$DIMEXO
 40
1.0
  9
$DIMDLI
 40
13.2044454576
  9
$DIMEXE
 40
1.0
  9
$DIMCEN
 40
3.127368661
  9
$DIMLFAC
 40
1.0
  9
$DIMBLK
  1
_FILLED
  9
$DIMALT
 70
0
  9
$DIMALTF
 40
0.0393700787
  9
$DIMTXT
 40
3.4551105788
  9
$DIMTOL
 70
1
  9
$DIMLIM
 70
0
  9
$DIMTFAC
 40
1.0
  9
$DIMTP
 40
0.01
  9
$DIMTM
 40
0.01
  9
$DIMGAP
 40
0.625
  9
$DIMDSEP
 70
46
  9
$AUNITS
 70
0
  9
$PDMODE
 70
3
  9
$PDSIZE
 40
0.3125
  9
$HANDSEED
  5
2B2
  9
$TILEMODE
 70
1
  9
$MEASUREMENT
 70
1
  9
$INSUNITS
 70
4
  0
ENDSEC
  0
SECTION
  2
CLASSES
  0
CLASS
  1
ACDBDICTIONARYWDFLT
  2
AcDbDictionaryWithDefault
  3
AutoCAD 2000
 90
0
 91
1
280
0
281
0
  0
CLASS
  1
ACDBPLACEHOLDER
  2
AcDbPlaceHolder
  3
AutoCAD 2000
 90
0
 91
1
280
0
281
0
  0
CLASS
  1
LAYOUT
  2
AcDbLayout
  3
AutoCAD 2000
 90
0
 91
0
280
0
281
0
  0
ENDSEC
  0
SECTION
  2
TABLES
  0
TABLE
  2
VPORT
  5
8
100
AcDbSymbolTable
 70
2
  0
VPORT
  5
1F4
100
AcDbSymbolTableRecord
100
AcDbViewportTableRecord
  2
*ACTIVE
 70
0
 10
0.0
 20
0.0
 11
1.0
 21
1.0
 12
103.6533173628
 22
146.5954059845
 13
0.0
 23
0.0
 14
1.0
 24
1.0
 15
0.0
 25
0.0
 16
0.0
 26
0.0
 36
1.0
 17
0.0
 27
0.0
 37
0.0
 40
293.190811969
 41
0.7070707071
 42
50.0
 43
0.0
 44
0.0
 50
0.0
 51
0.0
 71
0
 72
100
 73
1
 74
1
 75
0
 76
0
 77
0
 78
0
  0
ENDTAB
  0
TABLE
  2
LTYPE
  5
5
100
AcDbSymbolTable
 70
6
  0
LTYPE
  5
14
100
AcDbSymbolTableRecord
100
AcDbLinetypeTableRecord
  2
BYBLOCK
 70
0
  3

 72
65
 73
0
 40
0.0
  0
LTYPE
  5
15
100
AcDbSymbolTableRecord
100
AcDbLinetypeTableRecord
  2
BYLAYER
 70
0
  3

 72
65
 73
0
 40
0.0
  0
LTYPE
  5
16
100
AcDbSymbolTableRecord
100
AcDbLinetypeTableRecord
  2
CONTINUOUS
 70
64
  3
Solid line
 72
65
 73
0
 40
0.0
  0
LTYPE
  5
1F5
100
AcDbSymbolTableRecord
100
AcDbLinetypeTableRecord
  2
CENTER
 70
64
  3
____ _ ____ _ ____ _ ____ _ ____ _ ____ _ ____
 72
65
 73
4
 40
0.6
 49
0.375
 74
0
 49
-0.075
 74
0
 49
0.075
 74
0
 49
-0.075
 74
0
  0
LTYPE
  5
1F6
100
AcDbSymbolTableRecord
100
AcDbLinetypeTableRecord
  2
HIDDEN
 70
64
  3
- - - - - - - - - - - - - - - - - - - -
 72
65
 73
2
 40
0.2
 49
0.1
 74
0
 49
-0.1
 74
0
  0
LTYPE
  5
1F7
100
AcDbSymbolTableRecord
100
AcDbLinetypeTableRecord
  2
PHANTOM
 70
64
  3
_____ _ _ _____ _ _ _____ _ _ _____
 72
65
 73
6
 40
0.8
 49
0.45
 74
0
 49
-0.05
 74
0
 49
0.1
 74
0
 49
-0.05
 74
0
 49
0.1
 74
0
 49
-0.05
 74
0
  0
LTYPE
  5
1F8
100
AcDbSymbolTableRecord
100
AcDbLinetypeTableRecord
  2
DOT
 70
64
  3
. . . . . . . . . . . . . . . . . . . .
 72
65
 73
2
 40
0.2
 49
0.1
 74
0
 49
-0.1
 74
0
  0
LTYPE
  5
1F9
100
AcDbSymbolTableRecord
100
AcDbLinetypeTableRecord
  2
DASHED
 70
64
  3
- - - - - - - - - - - - - - - - - - - -
 72
65
 73
2
 40
0.2
 49
0.1
 74
0
 49
-0.1
 74
0
  0
ENDTAB
  0
TABLE
  2
LAYER
  5
2
100
AcDbSymbolTable
 70
36
  0
LAYER
  5
10
100
AcDbSymbolTableRecord
100
AcDbLayerTableRecord
  2
0
 70
0
 62
7
  6
CONTINUOUS
370
-3
390
F
  0
LAYER
  5
1FA
100
AcDbSymbolTableRecord
100
AcDbLayerTableRecord
  2
DEFAULT_1
 70
0
 62
7
  6
CENTER
370
-3
390
F
  0
LAYER
  5
1FB
100
AcDbSymbolTableRecord
100
AcDbLayerTableRecord
  2
DEFAULT_2
 70
0
 62
7
  6
HIDDEN
370
-3
390
F
  0
LAYER
  5
1FC
100
AcDbSymbolTableRecord
100
AcDbLayerTableRecord
  2
DEFAULT_3
 70
0
 62
7
  6
PHANTOM
370
-3
390
F
  0
LAYER
  5
1FD
100
AcDbSymbolTableRecord
100
AcDbLayerTableRecord
  2
00_COMPONENTS
 70
0
 62
7
  6
CONTINUOUS
370
-3
390
F
  0
LAYER
  5
1FE
100
AcDbSymbolTableRecord
100
AcDbLayerTableRecord
  2
01_1_DEFAULT_DATUMS
 70
0
 62
7
  6
CONTINUOUS
370
-3
390
F
  0
LAYER
  5
1FF
100
AcDbSymbolTableRecord
100
AcDbLayerTableRecord
  2
01_PLANES
 70
0
 62
7
  6
CONTINUOUS
370
-3
390
F
  0
LAYER
  5
200
100
AcDbSymbolTableRecord
100
AcDbLayerTableRecord
  2
02_COORD_SYS
 70
0
 62
7
  6
CONTINUOUS
370
-3
390
F
  0
LAYER
  5
201
100
AcDbSymbolTableRecord
100
AcDbLayerTableRecord
  2
03_AXES
 70
0
 62
7
  6
CONTINUOUS
370
-3
390
F
  0
LAYER
  5
202
100
AcDbSymbolTableRecord
100
AcDbLayerTableRecord
  2
04_POINTS
 70
0
 62
7
  6
CONTINUOUS
370
-3
390
F
  0
LAYER
  5
203
100
AcDbSymbolTableRecord
100
AcDbLayerTableRecord
  2
05_CURVES
 70
0
 62
7
  6
CONTINUOUS
370
-3
390
F
  0
LAYER
  5
204
100
AcDbSymbolTableRecord
100
AcDbLayerTableRecord
  2
06_SURFS
 70
0
 62
7
  6
CONTINUOUS
370
-3
390
F
  0
LAYER
  5
205
100
AcDbSymbolTableRecord
100
AcDbLayerTableRecord
  2
07_COSMETICS
 70
0
 62
7
  6
CONTINUOUS
370
-3
390
F
  0
LAYER
  5
206
100
AcDbSymbolTableRecord
100
AcDbLayerTableRecord
  2
10_NOTES
 70
0
 62
7
  6
CONTINUOUS
370
-3
390
F
  0
LAYER
  5
207
100
AcDbSymbolTableRecord
100
AcDbLayerTableRecord
  2
11_NOTES_PUB
 70
0
 62
7
  6
CONTINUOUS
370
-3
390
F
  0
LAYER
  5
208
100
AcDbSymbolTableRecord
100
AcDbLayerTableRecord
  2
13_REF_GTOL
 70
0
 62
7
  6
CONTINUOUS
370
-3
390
F
  0
LAYER
  5
209
100
AcDbSymbolTableRecord
100
AcDbLayerTableRecord
  2
16_MISC
 70
0
 62
7
  6
CONTINUOUS
370
-3
390
F
  0
LAYER
  5
20A
100
AcDbSymbolTableRecord
100
AcDbLayerTableRecord
  2
17_NO_PRINT
 70
0
 62
7
  6
CONTINUOUS
370
-3
390
F
  0
LAYER
  5
20B
100
AcDbSymbolTableRecord
100
AcDbLayerTableRecord
  2
18_DATUM_CAMS_JOINTS
 70
0
 62
7
  6
CONTINUOUS
370
-3
390
F
  0
LAYER
  5
20C
100
AcDbSymbolTableRecord
100
AcDbLayerTableRecord
  2
19_DATUM_FUNCTIONAL
 70
0
 62
7
  6
CONTINUOUS
370
-3
390
F
  0
LAYER
  5
20D
100
AcDbSymbolTableRecord
100
AcDbLayerTableRecord
  2
20_DATUM_KINEMATIC_SCHEME
 70
0
 62
7
  6
CONTINUOUS
370
-3
390
F
  0
ENDTAB
  0
TABLE
  2
STYLE
  5
3
100
AcDbSymbolTable
 70
1
  0
STYLE
  5
11
100
AcDbSymbolTableRecord
100
AcDbTextStyleTableRecord
  2
STANDARD
 70
0
 40
0.0
 41
1.0
 50
0.0
 71
0
 42
0.2
  3
ARIAL.TTF
  4

  0
STYLE
  5
20E
100
AcDbSymbolTableRecord
100
AcDbTextStyleTableRecord
  2
TEXTSTYLE_1
 70
0
 40
0.0
 41
0.8
 50
0.0
 71
0
 42
0.2
  3
gdt
  4

  0
ENDTAB
  0
TABLE
  2
VIEW
  5
6
100
AcDbSymbolTable
 70
0
  0
ENDTAB
  0
TABLE
  2
UCS
  5
7
100
AcDbSymbolTable
 70
0
  0
ENDTAB
  0
TABLE
  2
APPID
  5
9
100
AcDbSymbolTable
 70
1
  0
APPID
  5
20F
100
AcDbSymbolTableRecord
100
AcDbRegAppTableRecord
  2
ACAD
 70
0
  0
ENDTAB
  0
TABLE
  2
BLOCK_RECORD
  5
1
100
AcDbSymbolTable
 70
0
  0
BLOCK_RECORD
  5
210
100
AcDbSymbolTableRecord
100
AcDbBlockTableRecord
  2
*Model_Space
  0
BLOCK_RECORD
  5
211
100
AcDbSymbolTableRecord
100
AcDbBlockTableRecord
  2
*Paper_Space
  0
BLOCK_RECORD
  5
212
100
AcDbSymbolTableRecord
100
AcDbBlockTableRecord
  2
_FILLED
  0
ENDTAB
  0
TABLE
  2
DIMSTYLE
  5
A
100
AcDbSymbolTable
 70
1
100
AcDbDimStyleTable
 71
0
  0
DIMSTYLE
105
213
100
AcDbSymbolTableRecord
100
AcDbDimStyleTableRecord
  2
STANDARD
 70
0
  3

  4

 40
1.0
 41
2.4679361277
 42
1.0
 43
0.38
 44
1.0
 45
0.0
 46
0.0
 47
0.01
 48
0.01
140
3.4551105788
141
0.09
142
0.0
143
25.4
144
1.0
145
0.0
146
1.0
147
0.625
 71
1
 72
0
 73
0
 74
0
 75
0
 76
0
 77
1
 78
8
 79
2
170
0
171
1
172
0
173
0
174
0
175
0
176
0
177
0
178
0
270
2
179
2
271
2
272
2
273
2
274
2
275
0
280
0
281
0
282
0
283
1
284
8
285
0
286
0
287
3
288
0
340
11
278
46
341
212
342
212
343
212
344
212
  0
ENDTAB
  0
ENDSEC
  0
SECTION
  2
BLOCKS
  0
BLOCK
  5
20
100
AcDbEntity
  8
0
100
AcDbBlockBegin
  2
*Model_Space
 70
0
 10
0.0
 20
0.0
 30
0.0
  3
*Model_Space
  1

  0
ENDBLK
  5
21
100
AcDbEntity
  8
0
100
AcDbBlockEnd
  0
BLOCK
  5
1C
100
AcDbEntity
  8
0
100
AcDbBlockBegin
  2
*Paper_Space
 70
0
 10
0.0
 20
0.0
 30
0.0
  3
*Paper_Space
  1

  0
ENDBLK
  5
1D
100
AcDbEntity
  8
0
100
AcDbBlockEnd
  0
BLOCK
  5
214
100
AcDbEntity
  8
0
100
AcDbBlockBegin
  2
_FILLED
 70
64
 10
0.0
 20
0.0
  3
_FILLED
  1

  0
SOLID
  5
215
100
AcDbEntity
  8
0
  6
BYBLOCK
 62
0
100
AcDbTrace
 10
0.0
 20
0.0
 11
-1.0
 21
0.25
 12
-1.0
 22
-0.25
 13
-1.0
 23
-0.25
  0
ENDBLK
  5
216
100
AcDbEntity
  8
0
  6
BYBLOCK
 62
0
100
AcDbBlockEnd
  0
ENDSEC
  0
SECTION
  2
ENTITIES
  0
LINE
  5
217
100
AcDbEntity
  8
0
100
AcDbLine
 62
7
  6
BYLAYER
 10
29.7278290388
 20
69.92037681
 11
41.0194188295
 21
58.6287870194
  0
LINE
  5
218
100
AcDbEntity
  8
0
100
AcDbLine
 62
7
  6
BYLAYER
 10
30.43493582
 20
70.6274835912
 11
41.7265256107
 21
59.3358938006
  0
LINE
  5
219
100
AcDbEntity
  8
0
100
AcDbLine
 62
7
  6
BYLAYER
 10
173.4890194681
 20
50.8131353053
 11
34.5355312672
 21
50.8131353053
  0
LINE
  5
21A
100
AcDbEntity
  8
0
100
AcDbLine
 62
7
  6
BYLAYER
 10
34.777609996
 20
63.5785679766
 11
36.0696378723
 21
63.5785679766
  0
LINE
  5
21B
100
AcDbEntity
  8
0
100
AcDbLine
 62
7
  6
BYLAYER
 10
37.4838514346
 20
63.5785679766
 11
43.658029008
 21
63.5785679766
  0
LINE
  5
21C
100
AcDbEntity
  8
0
100
AcDbLine
 62
7
  6
BYLAYER
 10
43.9101418501
 20
63.5785679766
 11
164.1142127994
 21
63.5785679766
  0
LINE
  5
21D
100
AcDbEntity
  8
0
100
AcDbLine
 62
7
  6
BYLAYER
 10
164.3663256414
 20
63.5785679766
 11
172.6396378722
 21
63.5785679766
  0
LINE
  5
21E
100
AcDbEntity
  8
0
100
AcDbLine
 62
7
  6
BYLAYER
 10
22.0121773247
 20
63.3369361241
 11
22.0121773247
 21
231.2893162596
  0
LINE
  5
21F
100
AcDbEntity
  8
0
100
AcDbLine
 62
7
  6
BYLAYER
 10
34.777609996
 20
230.2405958528
 11
34.777609996
 21
222.05469009
  0
LINE
  5
220
100
AcDbEntity
  8
0
100
AcDbLine
 62
7
  6
BYLAYER
 10
34.777609996
 20
221.802964661
 11
34.777609996
 21
72.8233059495
  0
LINE
  5
221
100
AcDbEntity
  8
0
100
AcDbLine
 62
7
  6
BYLAYER
 10
34.777609996
 20
72.5715805206
 11
34.777609996
 21
66.2848094152
  0
LINE
  5
222
100
AcDbEntity
  8
0
100
AcDbLine
 62
7
  6
BYLAYER
 10
34.777609996
 20
64.8705958528
 11
34.777609996
 21
63.5785679766
  0
LINE
  5
223
100
AcDbEntity
  8
0
100
AcDbLine
 62
7
  6
BYLAYER
 10
27.4888856744
 20
64.1887155983
 11
24.6124802892
 21
63.7434696205
  0
LINE
  5
224
100
AcDbEntity
  8
0
100
AcDbLine
 62
7
  6
BYLAYER
 10
183.4123546244
 20
63.7433540335
 11
180.5354646426
 21
64.1886709409
  0
LINE
  5
225
100
AcDbEntity
  8
0
100
AcDbLine
 62
7
  6
BYLAYER
 10
34.9424803958
 20
53.4134416768
 11
35.4023762627
 21
56.3845315032
  0
LINE
  5
226
100
AcDbEntity
  8
0
100
AcDbLine
 62
7
  6
BYLAYER
 10
35.4023603884
 20
238.24174104
 11
34.9424525451
 21
241.2129562296
  0
LINE
  5
227
100
AcDbEntity
  8
0
100
AcDbLine
 62
7
  6
BYLAYER
 10
74.0121773247
 20
120.8131352931
 11
74.0121773247
 21
173.8131352941
  0
LINE
  5
228
100
AcDbEntity
  8
0
100
AcDbLine
 62
7
  6
BYLAYER
 10
75.0121773247
 20
173.8131353053
 11
75.0121773247
 21
120.8131353053
  0
LINE
  5
229
100
AcDbEntity
  8
0
100
AcDbLine
 62
7
  6
BYLAYER
 10
77.5121773247
 20
177.3131353053
 11
77.5121773247
 21
176.3131353053
  0
LINE
  5
22A
100
AcDbEntity
  8
0
100
AcDbLine
 62
7
  6
BYLAYER
 10
77.5121773247
 20
118.3131353053
 11
77.5121773247
 21
117.3131353053
  0
LINE
  5
22B
100
AcDbEntity
  8
0
100
AcDbLine
 62
7
  6
BYLAYER
 10
130.5121773369
 20
117.3131353053
 11
77.5121773359
 21
117.3131353053
  0
LINE
  5
22C
100
AcDbEntity
  8
0
100
AcDbLine
 62
7
  6
BYLAYER
 10
77.5121773247
 20
118.3131353053
 11
130.5121773247
 21
118.3131353053
  0
LINE
  5
22D
100
AcDbEntity
  8
0
100
AcDbLine
 62
7
  6
BYLAYER
 10
74.0121773247
 20
120.8131353053
 11
75.0121773247
 21
120.8131353053
  0
LINE
  5
22E
100
AcDbEntity
  8
0
100
AcDbLine
 62
7
  6
BYLAYER
 10
133.0121773247
 20
120.8131353053
 11
134.0121773247
 21
120.8131353053
  0
LINE
  5
22F
100
AcDbEntity
  8
0
100
AcDbLine
 62
7
  6
BYLAYER
 10
83.8046105837
 20
141.8649171646
 11
84.2308492937
 21
144.3635680611
  0
LINE
  5
230
100
AcDbEntity
  8
0
100
AcDbLine
 62
7
  6
BYLAYER
 10
83.8046105837
 20
152.7613589299
 11
83.9064504851
 21
153.3131353052
  0
LINE
  5
231
100
AcDbEntity
  8
0
100
AcDbLine
 62
7
  6
BYLAYER
 10
113.8362858976
 20
129.3204453799
 11
94.1880687525
 21
129.3204453799
  0
LINE
  5
232
100
AcDbEntity
  8
0
100
AcDbLine
 62
7
  6
BYLAYER
 10
83.9064504851
 20
141.3131353054
 11
83.8046105837
 21
141.8649116805
  0
LINE
  5
233
100
AcDbEntity
  8
0
100
AcDbLine
 62
7
  6
BYLAYER
 10
84.2308589524
 20
150.2626990639
 11
83.8047595021
 21
152.7613534195
  0
LINE
  5
234
100
AcDbEntity
  8
0
100
AcDbLine
 62
7
  6
BYLAYER
 10
89.3121773247
 20
149.0772308043
 11
89.3121773247
 21
145.5398988313
  0
LINE
  5
235
100
AcDbEntity
  8
0
100
AcDbLine
 62
7
  6
BYLAYER
 10
90.1121773247
 20
141.8620476859
 11
90.1121773247
 21
145.6131353053
  0
LINE
  5
236
100
AcDbEntity
  8
0
100
AcDbLine
 62
7
  6
BYLAYER
 10
90.1121773247
 20
149.0131353053
 11
90.1121773247
 21
152.7611761315
  0
LINE
  5
237
100
AcDbEntity
  8
0
100
AcDbLine
 62
7
  6
BYLAYER
 10
90.5121773247
 20
141.865094479
 11
90.5121773247
 21
145.4131353053
  0
LINE
  5
238
100
AcDbEntity
  8
0
100
AcDbLine
 62
7
  6
BYLAYER
 10
90.5121773247
 20
149.2131353053
 11
90.5121773247
 21
152.7642229247
  0
LINE
  5
239
100
AcDbEntity
  8
0
100
AcDbLine
 62
7
  6
BYLAYER
 10
177.9038105989
 20
235.7047685797
 11
173.2467446535
 21
231.047702634
  0
LINE
  5
23A
100
AcDbEntity
  8
0
100
AcDbLine
 62
7
  6
BYLAYER
 10
81.8330685943
 20
143.5266942421
 11
81.8344652203
 21
143.5275631086
  0
LINE
  5
23B
100
AcDbEntity
  8
0
100
AcDbLine
 62
7
  6
BYLAYER
 10
88.5781978146
 20
149.5191058871
 11
85.2449426862
 21
147.754097104
  0
LINE
  5
23C
100
AcDbEntity
  8
0
100
AcDbLine
 62
7
  6
BYLAYER
 10
85.2441864149
 20
146.8707482248
 11
88.5774415433
 21
145.0984250349
  0
LINE
  5
23D
100
AcDbEntity
  8
0
100
AcDbLine
 62
7
  6
BYLAYER
 10
81.8344652602
 20
151.0987075839
 11
81.8330685959
 21
151.0995763775
  0
LINE
  5
23E
100
AcDbEntity
  8
0
100
AcDbLine
 62
7
  6
BYLAYER
 10
166.2978290388
 20
69.92037681
 11
177.5894188295
 21
58.6287870194
  0
LINE
  5
23F
100
AcDbEntity
  8
0
100
AcDbLine
 62
7
  6
BYLAYER
 10
167.00493582
 20
70.6274835912
 11
178.2965256107
 21
59.3358938006
  0
LINE
  5
240
100
AcDbEntity
  8
0
100
AcDbLine
 62
7
  6
BYLAYER
 10
94.188068754
 20
129.3204453788
 11
93.2296191373
 21
127.5650609958
  0
LINE
  5
241
100
AcDbEntity
  8
0
100
AcDbLine
 62
7
  6
BYLAYER
 10
113.8362858968
 20
165.305825231
 11
114.7947355136
 21
167.061209614
  0
LINE
  5
242
100
AcDbEntity
  8
0
100
AcDbLine
 62
7
  6
BYLAYER
 10
83.9064504851
 20
141.3131353054
 11
124.1179041643
 21
141.3131353054
  0
LINE
  5
243
100
AcDbEntity
  8
0
100
AcDbLine
 62
7
  6
BYLAYER
 10
124.2197440658
 20
141.8649116806
 11
83.8046105837
 21
141.8649116805
  0
LINE
  5
244
100
AcDbEntity
  8
0
100
AcDbLine
 62
7
  6
BYLAYER
 10
84.2308708511
 20
144.3635715466
 11
90.1121773247
 21
144.3635715466
  0
LINE
  5
245
100
AcDbEntity
  8
0
100
AcDbLine
 62
7
  6
BYLAYER
 10
90.5121773247
 20
144.3635715466
 11
123.7934838476
 21
144.3635715466
  0
LINE
  5
246
100
AcDbEntity
  8
0
100
AcDbLine
 62
7
  6
BYLAYER
 10
120.7121773247
 20
145.4131353053
 11
90.5121773247
 21
145.4131353053
  0
LINE
  5
247
100
AcDbEntity
  8
0
100
AcDbLine
 62
7
  6
BYLAYER
 10
90.1121773247
 20
145.6131353053
 11
120.7121773247
 21
145.6131353053
  0
LINE
  5
248
100
AcDbEntity
  8
0
100
AcDbLine
 62
7
  6
BYLAYER
 10
93.2296139297
 20
167.0612067714
 11
94.1880640093
 21
165.3058226411
  0
LINE
  5
249
100
AcDbEntity
  8
0
100
AcDbLine
 62
7
  6
BYLAYER
 10
114.7947409693
 20
127.5650639753
 11
113.8362908675
 21
129.3204480936
  0
LINE
  5
24A
100
AcDbEntity
  8
0
100
AcDbLine
 62
7
  6
BYLAYER
 10
126.1912860552
 20
151.0995763682
 11
126.1898894299
 21
151.0987075002
  0
LINE
  5
24B
100
AcDbEntity
  8
0
100
AcDbLine
 62
7
  6
BYLAYER
 10
120.7121773247
 20
149.0131353053
 11
90.1121773247
 21
149.0131353053
  0
LINE
  5
24C
100
AcDbEntity
  8
0
100
AcDbLine
 62
7
  6
BYLAYER
 10
90.5121773247
 20
149.2131353053
 11
120.7121773247
 21
149.2131353053
  0
LINE
  5
24D
100
AcDbEntity
  8
0
100
AcDbLine
 62
7
  6
BYLAYER
 10
123.7934847212
 20
150.2626990639
 11
90.5121773247
 21
150.2626990639
  0
LINE
  5
24E
100
AcDbEntity
  8
0
100
AcDbLine
 62
7
  6
BYLAYER
 10
90.1121773247
 20
150.2626990639
 11
84.2308708019
 21
150.2626990639
  0
LINE
  5
24F
100
AcDbEntity
  8
0
100
AcDbLine
 62
7
  6
BYLAYER
 10
83.8046105837
 20
152.7613589299
 11
124.2197440658
 21
152.7613589301
  0
LINE
  5
250
100
AcDbEntity
  8
0
100
AcDbLine
 62
7
  6
BYLAYER
 10
124.1179041643
 20
153.3131353053
 11
83.9064504851
 21
153.3131353052
  0
LINE
  5
251
100
AcDbEntity
  8
0
100
AcDbLine
 62
7
  6
BYLAYER
 10
126.1898893888
 20
143.5275630259
 11
126.1912860536
 21
143.526694233
  0
LINE
  5
252
100
AcDbEntity
  8
0
100
AcDbLine
 62
7
  6
BYLAYER
 10
30.1205440506
 20
58.9215020309
 11
34.777609996
 21
63.5785679766
  0
LINE
  5
253
100
AcDbEntity
  8
0
100
AcDbLine
 62
7
  6
BYLAYER
 10
94.1880687517
 20
165.3058252305
 11
113.8362858994
 21
165.3058252296
  0
LINE
  5
254
100
AcDbEntity
  8
0
100
AcDbLine
 62
7
  6
BYLAYER
 10
29.7278290388
 20
235.29037681
 11
41.0194188295
 21
223.9987870194
  0
LINE
  5
255
100
AcDbEntity
  8
0
100
AcDbLine
 62
7
  6
BYLAYER
 10
41.7265256107
 20
224.7058938006
 11
30.43493582
 21
235.9974835912
  0
LINE
  5
256
100
AcDbEntity
  8
0
100
AcDbLine
 62
7
  6
BYLAYER
 10
124.2197440658
 20
152.761353446
 11
123.7935053558
 21
150.2627025495
  0
LINE
  5
257
100
AcDbEntity
  8
0
100
AcDbLine
 62
7
  6
BYLAYER
 10
124.2197440658
 20
141.8649116806
 11
124.1179041643
 21
141.3131353054
  0
LINE
  5
258
100
AcDbEntity
  8
0
100
AcDbLine
 62
7
  6
BYLAYER
 10
124.1179041643
 20
153.3131353053
 11
124.2197440658
 21
152.7613589301
  0
LINE
  5
259
100
AcDbEntity
  8
0
100
AcDbLine
 62
7
  6
BYLAYER
 10
123.7934956971
 20
144.3635715466
 11
124.2195951474
 21
141.864917191
  0
LINE
  5
25A
100
AcDbEntity
  8
0
100
AcDbLine
 62
7
  6
BYLAYER
 10
130.5121773247
 20
117.3131353053
 11
130.5121773247
 21
118.3131353053
  0
LINE
  5
25B
100
AcDbEntity
  8
0
100
AcDbLine
 62
7
  6
BYLAYER
 10
130.5121773247
 20
176.3131353053
 11
130.5121773247
 21
177.3131353053
  0
LINE
  5
25C
100
AcDbEntity
  8
0
100
AcDbLine
 62
7
  6
BYLAYER
 10
133.0121773247
 20
120.8131353053
 11
133.0121773247
 21
173.8131353053
  0
LINE
  5
25D
100
AcDbEntity
  8
0
100
AcDbLine
 62
7
  6
BYLAYER
 10
134.0121773247
 20
173.8131353174
 11
134.0121773247
 21
120.8131353164
  0
LINE
  5
25E
100
AcDbEntity
  8
0
100
AcDbLine
 62
7
  6
BYLAYER
 10
134.0121773247
 20
173.8131353053
 11
133.0121773247
 21
173.8131353053
  0
LINE
  5
25F
100
AcDbEntity
  8
0
100
AcDbLine
 62
7
  6
BYLAYER
 10
75.0121773247
 20
173.8131353053
 11
74.0121773247
 21
173.8131353053
  0
LINE
  5
260
100
AcDbEntity
  8
0
100
AcDbLine
 62
7
  6
BYLAYER
 10
130.5121773247
 20
176.3131353053
 11
77.5121773247
 21
176.3131353053
  0
LINE
  5
261
100
AcDbEntity
  8
0
100
AcDbLine
 62
7
  6
BYLAYER
 10
77.5121773126
 20
177.3131353053
 11
130.5121773136
 21
177.3131353053
  0
LINE
  5
262
100
AcDbEntity
  8
0
100
AcDbLine
 62
7
  6
BYLAYER
 10
173.0819178128
 20
241.2131146679
 11
172.6219782778
 21
238.2417391248
  0
LINE
  5
263
100
AcDbEntity
  8
0
100
AcDbLine
 62
7
  6
BYLAYER
 10
172.6219945259
 20
56.3845295737
 11
173.0819595521
 21
53.4129525424
  0
LINE
  5
264
100
AcDbEntity
  8
0
100
AcDbLine
 62
7
  6
BYLAYER
 10
173.2467446535
 20
64.3856747577
 11
173.2467446535
 21
72.5715805206
  0
LINE
  5
265
100
AcDbEntity
  8
0
100
AcDbLine
 62
7
  6
BYLAYER
 10
173.2467446535
 20
72.8233059495
 11
173.2467446535
 21
221.802964661
  0
LINE
  5
266
100
AcDbEntity
  8
0
100
AcDbLine
 62
7
  6
BYLAYER
 10
173.2467446535
 20
222.05469009
 11
173.2467446535
 21
228.3414611953
  0
LINE
  5
267
100
AcDbEntity
  8
0
100
AcDbLine
 62
7
  6
BYLAYER
 10
173.2467446535
 20
229.7556747577
 11
173.2467446535
 21
231.047702634
  0
LINE
  5
268
100
AcDbEntity
  8
0
100
AcDbLine
 62
7
  6
BYLAYER
 10
180.5354689537
 20
230.4375550164
 11
183.4121600897
 21
230.8828445912
  0
LINE
  5
269
100
AcDbEntity
  8
0
100
AcDbLine
 62
7
  6
BYLAYER
 10
24.612356176
 20
230.88284067
 11
27.4888872824
 21
230.4375760226
  0
LINE
  5
26A
100
AcDbEntity
  8
0
100
AcDbLine
 62
7
  6
BYLAYER
 10
186.0121773247
 20
63.3369928287
 11
186.0121773247
 21
231.2892736702
  0
LINE
  5
26B
100
AcDbEntity
  8
0
100
AcDbLine
 62
7
  6
BYLAYER
 10
173.2467446535
 20
231.047702634
 11
171.9547167772
 21
231.047702634
  0
LINE
  5
26C
100
AcDbEntity
  8
0
100
AcDbLine
 62
7
  6
BYLAYER
 10
170.5405032148
 20
231.047702634
 11
164.3663256415
 21
231.047702634
  0
LINE
  5
26D
100
AcDbEntity
  8
0
100
AcDbLine
 62
7
  6
BYLAYER
 10
164.1142127994
 20
231.047702634
 11
43.9101418501
 21
231.047702634
  0
LINE
  5
26E
100
AcDbEntity
  8
0
100
AcDbLine
 62
7
  6
BYLAYER
 10
43.658029008
 20
231.047702634
 11
35.3847167772
 21
231.047702634
  0
LINE
  5
26F
100
AcDbEntity
  8
0
100
AcDbLine
 62
7
  6
BYLAYER
 10
173.4888698231
 20
243.8131353053
 11
34.535396188
 21
243.8131353053
  0
LINE
  5
270
100
AcDbEntity
  8
0
100
AcDbLine
 62
7
  6
BYLAYER
 10
166.2978290388
 20
235.29037681
 11
177.5894188294
 21
223.9987870194
  0
LINE
  5
271
100
AcDbEntity
  8
0
100
AcDbLine
 62
7
  6
BYLAYER
 10
167.00493582
 20
235.9974835912
 11
178.2965256107
 21
224.7058938006
  0
ARC
  5
272
100
AcDbEntity
  8
0
100
AcDbCircle
 62
7
  6
BYLAYER
 10
34.5321773247
 20
63.3331353053
 40
12.52
100
AcDbArc
 50
179.9826063104
 51
270.0153486015
  0
CIRCLE
  5
273
100
AcDbEntity
  8
0
100
AcDbCircle
 62
7
  6
BYLAYER
 10
35.7271773247
 20
64.6281353053
 40
8.25
  0
ARC
  5
274
100
AcDbEntity
  8
0
100
AcDbCircle
 62
7
  6
BYLAYER
 10
35.7271773247
 20
64.6281353053
 40
8.0
100
AcDbArc
 50
138.5833216984
 51
311.4166783016
  0
ARC
  5
275
100
AcDbEntity
  8
0
100
AcDbCircle
 62
7
  6
BYLAYER
 10
35.7271773247
 20
64.6281353053
 40
8.0
100
AcDbArc
 50
318.5833216985
 51
131.4166783015
  0
ARC
  5
276
100
AcDbEntity
  8
0
100
AcDbCircle
 62
7
  6
BYLAYER
 10
77.5121773247
 20
120.8131353053
 40
3.5
100
AcDbArc
 50
180.0000000995
 51
270.0
  0
ARC
  5
277
100
AcDbEntity
  8
0
100
AcDbCircle
 62
7
  6
BYLAYER
 10
77.5121773247
 20
120.8131353053
 40
2.5
100
AcDbArc
 50
180.0
 51
270.0
  0
ARC
  5
278
100
AcDbEntity
  8
0
100
AcDbCircle
 62
7
  6
BYLAYER
 10
83.9054040122
 20
143.3122296117
 40
1.9990646627
100
AcDbArc
 50
191.2699634681
 51
270.0299907592
  0
ARC
  5
279
100
AcDbEntity
  8
0
100
AcDbCircle
 62
7
  6
BYLAYER
 10
83.8021739764
 20
143.8630129789
 40
1.9978357948
100
AcDbArc
 50
189.6924625296
 51
270.0698772661
  0
ARC
  5
27A
100
AcDbEntity
  8
0
100
AcDbCircle
 62
7
  6
BYLAYER
 10
88.8121773247
 20
145.5398988313
 40
0.5
100
AcDbArc
 50
242.0
 51
360.0
  0
ARC
  5
27B
100
AcDbEntity
  8
0
100
AcDbCircle
 62
7
  6
BYLAYER
 10
85.4789221963
 20
147.3122220212
 40
0.5
100
AcDbArc
 50
117.9018934881
 51
241.9999999995
  0
ARC
  5
27C
100
AcDbEntity
  8
0
100
AcDbCircle
 62
7
  6
BYLAYER
 10
34.5321773247
 20
231.2931353053
 40
12.52
100
AcDbArc
 50
89.9852695438
 51
180.0174770914
  0
CIRCLE
  5
27D
100
AcDbEntity
  8
0
100
AcDbCircle
 62
7
  6
BYLAYER
 10
35.7271773247
 20
229.9981353053
 40
8.25
  0
ARC
  5
27E
100
AcDbEntity
  8
0
100
AcDbCircle
 62
7
  6
BYLAYER
 10
35.7271773247
 20
229.9981353053
 40
8.0
100
AcDbArc
 50
318.5833216985
 51
131.4166783016
  0
ARC
  5
27F
100
AcDbEntity
  8
0
100
AcDbCircle
 62
7
  6
BYLAYER
 10
35.7271773247
 20
229.9981353053
 40
8.0
100
AcDbArc
 50
138.5833216985
 51
311.4166783015
  0
ARC
  5
280
100
AcDbEntity
  8
0
100
AcDbCircle
 62
7
  6
BYLAYER
 10
77.5121773247
 20
173.8131353053
 40
3.5
100
AcDbArc
 50
90.0000000995
 51
180.0
  0
ARC
  5
281
100
AcDbEntity
  8
0
100
AcDbCircle
 62
7
  6
BYLAYER
 10
77.5121773247
 20
173.8131353053
 40
2.5
100
AcDbArc
 50
90.0
 51
180.0
  0
ARC
  5
282
100
AcDbEntity
  8
0
100
AcDbCircle
 62
7
  6
BYLAYER
 10
83.9054040111
 20
151.3140409834
 40
1.9990646646
100
AcDbArc
 50
89.9700092876
 51
168.7300365545
  0
ARC
  5
283
100
AcDbEntity
  8
0
100
AcDbCircle
 62
7
  6
BYLAYER
 10
83.8021690978
 20
150.7632678748
 40
1.9978279927
100
AcDbArc
 50
89.9299824619
 51
170.2169891043
  0
ARC
  5
284
100
AcDbEntity
  8
0
100
AcDbCircle
 62
7
  6
BYLAYER
 10
88.8121773247
 20
149.0772308043
 40
0.5
100
AcDbArc
 50
0.0
 51
117.9018934882
  0
ARC
  5
285
100
AcDbEntity
  8
0
100
AcDbCircle
 62
7
  6
BYLAYER
 10
173.4921773247
 20
63.3331353053
 40
12.52
100
AcDbArc
 50
269.9855487305
 51
0.0176531739
  0
CIRCLE
  5
286
100
AcDbEntity
  8
0
100
AcDbCircle
 62
7
  6
BYLAYER
 10
172.2971773247
 20
64.6281353053
 40
8.25
  0
ARC
  5
287
100
AcDbEntity
  8
0
100
AcDbCircle
 62
7
  6
BYLAYER
 10
172.2971773247
 20
64.6281353053
 40
8.0
100
AcDbArc
 50
318.5833216985
 51
131.4166783015
  0
ARC
  5
288
100
AcDbEntity
  8
0
100
AcDbCircle
 62
7
  6
BYLAYER
 10
172.2971773247
 20
64.6281353053
 40
8.0
100
AcDbArc
 50
138.5833216985
 51
311.4166783015
  0
ARC
  5
289
100
AcDbEntity
  8
0
100
AcDbCircle
 62
7
  6
BYLAYER
 10
130.5121773247
 20
120.8131353053
 40
3.5
100
AcDbArc
 50
270.0000000995
 51
360.0
  0
ARC
  5
28A
100
AcDbEntity
  8
0
100
AcDbCircle
 62
7
  6
BYLAYER
 10
130.5121773247
 20
120.8131353053
 40
2.5
100
AcDbArc
 50
270.0
 51
360.0
  0
ARC
  5
28B
100
AcDbEntity
  8
0
100
AcDbCircle
 62
7
  6
BYLAYER
 10
124.1189509356
 20
143.3122292843
 40
1.9990646645
100
AcDbArc
 50
269.9700007649
 51
348.7300445274
  0
ARC
  5
28C
100
AcDbEntity
  8
0
100
AcDbCircle
 62
7
  6
BYLAYER
 10
124.2221209957
 20
143.8630796669
 40
1.997918204
100
AcDbArc
 50
269.9318365079
 51
350.216989068
  0
CIRCLE
  5
28D
100
AcDbEntity
  8
0
100
AcDbCircle
 62
7
  6
BYLAYER
 10
104.0121773247
 20
147.3131353053
 40
22.5
  0
ARC
  5
28E
100
AcDbEntity
  8
0
100
AcDbCircle
 62
7
  6
BYLAYER
 10
104.0121773247
 20
147.3131353053
 40
20.5
100
AcDbArc
 50
241.3652147367
 51
298.6347852647
  0
ARC
  5
28F
100
AcDbEntity
  8
0
100
AcDbCircle
 62
7
  6
BYLAYER
 10
104.0121773247
 20
147.3131353053
 40
20.5
100
AcDbArc
 50
61.3652147292
 51
118.6347852656
  0
ARC
  5
290
100
AcDbEntity
  8
0
100
AcDbCircle
 62
7
  6
BYLAYER
 10
104.0121773247
 20
147.3131353053
 40
20.0
100
AcDbArc
 50
351.5191881308
 51
8.4808115001
  0
ARC
  5
291
100
AcDbEntity
  8
0
100
AcDbCircle
 62
7
  6
BYLAYER
 10
104.0121773247
 20
147.3131353053
 40
20.0
100
AcDbArc
 50
171.5191881308
 51
188.48081189
  0
ARC
  5
292
100
AcDbEntity
  8
0
100
AcDbCircle
 62
7
  6
BYLAYER
 10
130.5121773247
 20
173.8131353053
 40
3.5
100
AcDbArc
 50
0.0000000995
 51
90.0
  0
ARC
  5
293
100
AcDbEntity
  8
0
100
AcDbCircle
 62
7
  6
BYLAYER
 10
130.5121773247
 20
173.8131353053
 40
2.5
100
AcDbArc
 50
0.0
 51
90.0
  0
ARC
  5
294
100
AcDbEntity
  8
0
100
AcDbCircle
 62
7
  6
BYLAYER
 10
124.1189509513
 20
151.3140413799
 40
1.9990646647
100
AcDbArc
 50
11.2699541182
 51
90.0299996987
  0
ARC
  5
295
100
AcDbEntity
  8
0
100
AcDbCircle
 62
7
  6
BYLAYER
 10
124.2221806732
 20
150.7632576318
 40
1.9978357947
100
AcDbArc
 50
9.6924625265
 51
90.0698772699
  0
ARC
  5
296
100
AcDbEntity
  8
0
100
AcDbCircle
 62
7
  6
BYLAYER
 10
120.7121773247
 20
147.3131353053
 40
1.9
100
AcDbArc
 50
270.0
 51
90.0
  0
ARC
  5
297
100
AcDbEntity
  8
0
100
AcDbCircle
 62
7
  6
BYLAYER
 10
120.7121773247
 20
147.3131353053
 40
1.7
100
AcDbArc
 50
270.0
 51
90.0
  0
ARC
  5
298
100
AcDbEntity
  8
0
100
AcDbCircle
 62
7
  6
BYLAYER
 10
173.4921773247
 20
231.2931353053
 40
12.52
100
AcDbArc
 50
359.982328
 51
90.0151360749
  0
CIRCLE
  5
299
100
AcDbEntity
  8
0
100
AcDbCircle
 62
7
  6
BYLAYER
 10
172.2971773247
 20
229.9981353053
 40
8.25
  0
ARC
  5
29A
100
AcDbEntity
  8
0
100
AcDbCircle
 62
7
  6
BYLAYER
 10
172.2971773247
 20
229.9981353053
 40
8.0
100
AcDbArc
 50
318.5833216985
 51
131.4166783015
  0
ARC
  5
29B
100
AcDbEntity
  8
0
100
AcDbCircle
 62
7
  6
BYLAYER
 10
172.2971773247
 20
229.9981353053
 40
8.0
100
AcDbArc
 50
138.5833216986
 51
311.4166783014
  0
SPLINE
  5
29C
100
AcDbEntity
  8
0
100
AcDbSpline
 62
7
  6
BYLAYER
 70
0
 71
3
 72
9
 73
5
 74
0
 42
0.0000001
 43
0.0000001
 44
0.0000000001
 40
0.0
 40
0.0
 40
0.0
 40
0.0
 40
0.4865284311
 40
1.0
 40
1.0
 40
1.0
 40
1.0
 10
22.012056992
 20
63.3369356367
 30
0.0
 10
22.4338450201
 20
63.4024737299
 30
0.0
 10
23.2999865136
 20
63.542238803
 30
0.0
 10
24.1672667856
 20
63.6747296723
 30
0.0
 10
24.6124834954
 20
63.7434402157
 30
0.0
  0
SPLINE
  5
29D
100
AcDbEntity
  8
0
100
AcDbSpline
 62
7
  6
BYLAYER
 70
0
 71
3
 72
9
 73
5
 74
0
 42
0.0000001
 43
0.0000001
 44
0.0000000001
 40
0.0
 40
0.0
 40
0.0
 40
0.0
 40
0.5134646934
 40
1.0
 40
1.0
 40
1.0
 40
1.0
 10
183.4123546244
 20
63.7433540335
 30
0.0
 10
183.8575129425
 20
63.674859143
 30
0.0
 10
184.7246587383
 20
63.5425725475
 30
0.0
 10
185.5905826236
 20
63.4024840265
 30
0.0
 10
186.0123030994
 20
63.3369935285
 30
0.0
  0
SPLINE
  5
29E
100
AcDbEntity
  8
0
100
AcDbSpline
 62
7
  6
BYLAYER
 70
0
 71
3
 72
11
 73
7
 74
0
 42
0.0000001
 43
0.0000001
 44
0.0000000001
 40
0.0
 40
0.0
 40
0.0
 40
0.0
 40
0.2434785118
 40
0.5000000143
 40
0.7565215079
 40
1.0
 40
1.0
 40
1.0
 40
1.0
 10
183.4124872641
 20
63.7433531081
 30
0.0
 10
182.7267019434
 20
62.7697490494
 30
0.0
 10
181.2235757923
 20
60.8359857195
 30
0.0
 10
178.71361722
 20
58.1117107871
 30
0.0
 10
175.9893435533
 20
55.6017509858
 30
0.0
 10
174.055581132
 20
54.098623906
 30
0.0
 10
173.0819775553
 20
53.4128380686
 30
0.0
  0
SPLINE
  5
29F
100
AcDbEntity
  8
0
100
AcDbSpline
 62
7
  6
BYLAYER
 70
0
 71
3
 72
9
 73
5
 74
0
 42
0.0000001
 43
0.0000001
 44
0.0000000001
 40
0.0
 40
0.0
 40
0.0
 40
0.0
 40
0.4865380228
 40
1.0
 40
1.0
 40
1.0
 40
1.0
 10
34.5355279837
 20
50.8129626431
 30
0.0
 10
34.6006993283
 20
51.2348361515
 30
0.0
 10
34.7417835679
 20
52.1008106716
 30
0.0
 10
34.8746057964
 20
52.9680840202
 30
0.0
 10
34.9424803958
 20
53.4134416768
 30
0.0
  0
SPLINE
  5
2A0
100
AcDbEntity
  8
0
100
AcDbSpline
 62
7
  6
BYLAYER
 70
0
 71
3
 72
12
 73
8
 74
0
 42
0.0000001
 43
0.0000001
 44
0.0000000001
 40
0.0
 40
0.0
 40
0.0
 40
0.0
 40
0.1788953095
 40
0.3538032008
 40
0.6746390207
 40
0.9078301671
 40
1.0
 40
1.0
 40
1.0
 40
1.0
 10
94.1880804388
 20
129.3204703497
 30
0.0
 10
93.3068600871
 20
129.7329018575
 30
0.0
 10
91.6172326063
 20
130.669553501
 30
0.0
 10
88.6759643984
 20
132.8777232431
 30
0.0
 10
86.0363035296
 20
135.9198957255
 30
0.0
 10
84.5042250508
 20
139.120115398
 30
0.0
 10
84.019938517
 20
140.8248598068
 30
0.0
 10
83.9064781066
 20
141.3131353134
 30
0.0
  0
SPLINE
  5
2A1
100
AcDbEntity
  8
0
100
AcDbSpline
 62
7
  6
BYLAYER
 70
0
 71
3
 72
12
 73
8
 74
0
 42
0.0000001
 43
0.0000001
 44
0.0000000001
 40
0.0
 40
0.0
 40
0.0
 40
0.0
 40
0.0920323315
 40
0.3251034465
 40
0.6459819595
 40
0.8209937676
 40
1.0
 40
1.0
 40
1.0
 40
1.0
 10
124.1179164852
 20
141.3131353019
 30
0.0
 10
124.0047227562
 20
140.8255632621
 30
0.0
 10
123.5206599628
 20
139.1222036345
 30
0.0
 10
121.9900983166
 20
135.9226549922
 30
0.0
 10
119.3509296394
 20
132.8796800479
 30
0.0
 10
116.4086517988
 20
130.6704856075
 30
0.0
 10
114.7180540912
 20
129.7331399305
 30
0.0
 10
113.8362911102
 20
129.320434242
 30
0.0
  0
SPLINE
  5
2A2
100
AcDbEntity
  8
0
100
AcDbSpline
 62
7
  6
BYLAYER
 70
0
 71
3
 72
11
 73
7
 74
0
 42
0.0000001
 43
0.0000001
 44
0.0000000001
 40
0.0
 40
0.0
 40
0.0
 40
0.0
 40
0.2469129673
 40
0.5046782075
 40
0.7599214482
 40
1.0
 40
1.0
 40
1.0
 40
1.0
 10
24.612484559
 20
63.743429668
 30
0.0
 10
25.3079271742
 20
62.7561574197
 30
0.0
 10
26.826397558
 20
60.8053283889
 30
0.0
 10
29.351106196
 20
58.0722484203
 30
0.0
 10
32.0660986489
 20
55.57735239
 30
0.0
 10
33.9825265941
 20
54.0896356843
 30
0.0
 10
34.9424716881
 20
53.4134425393
 30
0.0
  0
SPLINE
  5
2A3
100
AcDbEntity
  8
0
100
AcDbSpline
 62
7
  6
BYLAYER
 70
0
 71
3
 72
9
 73
5
 74
0
 42
0.0000001
 43
0.0000001
 44
0.0000000001
 40
0.0
 40
0.0
 40
0.0
 40
0.0
 40
0.5134412954
 40
1.0
 40
1.0
 40
1.0
 40
1.0
 10
173.0819595521
 20
53.4129525424
 30
0.0
 10
173.1492757141
 20
52.9676086889
 30
0.0
 10
173.2815807822
 20
52.1004078288
 30
0.0
 10
173.4233164324
 20
51.2346964966
 30
0.0
 10
173.4890161632
 20
50.8129626431
 30
0.0
  0
SPLINE
  5
2A4
100
AcDbEntity
  8
0
100
AcDbSpline
 62
7
  6
BYLAYER
 70
0
 71
3
 72
16
 73
12
 74
0
 42
0.0000001
 43
0.0000001
 44
0.0000000001
 40
0.0
 40
0.0
 40
0.0
 40
0.0
 40
0.0081365487
 40
0.0254818187
 40
0.0518885839
 40
0.0871435357
 40
0.1825915759
 40
0.3079314899
 40
0.4581530793
 40
0.6276459491
 40
1.0
 40
1.0
 40
1.0
 40
1.0
 10
126.1898893888
 20
143.5275630259
 30
0.0
 10
126.1838786041
 20
143.5309185783
 30
0.0
 10
126.1632438789
 20
143.5376972352
 30
0.0
 10
126.1222270587
 20
143.5530228157
 30
0.0
 10
126.059119033
 20
143.5752395822
 30
0.0
 10
125.9343394328
 20
143.6209620244
 30
0.0
 10
125.7307267741
 20
143.6949809614
 30
0.0
 10
125.435214957
 20
143.8008008715
 30
0.0
 10
125.0801307631
 20
143.9261073409
 30
0.0
 10
124.5272404254
 20
144.1188781441
 30
0.0
 10
124.0924885737
 20
144.2643685183
 30
0.0
 10
123.7934840571
 20
144.3635753447
 30
0.0
  0
SPLINE
  5
2A5
100
AcDbEntity
  8
0
100
AcDbSpline
 62
7
  6
BYLAYER
 70
0
 71
3
 72
14
 73
10
 74
0
 42
0.0000001
 43
0.0000001
 44
0.0000000001
 40
0.0
 40
0.0
 40
0.0
 40
0.0
 40
0.0254728845
 40
0.0870770636
 40
0.18240091
 40
0.3076981426
 40
0.4579317158
 40
0.6275535406
 40
1.0
 40
1.0
 40
1.0
 40
1.0
 10
126.1898894299
 20
151.0987075002
 30
0.0
 10
126.1707951486
 20
151.0887137553
 30
0.0
 10
126.0997819306
 20
151.0672621219
 30
0.0
 10
125.9561913285
 20
151.0115373069
 30
0.0
 10
125.7309382424
 20
150.9317748858
 30
0.0
 10
125.4356397865
 20
150.825937637
 30
0.0
 10
125.0804784246
 20
150.7005378017
 30
0.0
 10
124.5277388207
 20
150.5067560832
 30
0.0
 10
124.0923661288
 20
150.3625107819
 30
0.0
 10
123.7934854354
 20
150.2626860218
 30
0.0
  0
SPLINE
  5
2A6
100
AcDbEntity
  8
0
100
AcDbSpline
 62
7
  6
BYLAYER
 70
0
 71
3
 72
9
 73
5
 74
0
 42
0.0000001
 43
0.0000001
 44
0.0000000001
 40
0.0
 40
0.0
 40
0.0
 40
0.0
 40
0.5134678934
 40
1.0
 40
1.0
 40
1.0
 40
1.0
 10
24.6123582505
 20
230.8828596972
 30
0.0
 10
24.1671478223
 20
230.9514429072
 30
0.0
 10
23.2998924845
 20
231.0838117797
 30
0.0
 10
22.4338331552
 20
231.2238184891
 30
0.0
 10
22.012056992
 20
231.2893157718
 30
0.0
  0
SPLINE
  5
2A7
100
AcDbEntity
  8
0
100
AcDbSpline
 62
7
  6
BYLAYER
 70
0
 71
3
 72
9
 73
5
 74
0
 42
0.0000001
 43
0.0000001
 44
0.0000000001
 40
0.0
 40
0.0
 40
0.0
 40
0.0
 40
0.4865419336
 40
1.0
 40
1.0
 40
1.0
 40
1.0
 10
173.4888705831
 20
243.8133000576
 30
0.0
 10
173.4235884053
 20
243.3914877287
 30
0.0
 10
173.2824320289
 20
242.5256229864
 30
0.0
 10
173.149743784
 20
241.6584261368
 30
0.0
 10
173.0819178128
 20
241.2131146679
 30
0.0
  0
SPLINE
  5
2A8
100
AcDbEntity
  8
0
100
AcDbSpline
 62
7
  6
BYLAYER
 70
0
 71
3
 72
11
 73
7
 74
0
 42
0.0000001
 43
0.0000001
 44
0.0000000001
 40
0.0
 40
0.0
 40
0.0
 40
0.0
 40
0.2434788537
 40
0.5000000134
 40
0.7565211648
 40
1.0
 40
1.0
 40
1.0
 40
1.0
 10
24.6122220675
 20
230.8828614289
 30
0.0
 10
25.2979993031
 20
231.8564303189
 30
0.0
 10
26.8010965844
 20
233.7901240729
 30
0.0
 10
29.3109869267
 20
236.5143105058
 30
0.0
 10
32.0351721122
 20
239.0242020658
 30
0.0
 10
33.9688649737
 20
240.5273002687
 30
0.0
 10
34.9424333915
 20
241.2130780172
 30
0.0
  0
SPLINE
  5
2A9
100
AcDbEntity
  8
0
100
AcDbSpline
 62
7
  6
BYLAYER
 70
0
 71
3
 72
12
 73
8
 74
0
 42
0.0000001
 43
0.0000001
 44
0.0000000001
 40
0.0
 40
0.0
 40
0.0
 40
0.0
 40
0.1790580963
 40
0.3540551443
 40
0.6748314028
 40
0.9078749714
 40
1.0
 40
1.0
 40
1.0
 40
1.0
 10
113.8362868553
 20
165.3058272744
 30
0.0
 10
114.7183185749
 20
164.893027002
 30
0.0
 10
116.409122078
 20
163.955605611
 30
0.0
 10
119.3509393152
 20
161.7463807631
 30
0.0
 10
121.9896724851
 20
158.7041583255
 30
0.0
 10
123.5203795416
 20
155.5048889571
 30
0.0
 10
124.0045712191
 20
153.8011928116
 30
0.0
 10
124.1179064258
 20
153.3131353059
 30
0.0
  0
SPLINE
  5
2AA
100
AcDbEntity
  8
0
100
AcDbSpline
 62
7
  6
BYLAYER
 70
0
 71
3
 72
12
 73
8
 74
0
 42
0.0000001
 43
0.0000001
 44
0.0000000001
 40
0.0
 40
0.0
 40
0.0
 40
0.0
 40
0.0920405992
 40
0.3251352202
 40
0.6460132401
 40
0.821008422
 40
1.0
 40
1.0
 40
1.0
 40
1.0
 10
83.9064358691
 20
153.3131353093
 30
0.0
 10
84.0196398602
 20
153.800750385
 30
0.0
 10
84.5037467253
 20
155.5042759897
 30
0.0
 10
86.0345322756
 20
158.7039162543
 30
0.0
 10
88.6738007611
 20
161.7468130469
 30
0.0
 10
91.6159100145
 20
163.9559336186
 30
0.0
 10
93.3063685113
 20
164.8931768297
 30
0.0
 10
94.1880625671
 20
165.305838443
 30
0.0
  0
SPLINE
  5
2AB
100
AcDbEntity
  8
0
100
AcDbSpline
 62
7
  6
BYLAYER
 70
0
 71
3
 72
16
 73
12
 74
0
 42
0.0000001
 43
0.0000001
 44
0.0000000001
 40
0.0
 40
0.0
 40
0.0
 40
0.0
 40
0.0081365482
 40
0.0254818179
 40
0.0518885828
 40
0.0871435344
 40
0.1825915744
 40
0.3079314884
 40
0.4581530779
 40
0.6276459481
 40
1.0
 40
1.0
 40
1.0
 40
1.0
 10
81.8344652602
 20
151.0987075839
 30
0.0
 10
81.8404760446
 20
151.0953520318
 30
0.0
 10
81.8611107692
 20
151.0885733754
 30
0.0
 10
81.9021275887
 20
151.0732477955
 30
0.0
 10
81.9652356137
 20
151.0510310294
 30
0.0
 10
82.0900152133
 20
151.0053085875
 30
0.0
 10
82.2936278717
 20
150.9312896505
 30
0.0
 10
82.5891396888
 20
150.8254697404
 30
0.0
 10
82.9442238831
 20
150.7001632707
 30
0.0
 10
83.4971142221
 20
150.507392467
 30
0.0
 10
83.931866075
 20
150.3619020925
 30
0.0
 10
84.2308705924
 20
150.2626952658
 30
0.0
  0
SPLINE
  5
2AC
100
AcDbEntity
  8
0
100
AcDbSpline
 62
7
  6
BYLAYER
 70
0
 71
3
 72
9
 73
5
 74
0
 42
0.0000001
 43
0.0000001
 44
0.0000000001
 40
0.0
 40
0.0
 40
0.0
 40
0.0
 40
0.5134510678
 40
1.0
 40
1.0
 40
1.0
 40
1.0
 10
34.9424525451
 20
241.2129562296
 30
0.0
 10
34.874897101
 20
241.6583327026
 30
0.0
 10
34.7423149417
 20
242.5256063115
 30
0.0
 10
34.6008565278
 20
243.3914804771
 30
0.0
 10
34.5353969501
 20
243.8133000576
 30
0.0
  0
SPLINE
  5
2AD
100
AcDbEntity
  8
0
100
AcDbSpline
 62
7
  6
BYLAYER
 70
0
 71
3
 72
9
 73
5
 74
0
 42
0.0000001
 43
0.0000001
 44
0.0000000001
 40
0.0
 40
0.0
 40
0.0
 40
0.0
 40
0.4865286202
 40
1.0
 40
1.0
 40
1.0
 40
1.0
 10
186.0123030994
 20
231.2892743689
 30
0.0
 10
185.5905638748
 20
231.2237307138
 30
0.0
 10
184.7245008851
 20
231.0840952664
 30
0.0
 10
183.8573247103
 20
230.9515712695
 30
0.0
 10
183.4121568843
 20
230.8828739899
 30
0.0
  0
SPLINE
  5
2AE
100
AcDbEntity
  8
0
100
AcDbSpline
 62
7
  6
BYLAYER
 70
0
 71
3
 72
11
 73
7
 74
0
 42
0.0000001
 43
0.0000001
 44
0.0000000001
 40
0.0
 40
0.0
 40
0.0
 40
0.0
 40
0.2469123026
 40
0.5046776862
 40
0.7599213435
 40
1.0
 40
1.0
 40
1.0
 40
1.0
 10
183.4121557876
 20
230.8828845139
 30
0.0
 10
182.7167075494
 20
231.8701841273
 30
0.0
 10
181.1982150575
 20
233.8210680974
 30
0.0
 10
178.673452181
 20
236.554218896
 30
0.0
 10
175.9583870181
 20
239.049171468
 30
0.0
 10
174.0419012376
 20
240.5369130406
 30
0.0
 10
173.0819265329
 20
241.2131137683
 30
0.0
  0
SPLINE
  5
2AF
100
AcDbEntity
  8
0
100
AcDbSpline
 62
7
  6
BYLAYER
 70
0
 71
3
 72
14
 73
10
 74
0
 42
0.0000001
 43
0.0000001
 44
0.0000000001
 40
0.0
 40
0.0
 40
0.0
 40
0.0
 40
0.0254728855
 40
0.0870770652
 40
0.1824009119
 40
0.3076981445
 40
0.4579317174
 40
0.6275535418
 40
1.0
 40
1.0
 40
1.0
 40
1.0
 10
81.8344652203
 20
143.5275631086
 30
0.0
 10
81.8535595017
 20
143.537556855
 30
0.0
 10
81.9245727214
 20
143.559008489
 30
0.0
 10
82.0681633243
 20
143.6147333055
 30
0.0
 10
82.2934164116
 20
143.694495726
 30
0.0
 10
82.5887148674
 20
143.8003329751
 30
0.0
 10
82.9438762287
 20
143.9257328102
 30
0.0
 10
83.4966158311
 20
144.1195145281
 30
0.0
 10
83.9319885217
 20
144.263759829
 30
0.0
 10
84.230869214
 20
144.3635845888
 30
0.0
  0
ENDSEC
  0
SECTION
  2
OBJECTS
  0
DICTIONARY
  5
C
100
AcDbDictionary
280
0
281
1
  3
ACAD_GROUP
350
D
  3
ACAD_MLINESTYLE
350
17
  3
ACAD_LAYOUT
350
1A
  3
ACAD_PLOTSETTINGS
350
19
  3
ACAD_PLOTSTYLENAME
350
E
  0
DICTIONARY
  5
D
102
{ACAD_REACTORS
330
C
102
}
100
AcDbDictionary
280
0
281
1
  0
ACDBDICTIONARYWDFLT
  5
E
102
{ACAD_REACTORS
330
C
102
}
100
AcDbDictionary
281
1
  3
Normal
350
F
100
AcDbDictionaryWithDefault
340
F
  0
DICTIONARY
  5
17
102
{ACAD_REACTORS
330
C
102
}
100
AcDbDictionary
280
0
281
1
  3
Standard
350
18
  0
DICTIONARY
  5
19
102
{ACAD_REACTORS
330
C
102
}
100
AcDbDictionary
281
1
  0
DICTIONARY
  5
1A
102
{ACAD_REACTORS
330
C
102
}
100
AcDbDictionary
281
1
  3
Model
350
2B0
  3
Layout1
350
2B1
  0
ACDBPLACEHOLDER
  5
F
102
{ACAD_REACTORS
330
E
102
}
  0
MLINESTYLE
  5
18
102
{ACAD_REACTORS
330
17
102
}
100
AcDbMlineStyle
  2
STANDARD
 70
0
  3

 62
256
 51
90.0
 52
90.0
 71
2
 49
0.5
 62
256
  6
BYLAYER
 49
-0.5
 62
256
  6
BYLAYER
  0
LAYOUT
  5
2B0
102
{ACAD_REACTORS
330
1A
102
}
100
AcDbPlotSettings
  1

  2
none_device
  4

  6

 40
0.0
 41
0.0
 42
0.0
 43
0.0
 44
210.0
 45
297.0
 46
0.0
 47
0.0
 48
0.0
 49
0.0
140
0.0
141
0.0
142
1.0
143
1.0
 70
1024
 72
1
 73
0
 74
0
  7

 75
0
147
1.0
148
0.0
149
0.0
100
AcDbLayout
  1
Model
 70
0
 71
0
 10
0.0
 20
0.0
 11
210.0
 21
297.0
 12
0.0
 22
0.0
 32
0.0
 14
0.0
 24
0.0
 34
0.0
 15
0.0
 25
0.0
 35
0.0
146
0.0
 13
0.0
 23
0.0
 33
0.0
 16
1.0
 26
0.0
 36
0.0
 17
0.0
 27
1.0
 37
0.0
 76
0
330
210
345
0
346
0
  0
LAYOUT
  5
2B1
102
{ACAD_REACTORS
330
1A
102
}
100
AcDbPlotSettings
  1

  2
none_device
  4

  6

 40
0.0
 41
0.0
 42
0.0
 43
0.0
 44
210.0
 45
297.0
 46
0.0
 47
0.0
 48
0.0
 49
0.0
140
0.0
141
0.0
142
1.0
143
1.0
 70
0
 72
1
 73
0
 74
0
  7

 75
0
147
1.0
148
0.0
149
0.0
100
AcDbLayout
  1
Layout1
 70
0
 71
1
 10
0.0
 20
0.0
 11
210.0
 21
297.0
 12
0.0
 22
0.0
 32
0.0
 14
0.0
 24
0.0
 34
0.0
 15
0.0
 25
0.0
 35
0.0
146
0.0
 13
0.0
 23
0.0
 33
0.0
 16
1.0
 26
0.0
 36
0.0
 17
0.0
 27
1.0
 37
0.0
 76
0
330
211
345
0
346
0
  0
ENDSEC
  0
EOF
