  0
SECTION
  2
HEADER
  9
$ACADVER
  1
AC1009
  9
$DWGCODEPAGE
  3
ansi_1250
  9
$INSBASE
 10
0.0
 20
0.0
 30
0.0
  9
$EXTMIN
 10
-0.2425
 20
-0.80893
 30
0.0
  9
$EXTMAX
 10
1.041
 20
0.80893
 30
0.0
  9
$LIMMIN
 10
0.0
 20
0.0
  9
$LIMMAX
 10
0.0
 20
0.0
  9
$ORTHOMODE
 70
     0
  9
$REGENMODE
 70
     1
  9
$FILLMODE
 70
     1
  9
$QTEXTMODE
 70
     0
  9
$MIRRTEXT
 70
     1
  9
$DRAGMODE
 70
     2
  9
$LTSCALE
 40
1.0
  9
$OSMODE
 70
     0
  9
$ATTMODE
 70
     1
  9
$TEXTSIZE
 40
0.2
  9
$TRACEWID
 40
0.05
  9
$TEXTSTYLE
  7
STANDARD
  9
$CLAYER
  8
0
  9
$CELTYPE
  6
CONTINUOUS
  9
$CECOLOR
 62
   256
  9
$DIMSCALE
 40
1.0
  9
$DIMASZ
 40
0.18
  9
$DIMEXO
 40
0.0625
  9
$DIMDLI
 40
0.38
  9
$DIMRND
 40
0.0
  9
$DIMDLE
 40
0.0
  9
$DIMEXE
 40
0.18
  9
$DIMTP
 40
0.0
  9
$DIMTM
 40
0.0
  9
$DIMTXT
 40
0.18
  9
$DIMCEN
 40
0.09
  9
$DIMTSZ
 40
0.0
  9
$DIMTOL
 70
     0
  9
$DIMLIM
 70
     0
  9
$DIMTIH
 70
     1
  9
$DIMTOH
 70
     1
  9
$DIMSE1
 70
     0
  9
$DIMSE2
 70
     0
  9
$DIMTAD
 70
     0
  9
$DIMZIN
 70
     0
  9
$DIMBLK
  1

  9
$DIMASO
 70
     1
  9
$DIMSHO
 70
     1
  9
$DIMPOST
  1

  9
$DIMAPOST
  1

  9
$DIMALT
 70
     0
  9
$DIMALTD
 70
     2
  9
$DIMALTF
 40
25.4
  9
$DIMLFAC
 40
1.0
  9
$DIMTOFL
 70
     0
  9
$DIMTVP
 40
0.0
  9
$DIMTIX
 70
     0
  9
$DIMSOXD
 70
     0
  9
$DIMSAH
 70
     0
  9
$DIMBLK1
  1

  9
$DIMBLK2
  1

  9
$DIMSTYLE
  2
STANDARD
  9
$DIMCLRD
 70
     0
  9
$DIMCLRE
 70
     0
  9
$DIMCLRT
 70
     0
  9
$DIMTFAC
 40
1.0
  9
$DIMGAP
 40
0.09
  9
$LUNITS
 70
     2
  9
$LUPREC
 70
     4
  9
$AXISMODE
 70
     0
  9
$AXISUNIT
 10
0.0
 20
0.0
  9
$SKETCHINC
 40
0.1
  9
$FILLETRAD
 40
0.0
  9
$AUNITS
 70
     0
  9
$AUPREC
 70
     0
  9
$MENU
  1
acad
  9
$ELEVATION
 40
0.0
  9
$PELEVATION
 40
0.0
  9
$THICKNESS
 40
0.0
  9
$LIMCHECK
 70
     0
  9
$BLIPMODE
 70
     1
  9
$CHAMFERA
 40
0.0
  9
$CHAMFERB
 40
0.0
  9
$SKPOLY
 70
     0
  9
$TDCREATE
 40
0.000000000
  9
$TDUPDATE
 40
0.000000000
  9
$TDINDWG
 40
0.0000000000
  9
$TDUSRTIMER
 40
0.0000000000
  9
$USRTIMER
 70
     1
  9
$ANGBASE
 50
0.0
  9
$ANGDIR
 70
     0
  9
$PDMODE
 70
     0
  9
$PDSIZE
 40
0.0
  9
$PLINEWID
 40
0.0
  9
$COORDS
 70
     0
  9
$SPLFRAME
 70
     0
  9
$SPLINETYPE
 70
     6
  9
$SPLINESEGS
 70
     8
  9
$ATTDIA
 70
     0
  9
$ATTREQ
 70
     1
  9
$HANDLING
 70
     1
  9
$HANDSEED
  5
627
  9
$SURFTAB1
 70
     6
  9
$SURFTAB2
 70
     6
  9
$SURFTYPE
 70
     6
  9
$SURFU
 70
     6
  9
$SURFV
 70
     6
  9
$UCSNAME
  2

  9
$UCSORG
 10
0.0
 20
0.0
 30
0.0
  9
$UCSXDIR
 10
1.0
 20
0.0
 30
0.0
  9
$UCSYDIR
 10
0.0
 20
1.0
 30
0.0
  9
$PUCSNAME
  2

  9
$PUCSORG
 10
0.0
 20
0.0
 30
0.0
  9
$PUCSXDIR
 10
1.0
 20
0.0
 30
0.0
  9
$PUCSYDIR
 10
0.0
 20
1.0
 30
0.0
  9
$USERI1
 70
     0
  9
$USERI2
 70
     0
  9
$USERI3
 70
     0
  9
$USERI4
 70
     0
  9
$USERI5
 70
     0
  9
$USERR1
 40
0.0
  9
$USERR2
 40
0.0
  9
$USERR3
 40
0.0
  9
$USERR4
 40
0.0
  9
$USERR5
 40
0.0
  9
$WORLDVIEW
 70
     1
  9
$SHADEDGE
 70
     3
  9
$SHADEDIF
 70
    70
  9
$TILEMODE
 70
     1
  9
$MAXACTVP
 70
    16
  9
$PINSBASE
 10
0.0
 20
0.0
 30
0.0
  9
$PLIMCHECK
 70
     0
  9
$PEXTMIN
 10
1.000000E+20
 20
1.000000E+20
 30
1.000000E+20
  9
$PEXTMAX
 10
-1.000000E+20
 20
-1.000000E+20
 30
-1.000000E+20
  9
$PLIMMIN
 10
0.0
 20
0.0
  9
$PLIMMAX
 10
12.0
 20
9.0
  9
$UNITMODE
 70
     0
  9
$VISRETAIN
 70
     0
  9
$PLINEGEN
 70
     1
  9
$PSLTSCALE
 70
     0
  9
$TREEDEPTH
 70
  3020
  0
ENDSEC
  0
SECTION
  2
TABLES
  0
TABLE
  2
VPORT
 70
     1
  0
VPORT
  2
*ACTIVE
 70
     0
 10
0.0
 20
0.0
 11
1.0
 21
1.0
 12
6.591288
 22
4.579184
 13
0.0
 23
0.0
 14
1.0
 24
1.0
 15
0.0
 25
0.0
 16
0.0
 26
0.0
 36
1.0
 17
0.0
 27
0.0
 37
0.0
 40
9.158369
 41
0.688564
 42
50.0
 43
0.0
 44
0.0
 50
0.0
 51
0.0
 71
     0
 72
   100
 73
     1
 74
     1
 75
     0
 76
     0
 77
     0
 78
     0
  0
ENDTAB
  0
TABLE
  2
LTYPE
 70
     5
  0
LTYPE
  2
CONTINUOUS
 70
    64
  3
Solid line
 72
    65
 73
     0
 40
0.0
  0
LTYPE
  2
CENTER
 70
    64
  3
Center ____ _ ____ _ ____ _ ____ _ ____ _ ____
 72
    65
 73
     4
 40
50.8
 49
31.75
 49
-6.35
 49
6.35
 49
-6.35
  0
LTYPE
  2
HIDDEN
 70
    64
  3
Hidden __ __ __ __ __ __ __ __ __ __ __ __ __ __
 72
    65
 73
     2
 40
9.525
 49
6.35
 49
-3.175
  0
LTYPE
  2
CENTER2
 70
    64
  3
Center (.5x) ___ _ ___ _ ___ _ ___ _ ___ _ ___
 72
    65
 73
     4
 40
28.575
 49
19.05
 49
-3.175
 49
3.175
 49
-3.175
  0
LTYPE
  2
HIDDEN2
 70
    64
  3
Hidden (.5x) _ _ _ _ _ _ _ _ _ _ _ _ _ _ _ _ _
 72
    65
 73
     2
 40
4.7625
 49
3.175
 49
-1.5875
  0
ENDTAB
  0
TABLE
  2
LAYER
 70
     1
  0
LAYER
  2
0
 70
     0
 62
     7
  6
CONTINUOUS
  0
ENDTAB
  0
TABLE
  2
STYLE
 70
     1
  0
STYLE
  2
STANDARD
 70
     0
 40
0.0
 41
1.0
 50
0.0
 71
     0
 42
0.0
  3
txt
  4

  0
ENDTAB
  0
TABLE
  2
VIEW
 70
     0
  0
ENDTAB
  0
TABLE
  2
UCS
 70
     0
  0
ENDTAB
  0
TABLE
  2
APPID
 70
     1
  0
APPID
  2
ACAD
 70
     0
  0
ENDTAB
  0
TABLE
  2
DIMSTYLE
 70
     1
  0
DIMSTYLE
  2
STANDARD
 70
     0
  3

  4

  5

  6

  7

 40
1.0
 41
0.18
 42
0.0625
 43
0.38
 44
0.18
 45
0.0
 46
0.0
 47
0.0
 48
0.0
 71
     0
 72
     0
 73
     1
 74
     1
 75
     0
 76
     0
 77
     0
 78
     0
140
0.18
141
0.09
142
0.0
143
25.4
144
1.0
145
0.0
146
1.0
147
0.09
170
     0
171
     2
172
     0
173
     0
174
     0
175
     0
176
     0
177
     0
178
     0
  0
ENDTAB
  0
ENDSEC
  0
SECTION
  2
BLOCKS
  0
ENDSEC
  0
SECTION
  2
ENTITIES
  0
LINE
  8
0
  6
CONTINUOUS
 62
     7
  5
33A
 10
0.297895
 20
0.406233
 30
0.0
 11
0.198193
 21
0.505935
 31
0.0
  0
LINE
  8
0
  6
CONTINUOUS
 62
     7
  5
33B
 10
0.230366
 20
0.296985
 30
0.0
 11
0.304613
 21
0.371231
 31
0.0
  0
LINE
  8
0
  6
CONTINUOUS
 62
     7
  5
33C
 10
0.32229
 20
0.353553
 30
0.0
 11
0.248044
 21
0.279307
 31
0.0
  0
LINE
  8
0
  6
CONTINUOUS
 62
     7
  5
33D
 10
0.258285
 20
0.566051
 30
0.0
 11
0.358011
 21
0.466325
 31
0.0
  0
LINE
  8
0
  6
CONTINUOUS
 62
     7
  5
33E
 10
0.29047
 20
0.357089
 30
0.0
 11
0.149049
 21
0.49851
 31
0.0
  0
LINE
  8
0
  6
CONTINUOUS
 62
     7
  5
33F
 10
0.191122
 20
0.498864
 30
0.0
 11
0.290824
 21
0.399162
 31
0.0
  0
LINE
  8
0
  6
CONTINUOUS
 62
     7
  5
340
 10
0.163191
 20
0.512652
 30
0.0
 11
0.088945
 21
0.438406
 31
0.0
  0
LINE
  8
0
  6
CONTINUOUS
 62
     7
  5
341
 10
0.071267
 20
0.456084
 30
0.0
 11
0.145513
 21
0.53033
 31
0.0
  0
LINE
  8
0
  6
CONTINUOUS
 62
     7
  5
342
 10
0.215871
 20
0.523613
 30
0.0
 11
0.315573
 21
0.423911
 31
0.0
  0
LINE
  8
0
  6
CONTINUOUS
 62
     7
  5
343
 10
0.27823
 20
0.580047
 30
0.0
 11
0.303686
 21
0.605503
 31
0.0
  0
LINE
  8
0
  6
CONTINUOUS
 62
     7
  5
344
 10
0.303686
 20
0.605503
 30
0.0
 11
0.328181
 21
0.581008
 31
0.0
  0
LINE
  8
0
  6
CONTINUOUS
 62
     7
  5
345
 10
0.302725
 20
0.555552
 30
0.0
 11
0.27823
 21
0.580047
 31
0.0
  0
LINE
  8
0
  6
CONTINUOUS
 62
     7
  5
346
 10
0.328181
 20
0.581008
 30
0.0
 11
0.302725
 21
0.555552
 31
0.0
  0
LINE
  8
0
  6
CONTINUOUS
 62
     7
  5
347
 10
0.328181
 20
0.581008
 30
0.0
 11
0.400425
 21
0.508763
 31
0.0
  0
LINE
  8
0
  6
CONTINUOUS
 62
     7
  5
348
 10
0.300724
 20
0.608465
 30
0.0
 11
0.303686
 21
0.605503
 31
0.0
  0
LINE
  8
0
  6
CONTINUOUS
 62
     7
  5
349
 10
0.252287
 20
0.275065
 30
0.0
 11
0.067025
 21
0.460327
 31
0.0
  0
LINE
  8
0
  6
CONTINUOUS
 62
     7
  5
34A
 10
0.198193
 20
-0.505935
 30
0.0
 11
0.297895
 21
-0.406233
 31
0.0
  0
LINE
  8
0
  6
CONTINUOUS
 62
     7
  5
34B
 10
0.088945
 20
-0.438406
 30
0.0
 11
0.163191
 21
-0.512652
 31
0.0
  0
LINE
  8
0
  6
CONTINUOUS
 62
     7
  5
34C
 10
0.145513
 20
-0.53033
 30
0.0
 11
0.071267
 21
-0.456084
 31
0.0
  0
LINE
  8
0
  6
CONTINUOUS
 62
     7
  5
34D
 10
0.358011
 20
-0.466325
 30
0.0
 11
0.258285
 21
-0.566051
 31
0.0
  0
LINE
  8
0
  6
CONTINUOUS
 62
     7
  5
34E
 10
0.149049
 20
-0.49851
 30
0.0
 11
0.29047
 21
-0.357089
 31
0.0
  0
LINE
  8
0
  6
CONTINUOUS
 62
     7
  5
34F
 10
0.290824
 20
-0.399162
 30
0.0
 11
0.191122
 21
-0.498864
 31
0.0
  0
LINE
  8
0
  6
CONTINUOUS
 62
     7
  5
350
 10
0.304613
 20
-0.371231
 30
0.0
 11
0.230366
 21
-0.296985
 31
0.0
  0
LINE
  8
0
  6
CONTINUOUS
 62
     7
  5
351
 10
0.248044
 20
-0.279307
 30
0.0
 11
0.32229
 21
-0.353553
 31
0.0
  0
LINE
  8
0
  6
CONTINUOUS
 62
     7
  5
352
 10
0.315573
 20
-0.423911
 30
0.0
 11
0.215871
 21
-0.523613
 31
0.0
  0
LINE
  8
0
  6
CONTINUOUS
 62
     7
  5
353
 10
0.372007
 20
-0.48627
 30
0.0
 11
0.397463
 21
-0.511726
 31
0.0
  0
LINE
  8
0
  6
CONTINUOUS
 62
     7
  5
354
 10
0.397463
 20
-0.511726
 30
0.0
 11
0.372968
 21
-0.536221
 31
0.0
  0
LINE
  8
0
  6
CONTINUOUS
 62
     7
  5
355
 10
0.347512
 20
-0.510765
 30
0.0
 11
0.372007
 21
-0.48627
 31
0.0
  0
LINE
  8
0
  6
CONTINUOUS
 62
     7
  5
356
 10
0.372968
 20
-0.536221
 30
0.0
 11
0.347512
 21
-0.510765
 31
0.0
  0
LINE
  8
0
  6
CONTINUOUS
 62
     7
  5
357
 10
0.372968
 20
-0.536221
 30
0.0
 11
0.300724
 21
-0.608465
 31
0.0
  0
LINE
  8
0
  6
CONTINUOUS
 62
     7
  5
358
 10
0.400425
 20
-0.508764
 30
0.0
 11
0.397463
 21
-0.511726
 31
0.0
  0
LINE
  8
0
  6
CONTINUOUS
 62
     7
  5
359
 10
0.067025
 20
-0.460327
 30
0.0
 11
0.252287
 21
-0.275065
 31
0.0
  0
LINE
  8
0
  6
CONTINUOUS
 62
     7
  5
35A
 10
0.646499
 20
0.252791
 30
0.0
 11
0.546797
 21
0.352493
 31
0.0
  0
LINE
  8
0
  6
CONTINUOUS
 62
     7
  5
35B
 10
0.57897
 20
0.143543
 30
0.0
 11
0.653216
 21
0.217789
 31
0.0
  0
LINE
  8
0
  6
CONTINUOUS
 62
     7
  5
35C
 10
0.670894
 20
0.200111
 30
0.0
 11
0.596648
 21
0.125865
 31
0.0
  0
LINE
  8
0
  6
CONTINUOUS
 62
     7
  5
35D
 10
0.606888
 20
0.412609
 30
0.0
 11
0.706615
 21
0.312882
 31
0.0
  0
LINE
  8
0
  6
CONTINUOUS
 62
     7
  5
35E
 10
0.639074
 20
0.203647
 30
0.0
 11
0.497653
 21
0.345068
 31
0.0
  0
LINE
  8
0
  6
CONTINUOUS
 62
     7
  5
35F
 10
0.539726
 20
0.345422
 30
0.0
 11
0.639428
 21
0.24572
 31
0.0
  0
LINE
  8
0
  6
CONTINUOUS
 62
     7
  5
360
 10
0.511795
 20
0.35921
 30
0.0
 11
0.437549
 21
0.284964
 31
0.0
  0
LINE
  8
0
  6
CONTINUOUS
 62
     7
  5
361
 10
0.419871
 20
0.302642
 30
0.0
 11
0.494117
 21
0.376888
 31
0.0
  0
LINE
  8
0
  6
CONTINUOUS
 62
     7
  5
362
 10
0.564474
 20
0.37017
 30
0.0
 11
0.664176
 21
0.270468
 31
0.0
  0
LINE
  8
0
  6
CONTINUOUS
 62
     7
  5
363
 10
0.626834
 20
0.426605
 30
0.0
 11
0.65229
 21
0.452061
 31
0.0
  0
LINE
  8
0
  6
CONTINUOUS
 62
     7
  5
364
 10
0.65229
 20
0.452061
 30
0.0
 11
0.676785
 21
0.427566
 31
0.0
  0
LINE
  8
0
  6
CONTINUOUS
 62
     7
  5
365
 10
0.651329
 20
0.40211
 30
0.0
 11
0.626834
 21
0.426605
 31
0.0
  0
LINE
  8
0
  6
CONTINUOUS
 62
     7
  5
366
 10
0.676785
 20
0.427566
 30
0.0
 11
0.651329
 21
0.40211
 31
0.0
  0
LINE
  8
0
  6
CONTINUOUS
 62
     7
  5
367
 10
0.676785
 20
0.427566
 30
0.0
 11
0.749029
 21
0.355321
 31
0.0
  0
LINE
  8
0
  6
CONTINUOUS
 62
     7
  5
368
 10
0.649328
 20
0.455023
 30
0.0
 11
0.65229
 21
0.452061
 31
0.0
  0
LINE
  8
0
  6
CONTINUOUS
 62
     7
  5
369
 10
0.60089
 20
0.121622
 30
0.0
 11
0.415628
 21
0.306884
 31
0.0
  0
LINE
  8
0
  6
CONTINUOUS
 62
     7
  5
36A
 10
0.546797
 20
-0.352493
 30
0.0
 11
0.646499
 21
-0.252791
 31
0.0
  0
LINE
  8
0
  6
CONTINUOUS
 62
     7
  5
36B
 10
0.437549
 20
-0.284964
 30
0.0
 11
0.511795
 21
-0.35921
 31
0.0
  0
LINE
  8
0
  6
CONTINUOUS
 62
     7
  5
36C
 10
0.494117
 20
-0.376888
 30
0.0
 11
0.419871
 21
-0.302642
 31
0.0
  0
LINE
  8
0
  6
CONTINUOUS
 62
     7
  5
36D
 10
0.706615
 20
-0.312882
 30
0.0
 11
0.606888
 21
-0.412609
 31
0.0
  0
LINE
  8
0
  6
CONTINUOUS
 62
     7
  5
36E
 10
0.497653
 20
-0.345068
 30
0.0
 11
0.639074
 21
-0.203647
 31
0.0
  0
LINE
  8
0
  6
CONTINUOUS
 62
     7
  5
36F
 10
0.639428
 20
-0.24572
 30
0.0
 11
0.539726
 21
-0.345422
 31
0.0
  0
LINE
  8
0
  6
CONTINUOUS
 62
     7
  5
370
 10
0.653216
 20
-0.217789
 30
0.0
 11
0.57897
 21
-0.143543
 31
0.0
  0
LINE
  8
0
  6
CONTINUOUS
 62
     7
  5
371
 10
0.596648
 20
-0.125865
 30
0.0
 11
0.670894
 21
-0.200111
 31
0.0
  0
LINE
  8
0
  6
CONTINUOUS
 62
     7
  5
372
 10
0.664176
 20
-0.270468
 30
0.0
 11
0.564474
 21
-0.37017
 31
0.0
  0
LINE
  8
0
  6
CONTINUOUS
 62
     7
  5
373
 10
0.720611
 20
-0.332828
 30
0.0
 11
0.746067
 21
-0.358284
 31
0.0
  0
LINE
  8
0
  6
CONTINUOUS
 62
     7
  5
374
 10
0.746067
 20
-0.358284
 30
0.0
 11
0.721572
 21
-0.382779
 31
0.0
  0
LINE
  8
0
  6
CONTINUOUS
 62
     7
  5
375
 10
0.696116
 20
-0.357323
 30
0.0
 11
0.720611
 21
-0.332828
 31
0.0
  0
LINE
  8
0
  6
CONTINUOUS
 62
     7
  5
376
 10
0.721572
 20
-0.382779
 30
0.0
 11
0.696116
 21
-0.357323
 31
0.0
  0
LINE
  8
0
  6
CONTINUOUS
 62
     7
  5
377
 10
0.721572
 20
-0.382779
 30
0.0
 11
0.649327
 21
-0.455023
 31
0.0
  0
LINE
  8
0
  6
CONTINUOUS
 62
     7
  5
378
 10
0.749029
 20
-0.355322
 30
0.0
 11
0.746067
 21
-0.358284
 31
0.0
  0
LINE
  8
0
  6
CONTINUOUS
 62
     7
  5
379
 10
0.415628
 20
-0.306884
 30
0.0
 11
0.60089
 21
-0.121622
 31
0.0
  0
LINE
  8
0
  6
CONTINUOUS
 62
     7
  5
37A
 10
0.97
 20
0.1275
 30
0.0
 11
1.041
 21
0.1275
 31
0.0
  0
LINE
  8
0
  6
CONTINUOUS
 62
     7
  5
37B
 10
0.97
 20
-0.1275
 30
0.0
 11
1.041
 21
-0.1275
 31
0.0
  0
LINE
  8
0
  6
CONTINUOUS
 62
     7
  5
37C
 10
1.041
 20
-0.1275
 30
0.0
 11
1.041
 21
0.1275
 31
0.0
  0
LINE
  8
0
  6
CONTINUOUS
 62
     7
  5
37D
 10
0.84661
 20
-0.452902
 30
0.0
 11
0.803211
 21
-0.409503
 31
0.0
  0
LINE
  8
0
  6
CONTINUOUS
 62
     7
  5
37E
 10
0.746908
 20
-0.552604
 30
0.0
 11
0.84661
 21
-0.452902
 31
0.0
  0
LINE
  8
0
  6
CONTINUOUS
 62
     7
  5
37F
 10
0.726863
 20
-0.532559
 30
0.0
 11
0.746908
 21
-0.552604
 31
0.0
  0
LINE
  8
0
  6
CONTINUOUS
 62
     7
  5
380
 10
0.712667
 20
-0.597559
 30
0.0
 11
0.711846
 21
-0.596668
 31
0.0
  0
LINE
  8
0
  6
CONTINUOUS
 62
     7
  5
381
 10
0.711846
 20
-0.596668
 30
0.0
 11
0.711095
 21
-0.595707
 31
0.0
  0
LINE
  8
0
  6
CONTINUOUS
 62
     7
  5
382
 10
0.711095
 20
-0.595707
 30
0.0
 11
0.710416
 21
-0.594678
 31
0.0
  0
LINE
  8
0
  6
CONTINUOUS
 62
     7
  5
383
 10
0.710416
 20
-0.594678
 30
0.0
 11
0.709809
 21
-0.593581
 31
0.0
  0
LINE
  8
0
  6
CONTINUOUS
 62
     7
  5
384
 10
0.709809
 20
-0.593581
 30
0.0
 11
0.709274
 21
-0.592417
 31
0.0
  0
LINE
  8
0
  6
CONTINUOUS
 62
     7
  5
385
 10
0.709274
 20
-0.592417
 30
0.0
 11
0.708812
 21
-0.591187
 31
0.0
  0
LINE
  8
0
  6
CONTINUOUS
 62
     7
  5
386
 10
0.708812
 20
-0.591187
 30
0.0
 11
0.708422
 21
-0.589892
 31
0.0
  0
LINE
  8
0
  6
CONTINUOUS
 62
     7
  5
387
 10
0.708422
 20
-0.589892
 30
0.0
 11
0.708107
 21
-0.588532
 31
0.0
  0
LINE
  8
0
  6
CONTINUOUS
 62
     7
  5
388
 10
0.708107
 20
-0.588532
 30
0.0
 11
0.707865
 21
-0.58711
 31
0.0
  0
LINE
  8
0
  6
CONTINUOUS
 62
     7
  5
389
 10
0.707865
 20
-0.58711
 30
0.0
 11
0.707696
 21
-0.585626
 31
0.0
  0
LINE
  8
0
  6
CONTINUOUS
 62
     7
  5
38A
 10
0.707696
 20
-0.585626
 30
0.0
 11
0.707602
 21
-0.584081
 31
0.0
  0
LINE
  8
0
  6
CONTINUOUS
 62
     7
  5
38B
 10
0.707602
 20
-0.584081
 30
0.0
 11
0.707582
 21
-0.582477
 31
0.0
  0
LINE
  8
0
  6
CONTINUOUS
 62
     7
  5
38C
 10
0.707582
 20
-0.582477
 30
0.0
 11
0.707635
 21
-0.580814
 31
0.0
  0
LINE
  8
0
  6
CONTINUOUS
 62
     7
  5
38D
 10
0.707635
 20
-0.580814
 30
0.0
 11
0.707763
 21
-0.579095
 31
0.0
  0
LINE
  8
0
  6
CONTINUOUS
 62
     7
  5
38E
 10
0.707763
 20
-0.579095
 30
0.0
 11
0.707965
 21
-0.57732
 31
0.0
  0
LINE
  8
0
  6
CONTINUOUS
 62
     7
  5
38F
 10
0.707965
 20
-0.57732
 30
0.0
 11
0.70824
 21
-0.57549
 31
0.0
  0
LINE
  8
0
  6
CONTINUOUS
 62
     7
  5
390
 10
0.70824
 20
-0.57549
 30
0.0
 11
0.708589
 21
-0.573608
 31
0.0
  0
LINE
  8
0
  6
CONTINUOUS
 62
     7
  5
391
 10
0.708589
 20
-0.573608
 30
0.0
 11
0.709012
 21
-0.571675
 31
0.0
  0
LINE
  8
0
  6
CONTINUOUS
 62
     7
  5
392
 10
0.709012
 20
-0.571675
 30
0.0
 11
0.709507
 21
-0.569691
 31
0.0
  0
LINE
  8
0
  6
CONTINUOUS
 62
     7
  5
393
 10
0.709507
 20
-0.569691
 30
0.0
 11
0.710075
 21
-0.56766
 31
0.0
  0
LINE
  8
0
  6
CONTINUOUS
 62
     7
  5
394
 10
0.710075
 20
-0.56766
 30
0.0
 11
0.710715
 21
-0.565582
 31
0.0
  0
LINE
  8
0
  6
CONTINUOUS
 62
     7
  5
395
 10
0.710715
 20
-0.565582
 30
0.0
 11
0.711426
 21
-0.563459
 31
0.0
  0
LINE
  8
0
  6
CONTINUOUS
 62
     7
  5
396
 10
0.711426
 20
-0.563459
 30
0.0
 11
0.712209
 21
-0.561292
 31
0.0
  0
LINE
  8
0
  6
CONTINUOUS
 62
     7
  5
397
 10
0.712209
 20
-0.561292
 30
0.0
 11
0.713061
 21
-0.559084
 31
0.0
  0
LINE
  8
0
  6
CONTINUOUS
 62
     7
  5
398
 10
0.713061
 20
-0.559084
 30
0.0
 11
0.713984
 21
-0.556836
 31
0.0
  0
LINE
  8
0
  6
CONTINUOUS
 62
     7
  5
399
 10
0.713984
 20
-0.556836
 30
0.0
 11
0.714976
 21
-0.554549
 31
0.0
  0
LINE
  8
0
  6
CONTINUOUS
 62
     7
  5
39A
 10
0.714976
 20
-0.554549
 30
0.0
 11
0.716036
 21
-0.552227
 31
0.0
  0
LINE
  8
0
  6
CONTINUOUS
 62
     7
  5
39B
 10
0.716036
 20
-0.552227
 30
0.0
 11
0.717163
 21
-0.54987
 31
0.0
  0
LINE
  8
0
  6
CONTINUOUS
 62
     7
  5
39C
 10
0.717163
 20
-0.54987
 30
0.0
 11
0.718357
 21
-0.54748
 31
0.0
  0
LINE
  8
0
  6
CONTINUOUS
 62
     7
  5
39D
 10
0.718357
 20
-0.54748
 30
0.0
 11
0.719617
 21
-0.545059
 31
0.0
  0
LINE
  8
0
  6
CONTINUOUS
 62
     7
  5
39E
 10
0.719617
 20
-0.545059
 30
0.0
 11
0.720941
 21
-0.542609
 31
0.0
  0
LINE
  8
0
  6
CONTINUOUS
 62
     7
  5
39F
 10
0.720941
 20
-0.542609
 30
0.0
 11
0.722329
 21
-0.540132
 31
0.0
  0
LINE
  8
0
  6
CONTINUOUS
 62
     7
  5
3A0
 10
0.722329
 20
-0.540132
 30
0.0
 11
0.723779
 21
-0.53763
 31
0.0
  0
LINE
  8
0
  6
CONTINUOUS
 62
     7
  5
3A1
 10
0.723779
 20
-0.53763
 30
0.0
 11
0.725291
 21
-0.535105
 31
0.0
  0
LINE
  8
0
  6
CONTINUOUS
 62
     7
  5
3A2
 10
0.725291
 20
-0.535105
 30
0.0
 11
0.726863
 21
-0.532559
 31
0.0
  0
LINE
  8
0
  6
CONTINUOUS
 62
     7
  5
3A3
 10
0.814558
 20
-0.555665
 30
0.0
 11
0.810872
 21
-0.558833
 31
0.0
  0
LINE
  8
0
  6
CONTINUOUS
 62
     7
  5
3A4
 10
0.810872
 20
-0.558833
 30
0.0
 11
0.807173
 21
-0.561923
 31
0.0
  0
LINE
  8
0
  6
CONTINUOUS
 62
     7
  5
3A5
 10
0.807173
 20
-0.561923
 30
0.0
 11
0.803466
 21
-0.564931
 31
0.0
  0
LINE
  8
0
  6
CONTINUOUS
 62
     7
  5
3A6
 10
0.803466
 20
-0.564931
 30
0.0
 11
0.799757
 21
-0.567851
 31
0.0
  0
LINE
  8
0
  6
CONTINUOUS
 62
     7
  5
3A7
 10
0.799757
 20
-0.567851
 30
0.0
 11
0.796052
 21
-0.570679
 31
0.0
  0
LINE
  8
0
  6
CONTINUOUS
 62
     7
  5
3A8
 10
0.796052
 20
-0.570679
 30
0.0
 11
0.792356
 21
-0.57341
 31
0.0
  0
LINE
  8
0
  6
CONTINUOUS
 62
     7
  5
3A9
 10
0.792356
 20
-0.57341
 30
0.0
 11
0.788675
 21
-0.576041
 31
0.0
  0
LINE
  8
0
  6
CONTINUOUS
 62
     7
  5
3AA
 10
0.788675
 20
-0.576041
 30
0.0
 11
0.785015
 21
-0.578568
 31
0.0
  0
LINE
  8
0
  6
CONTINUOUS
 62
     7
  5
3AB
 10
0.785015
 20
-0.578568
 30
0.0
 11
0.781381
 21
-0.580986
 31
0.0
  0
LINE
  8
0
  6
CONTINUOUS
 62
     7
  5
3AC
 10
0.781381
 20
-0.580986
 30
0.0
 11
0.777779
 21
-0.583292
 31
0.0
  0
LINE
  8
0
  6
CONTINUOUS
 62
     7
  5
3AD
 10
0.777779
 20
-0.583292
 30
0.0
 11
0.774215
 21
-0.585482
 31
0.0
  0
LINE
  8
0
  6
CONTINUOUS
 62
     7
  5
3AE
 10
0.774215
 20
-0.585482
 30
0.0
 11
0.770693
 21
-0.587554
 31
0.0
  0
LINE
  8
0
  6
CONTINUOUS
 62
     7
  5
3AF
 10
0.770693
 20
-0.587554
 30
0.0
 11
0.76722
 21
-0.589502
 31
0.0
  0
LINE
  8
0
  6
CONTINUOUS
 62
     7
  5
3B0
 10
0.76722
 20
-0.589502
 30
0.0
 11
0.763801
 21
-0.591326
 31
0.0
  0
LINE
  8
0
  6
CONTINUOUS
 62
     7
  5
3B1
 10
0.763801
 20
-0.591326
 30
0.0
 11
0.76044
 21
-0.593021
 31
0.0
  0
LINE
  8
0
  6
CONTINUOUS
 62
     7
  5
3B2
 10
0.76044
 20
-0.593021
 30
0.0
 11
0.757144
 21
-0.594586
 31
0.0
  0
LINE
  8
0
  6
CONTINUOUS
 62
     7
  5
3B3
 10
0.757144
 20
-0.594586
 30
0.0
 11
0.753917
 21
-0.596018
 31
0.0
  0
LINE
  8
0
  6
CONTINUOUS
 62
     7
  5
3B4
 10
0.753917
 20
-0.596018
 30
0.0
 11
0.750764
 21
-0.597314
 31
0.0
  0
LINE
  8
0
  6
CONTINUOUS
 62
     7
  5
3B5
 10
0.750764
 20
-0.597314
 30
0.0
 11
0.74769
 21
-0.598473
 31
0.0
  0
LINE
  8
0
  6
CONTINUOUS
 62
     7
  5
3B6
 10
0.74769
 20
-0.598473
 30
0.0
 11
0.7447
 21
-0.599493
 31
0.0
  0
LINE
  8
0
  6
CONTINUOUS
 62
     7
  5
3B7
 10
0.7447
 20
-0.599493
 30
0.0
 11
0.741798
 21
-0.600373
 31
0.0
  0
LINE
  8
0
  6
CONTINUOUS
 62
     7
  5
3B8
 10
0.741798
 20
-0.600373
 30
0.0
 11
0.738989
 21
-0.60111
 31
0.0
  0
LINE
  8
0
  6
CONTINUOUS
 62
     7
  5
3B9
 10
0.738989
 20
-0.60111
 30
0.0
 11
0.736277
 21
-0.601704
 31
0.0
  0
LINE
  8
0
  6
CONTINUOUS
 62
     7
  5
3BA
 10
0.736277
 20
-0.601704
 30
0.0
 11
0.733667
 21
-0.602154
 31
0.0
  0
LINE
  8
0
  6
CONTINUOUS
 62
     7
  5
3BB
 10
0.733667
 20
-0.602154
 30
0.0
 11
0.731162
 21
-0.60246
 31
0.0
  0
LINE
  8
0
  6
CONTINUOUS
 62
     7
  5
3BC
 10
0.731162
 20
-0.60246
 30
0.0
 11
0.728766
 21
-0.60262
 31
0.0
  0
LINE
  8
0
  6
CONTINUOUS
 62
     7
  5
3BD
 10
0.728766
 20
-0.60262
 30
0.0
 11
0.726483
 21
-0.602635
 31
0.0
  0
LINE
  8
0
  6
CONTINUOUS
 62
     7
  5
3BE
 10
0.726483
 20
-0.602635
 30
0.0
 11
0.724317
 21
-0.602504
 31
0.0
  0
LINE
  8
0
  6
CONTINUOUS
 62
     7
  5
3BF
 10
0.724317
 20
-0.602504
 30
0.0
 11
0.72227
 21
-0.602228
 31
0.0
  0
LINE
  8
0
  6
CONTINUOUS
 62
     7
  5
3C0
 10
0.72227
 20
-0.602228
 30
0.0
 11
0.720346
 21
-0.601807
 31
0.0
  0
LINE
  8
0
  6
CONTINUOUS
 62
     7
  5
3C1
 10
0.720346
 20
-0.601807
 30
0.0
 11
0.718548
 21
-0.601241
 31
0.0
  0
LINE
  8
0
  6
CONTINUOUS
 62
     7
  5
3C2
 10
0.718548
 20
-0.601241
 30
0.0
 11
0.716879
 21
-0.600533
 31
0.0
  0
LINE
  8
0
  6
CONTINUOUS
 62
     7
  5
3C3
 10
0.716879
 20
-0.600533
 30
0.0
 11
0.71534
 21
-0.599682
 31
0.0
  0
LINE
  8
0
  6
CONTINUOUS
 62
     7
  5
3C4
 10
0.71534
 20
-0.599682
 30
0.0
 11
0.713936
 21
-0.59869
 31
0.0
  0
LINE
  8
0
  6
CONTINUOUS
 62
     7
  5
3C5
 10
0.713936
 20
-0.59869
 30
0.0
 11
0.712667
 21
-0.597559
 31
0.0
  0
LINE
  8
0
  6
CONTINUOUS
 62
     7
  5
3C6
 10
0.849671
 20
-0.520552
 30
0.0
 11
0.814558
 21
-0.555665
 31
0.0
  0
LINE
  8
0
  6
CONTINUOUS
 62
     7
  5
3C7
 10
0.891565
 20
-0.418661
 30
0.0
 11
0.892696
 21
-0.41993
 31
0.0
  0
LINE
  8
0
  6
CONTINUOUS
 62
     7
  5
3C8
 10
0.892696
 20
-0.41993
 30
0.0
 11
0.893688
 21
-0.421334
 31
0.0
  0
LINE
  8
0
  6
CONTINUOUS
 62
     7
  5
3C9
 10
0.893688
 20
-0.421334
 30
0.0
 11
0.894539
 21
-0.422873
 31
0.0
  0
LINE
  8
0
  6
CONTINUOUS
 62
     7
  5
3CA
 10
0.894539
 20
-0.422873
 30
0.0
 11
0.895247
 21
-0.424542
 31
0.0
  0
LINE
  8
0
  6
CONTINUOUS
 62
     7
  5
3CB
 10
0.895247
 20
-0.424542
 30
0.0
 11
0.895812
 21
-0.42634
 31
0.0
  0
LINE
  8
0
  6
CONTINUOUS
 62
     7
  5
3CC
 10
0.895812
 20
-0.42634
 30
0.0
 11
0.896233
 21
-0.428264
 31
0.0
  0
LINE
  8
0
  6
CONTINUOUS
 62
     7
  5
3CD
 10
0.896233
 20
-0.428264
 30
0.0
 11
0.89651
 21
-0.430311
 31
0.0
  0
LINE
  8
0
  6
CONTINUOUS
 62
     7
  5
3CE
 10
0.89651
 20
-0.430311
 30
0.0
 11
0.89664
 21
-0.432477
 31
0.0
  0
LINE
  8
0
  6
CONTINUOUS
 62
     7
  5
3CF
 10
0.89664
 20
-0.432477
 30
0.0
 11
0.896626
 21
-0.43476
 31
0.0
  0
LINE
  8
0
  6
CONTINUOUS
 62
     7
  5
3D0
 10
0.896626
 20
-0.43476
 30
0.0
 11
0.896466
 21
-0.437156
 31
0.0
  0
LINE
  8
0
  6
CONTINUOUS
 62
     7
  5
3D1
 10
0.896466
 20
-0.437156
 30
0.0
 11
0.89616
 21
-0.439661
 31
0.0
  0
LINE
  8
0
  6
CONTINUOUS
 62
     7
  5
3D2
 10
0.89616
 20
-0.439661
 30
0.0
 11
0.89571
 21
-0.442271
 31
0.0
  0
LINE
  8
0
  6
CONTINUOUS
 62
     7
  5
3D3
 10
0.89571
 20
-0.442271
 30
0.0
 11
0.895116
 21
-0.444983
 31
0.0
  0
LINE
  8
0
  6
CONTINUOUS
 62
     7
  5
3D4
 10
0.895116
 20
-0.444983
 30
0.0
 11
0.894379
 21
-0.447792
 31
0.0
  0
LINE
  8
0
  6
CONTINUOUS
 62
     7
  5
3D5
 10
0.894379
 20
-0.447792
 30
0.0
 11
0.893499
 21
-0.450694
 31
0.0
  0
LINE
  8
0
  6
CONTINUOUS
 62
     7
  5
3D6
 10
0.893499
 20
-0.450694
 30
0.0
 11
0.892479
 21
-0.453684
 31
0.0
  0
LINE
  8
0
  6
CONTINUOUS
 62
     7
  5
3D7
 10
0.892479
 20
-0.453684
 30
0.0
 11
0.89132
 21
-0.456758
 31
0.0
  0
LINE
  8
0
  6
CONTINUOUS
 62
     7
  5
3D8
 10
0.89132
 20
-0.456758
 30
0.0
 11
0.890024
 21
-0.459911
 31
0.0
  0
LINE
  8
0
  6
CONTINUOUS
 62
     7
  5
3D9
 10
0.890024
 20
-0.459911
 30
0.0
 11
0.888592
 21
-0.463138
 31
0.0
  0
LINE
  8
0
  6
CONTINUOUS
 62
     7
  5
3DA
 10
0.888592
 20
-0.463138
 30
0.0
 11
0.887027
 21
-0.466434
 31
0.0
  0
LINE
  8
0
  6
CONTINUOUS
 62
     7
  5
3DB
 10
0.887027
 20
-0.466434
 30
0.0
 11
0.885332
 21
-0.469795
 31
0.0
  0
LINE
  8
0
  6
CONTINUOUS
 62
     7
  5
3DC
 10
0.885332
 20
-0.469795
 30
0.0
 11
0.883508
 21
-0.473214
 31
0.0
  0
LINE
  8
0
  6
CONTINUOUS
 62
     7
  5
3DD
 10
0.883508
 20
-0.473214
 30
0.0
 11
0.881559
 21
-0.476687
 31
0.0
  0
LINE
  8
0
  6
CONTINUOUS
 62
     7
  5
3DE
 10
0.881559
 20
-0.476687
 30
0.0
 11
0.879488
 21
-0.480209
 31
0.0
  0
LINE
  8
0
  6
CONTINUOUS
 62
     7
  5
3DF
 10
0.879488
 20
-0.480209
 30
0.0
 11
0.877298
 21
-0.483773
 31
0.0
  0
LINE
  8
0
  6
CONTINUOUS
 62
     7
  5
3E0
 10
0.877298
 20
-0.483773
 30
0.0
 11
0.874992
 21
-0.487375
 31
0.0
  0
LINE
  8
0
  6
CONTINUOUS
 62
     7
  5
3E1
 10
0.874992
 20
-0.487375
 30
0.0
 11
0.872574
 21
-0.491009
 31
0.0
  0
LINE
  8
0
  6
CONTINUOUS
 62
     7
  5
3E2
 10
0.872574
 20
-0.491009
 30
0.0
 11
0.870047
 21
-0.494669
 31
0.0
  0
LINE
  8
0
  6
CONTINUOUS
 62
     7
  5
3E3
 10
0.870047
 20
-0.494669
 30
0.0
 11
0.867416
 21
-0.49835
 31
0.0
  0
LINE
  8
0
  6
CONTINUOUS
 62
     7
  5
3E4
 10
0.867416
 20
-0.49835
 30
0.0
 11
0.864685
 21
-0.502046
 31
0.0
  0
LINE
  8
0
  6
CONTINUOUS
 62
     7
  5
3E5
 10
0.864685
 20
-0.502046
 30
0.0
 11
0.861857
 21
-0.505751
 31
0.0
  0
LINE
  8
0
  6
CONTINUOUS
 62
     7
  5
3E6
 10
0.861857
 20
-0.505751
 30
0.0
 11
0.858937
 21
-0.50946
 31
0.0
  0
LINE
  8
0
  6
CONTINUOUS
 62
     7
  5
3E7
 10
0.858937
 20
-0.50946
 30
0.0
 11
0.855929
 21
-0.513167
 31
0.0
  0
LINE
  8
0
  6
CONTINUOUS
 62
     7
  5
3E8
 10
0.855929
 20
-0.513167
 30
0.0
 11
0.852839
 21
-0.516866
 31
0.0
  0
LINE
  8
0
  6
CONTINUOUS
 62
     7
  5
3E9
 10
0.852839
 20
-0.516866
 30
0.0
 11
0.849671
 21
-0.520552
 31
0.0
  0
LINE
  8
0
  6
CONTINUOUS
 62
     7
  5
3EA
 10
0.826565
 20
-0.432857
 30
0.0
 11
0.829111
 21
-0.431285
 31
0.0
  0
LINE
  8
0
  6
CONTINUOUS
 62
     7
  5
3EB
 10
0.829111
 20
-0.431285
 30
0.0
 11
0.831636
 21
-0.429774
 31
0.0
  0
LINE
  8
0
  6
CONTINUOUS
 62
     7
  5
3EC
 10
0.831636
 20
-0.429774
 30
0.0
 11
0.834138
 21
-0.428323
 31
0.0
  0
LINE
  8
0
  6
CONTINUOUS
 62
     7
  5
3ED
 10
0.834138
 20
-0.428323
 30
0.0
 11
0.836615
 21
-0.426935
 31
0.0
  0
LINE
  8
0
  6
CONTINUOUS
 62
     7
  5
3EE
 10
0.836615
 20
-0.426935
 30
0.0
 11
0.839065
 21
-0.425611
 31
0.0
  0
LINE
  8
0
  6
CONTINUOUS
 62
     7
  5
3EF
 10
0.839065
 20
-0.425611
 30
0.0
 11
0.841485
 21
-0.424352
 31
0.0
  0
LINE
  8
0
  6
CONTINUOUS
 62
     7
  5
3F0
 10
0.841485
 20
-0.424352
 30
0.0
 11
0.843875
 21
-0.423158
 31
0.0
  0
LINE
  8
0
  6
CONTINUOUS
 62
     7
  5
3F1
 10
0.843875
 20
-0.423158
 30
0.0
 11
0.846233
 21
-0.42203
 31
0.0
  0
LINE
  8
0
  6
CONTINUOUS
 62
     7
  5
3F2
 10
0.846233
 20
-0.42203
 30
0.0
 11
0.848555
 21
-0.42097
 31
0.0
  0
LINE
  8
0
  6
CONTINUOUS
 62
     7
  5
3F3
 10
0.848555
 20
-0.42097
 30
0.0
 11
0.850842
 21
-0.419978
 31
0.0
  0
LINE
  8
0
  6
CONTINUOUS
 62
     7
  5
3F4
 10
0.850842
 20
-0.419978
 30
0.0
 11
0.85309
 21
-0.419056
 31
0.0
  0
LINE
  8
0
  6
CONTINUOUS
 62
     7
  5
3F5
 10
0.85309
 20
-0.419056
 30
0.0
 11
0.855298
 21
-0.418203
 31
0.0
  0
LINE
  8
0
  6
CONTINUOUS
 62
     7
  5
3F6
 10
0.855298
 20
-0.418203
 30
0.0
 11
0.857465
 21
-0.41742
 31
0.0
  0
LINE
  8
0
  6
CONTINUOUS
 62
     7
  5
3F7
 10
0.857465
 20
-0.41742
 30
0.0
 11
0.859588
 21
-0.416709
 31
0.0
  0
LINE
  8
0
  6
CONTINUOUS
 62
     7
  5
3F8
 10
0.859588
 20
-0.416709
 30
0.0
 11
0.861666
 21
-0.416069
 31
0.0
  0
LINE
  8
0
  6
CONTINUOUS
 62
     7
  5
3F9
 10
0.861666
 20
-0.416069
 30
0.0
 11
0.863697
 21
-0.415501
 31
0.0
  0
LINE
  8
0
  6
CONTINUOUS
 62
     7
  5
3FA
 10
0.863697
 20
-0.415501
 30
0.0
 11
0.865681
 21
-0.415006
 31
0.0
  0
LINE
  8
0
  6
CONTINUOUS
 62
     7
  5
3FB
 10
0.865681
 20
-0.415006
 30
0.0
 11
0.867614
 21
-0.414584
 31
0.0
  0
LINE
  8
0
  6
CONTINUOUS
 62
     7
  5
3FC
 10
0.867614
 20
-0.414584
 30
0.0
 11
0.869496
 21
-0.414235
 31
0.0
  0
LINE
  8
0
  6
CONTINUOUS
 62
     7
  5
3FD
 10
0.869496
 20
-0.414235
 30
0.0
 11
0.871326
 21
-0.413959
 31
0.0
  0
LINE
  8
0
  6
CONTINUOUS
 62
     7
  5
3FE
 10
0.871326
 20
-0.413959
 30
0.0
 11
0.873101
 21
-0.413757
 31
0.0
  0
LINE
  8
0
  6
CONTINUOUS
 62
     7
  5
3FF
 10
0.873101
 20
-0.413757
 30
0.0
 11
0.87482
 21
-0.41363
 31
0.0
  0
LINE
  8
0
  6
CONTINUOUS
 62
     7
  5
400
 10
0.87482
 20
-0.41363
 30
0.0
 11
0.876483
 21
-0.413576
 31
0.0
  0
LINE
  8
0
  6
CONTINUOUS
 62
     7
  5
401
 10
0.876483
 20
-0.413576
 30
0.0
 11
0.878087
 21
-0.413596
 31
0.0
  0
LINE
  8
0
  6
CONTINUOUS
 62
     7
  5
402
 10
0.878087
 20
-0.413596
 30
0.0
 11
0.879632
 21
-0.41369
 31
0.0
  0
LINE
  8
0
  6
CONTINUOUS
 62
     7
  5
403
 10
0.879632
 20
-0.41369
 30
0.0
 11
0.881116
 21
-0.413859
 31
0.0
  0
LINE
  8
0
  6
CONTINUOUS
 62
     7
  5
404
 10
0.881116
 20
-0.413859
 30
0.0
 11
0.882538
 21
-0.414101
 31
0.0
  0
LINE
  8
0
  6
CONTINUOUS
 62
     7
  5
405
 10
0.882538
 20
-0.414101
 30
0.0
 11
0.883898
 21
-0.414417
 31
0.0
  0
LINE
  8
0
  6
CONTINUOUS
 62
     7
  5
406
 10
0.883898
 20
-0.414417
 30
0.0
 11
0.885193
 21
-0.414806
 31
0.0
  0
LINE
  8
0
  6
CONTINUOUS
 62
     7
  5
407
 10
0.885193
 20
-0.414806
 30
0.0
 11
0.886423
 21
-0.415268
 31
0.0
  0
LINE
  8
0
  6
CONTINUOUS
 62
     7
  5
408
 10
0.886423
 20
-0.415268
 30
0.0
 11
0.887587
 21
-0.415803
 31
0.0
  0
LINE
  8
0
  6
CONTINUOUS
 62
     7
  5
409
 10
0.887587
 20
-0.415803
 30
0.0
 11
0.888684
 21
-0.41641
 31
0.0
  0
LINE
  8
0
  6
CONTINUOUS
 62
     7
  5
40A
 10
0.888684
 20
-0.41641
 30
0.0
 11
0.889713
 21
-0.417089
 31
0.0
  0
LINE
  8
0
  6
CONTINUOUS
 62
     7
  5
40B
 10
0.889713
 20
-0.417089
 30
0.0
 11
0.890674
 21
-0.41784
 31
0.0
  0
LINE
  8
0
  6
CONTINUOUS
 62
     7
  5
40C
 10
0.890674
 20
-0.41784
 30
0.0
 11
0.891565
 21
-0.418661
 31
0.0
  0
LINE
  8
0
  6
CONTINUOUS
 62
     7
  5
40D
 10
0.703509
 20
-0.509205
 30
0.0
 11
0.532654
 21
-0.338351
 31
0.0
  0
LINE
  8
0
  6
CONTINUOUS
 62
     7
  5
40E
 10
0.726863
 20
-0.532559
 30
0.0
 11
0.703509
 21
-0.509205
 31
0.0
  0
LINE
  8
0
  6
CONTINUOUS
 62
     7
  5
40F
 10
0.97
 20
-0.400222
 30
0.0
 11
0.849671
 21
-0.520552
 31
0.0
  0
LINE
  8
0
  6
CONTINUOUS
 62
     7
  5
410
 10
0.97
 20
-0.242715
 30
0.0
 11
0.97
 21
-0.400222
 31
0.0
  0
LINE
  8
0
  6
CONTINUOUS
 62
     7
  5
411
 10
0.803211
 20
-0.409503
 30
0.0
 11
0.97
 21
-0.242715
 31
0.0
  0
LINE
  8
0
  6
CONTINUOUS
 62
     7
  5
412
 10
0.803211
 20
-0.409503
 30
0.0
 11
0.826565
 21
-0.432857
 31
0.0
  0
LINE
  8
0
  6
CONTINUOUS
 62
     7
  5
413
 10
0.746908
 20
0.552604
 30
0.0
 11
0.726863
 21
0.532559
 31
0.0
  0
LINE
  8
0
  6
CONTINUOUS
 62
     7
  5
414
 10
0.84661
 20
0.452902
 30
0.0
 11
0.746908
 21
0.552604
 31
0.0
  0
LINE
  8
0
  6
CONTINUOUS
 62
     7
  5
415
 10
0.826565
 20
0.432857
 30
0.0
 11
0.84661
 21
0.452902
 31
0.0
  0
LINE
  8
0
  6
CONTINUOUS
 62
     7
  5
416
 10
0.891565
 20
0.418661
 30
0.0
 11
0.890674
 21
0.41784
 31
0.0
  0
LINE
  8
0
  6
CONTINUOUS
 62
     7
  5
417
 10
0.890674
 20
0.41784
 30
0.0
 11
0.889713
 21
0.417089
 31
0.0
  0
LINE
  8
0
  6
CONTINUOUS
 62
     7
  5
418
 10
0.889713
 20
0.417089
 30
0.0
 11
0.888684
 21
0.41641
 31
0.0
  0
LINE
  8
0
  6
CONTINUOUS
 62
     7
  5
419
 10
0.888684
 20
0.41641
 30
0.0
 11
0.887587
 21
0.415803
 31
0.0
  0
LINE
  8
0
  6
CONTINUOUS
 62
     7
  5
41A
 10
0.887587
 20
0.415803
 30
0.0
 11
0.886423
 21
0.415268
 31
0.0
  0
LINE
  8
0
  6
CONTINUOUS
 62
     7
  5
41B
 10
0.886423
 20
0.415268
 30
0.0
 11
0.885193
 21
0.414806
 31
0.0
  0
LINE
  8
0
  6
CONTINUOUS
 62
     7
  5
41C
 10
0.885193
 20
0.414806
 30
0.0
 11
0.883898
 21
0.414417
 31
0.0
  0
LINE
  8
0
  6
CONTINUOUS
 62
     7
  5
41D
 10
0.883898
 20
0.414417
 30
0.0
 11
0.882538
 21
0.414101
 31
0.0
  0
LINE
  8
0
  6
CONTINUOUS
 62
     7
  5
41E
 10
0.882538
 20
0.414101
 30
0.0
 11
0.881116
 21
0.413859
 31
0.0
  0
LINE
  8
0
  6
CONTINUOUS
 62
     7
  5
41F
 10
0.881116
 20
0.413859
 30
0.0
 11
0.879632
 21
0.41369
 31
0.0
  0
LINE
  8
0
  6
CONTINUOUS
 62
     7
  5
420
 10
0.879632
 20
0.41369
 30
0.0
 11
0.878087
 21
0.413596
 31
0.0
  0
LINE
  8
0
  6
CONTINUOUS
 62
     7
  5
421
 10
0.878087
 20
0.413596
 30
0.0
 11
0.876483
 21
0.413576
 31
0.0
  0
LINE
  8
0
  6
CONTINUOUS
 62
     7
  5
422
 10
0.876483
 20
0.413576
 30
0.0
 11
0.87482
 21
0.41363
 31
0.0
  0
LINE
  8
0
  6
CONTINUOUS
 62
     7
  5
423
 10
0.87482
 20
0.41363
 30
0.0
 11
0.873101
 21
0.413757
 31
0.0
  0
LINE
  8
0
  6
CONTINUOUS
 62
     7
  5
424
 10
0.873101
 20
0.413757
 30
0.0
 11
0.871326
 21
0.413959
 31
0.0
  0
LINE
  8
0
  6
CONTINUOUS
 62
     7
  5
425
 10
0.871326
 20
0.413959
 30
0.0
 11
0.869496
 21
0.414235
 31
0.0
  0
LINE
  8
0
  6
CONTINUOUS
 62
     7
  5
426
 10
0.869496
 20
0.414235
 30
0.0
 11
0.867614
 21
0.414584
 31
0.0
  0
LINE
  8
0
  6
CONTINUOUS
 62
     7
  5
427
 10
0.867614
 20
0.414584
 30
0.0
 11
0.865681
 21
0.415006
 31
0.0
  0
LINE
  8
0
  6
CONTINUOUS
 62
     7
  5
428
 10
0.865681
 20
0.415006
 30
0.0
 11
0.863697
 21
0.415501
 31
0.0
  0
LINE
  8
0
  6
CONTINUOUS
 62
     7
  5
429
 10
0.863697
 20
0.415501
 30
0.0
 11
0.861666
 21
0.416069
 31
0.0
  0
LINE
  8
0
  6
CONTINUOUS
 62
     7
  5
42A
 10
0.861666
 20
0.416069
 30
0.0
 11
0.859588
 21
0.416709
 31
0.0
  0
LINE
  8
0
  6
CONTINUOUS
 62
     7
  5
42B
 10
0.859588
 20
0.416709
 30
0.0
 11
0.857465
 21
0.41742
 31
0.0
  0
LINE
  8
0
  6
CONTINUOUS
 62
     7
  5
42C
 10
0.857465
 20
0.41742
 30
0.0
 11
0.855298
 21
0.418203
 31
0.0
  0
LINE
  8
0
  6
CONTINUOUS
 62
     7
  5
42D
 10
0.855298
 20
0.418203
 30
0.0
 11
0.85309
 21
0.419056
 31
0.0
  0
LINE
  8
0
  6
CONTINUOUS
 62
     7
  5
42E
 10
0.85309
 20
0.419056
 30
0.0
 11
0.850842
 21
0.419978
 31
0.0
  0
LINE
  8
0
  6
CONTINUOUS
 62
     7
  5
42F
 10
0.850842
 20
0.419978
 30
0.0
 11
0.848555
 21
0.42097
 31
0.0
  0
LINE
  8
0
  6
CONTINUOUS
 62
     7
  5
430
 10
0.848555
 20
0.42097
 30
0.0
 11
0.846233
 21
0.42203
 31
0.0
  0
LINE
  8
0
  6
CONTINUOUS
 62
     7
  5
431
 10
0.846233
 20
0.42203
 30
0.0
 11
0.843875
 21
0.423158
 31
0.0
  0
LINE
  8
0
  6
CONTINUOUS
 62
     7
  5
432
 10
0.843875
 20
0.423158
 30
0.0
 11
0.841485
 21
0.424352
 31
0.0
  0
LINE
  8
0
  6
CONTINUOUS
 62
     7
  5
433
 10
0.841485
 20
0.424352
 30
0.0
 11
0.839065
 21
0.425611
 31
0.0
  0
LINE
  8
0
  6
CONTINUOUS
 62
     7
  5
434
 10
0.839065
 20
0.425611
 30
0.0
 11
0.836615
 21
0.426935
 31
0.0
  0
LINE
  8
0
  6
CONTINUOUS
 62
     7
  5
435
 10
0.836615
 20
0.426935
 30
0.0
 11
0.834138
 21
0.428323
 31
0.0
  0
LINE
  8
0
  6
CONTINUOUS
 62
     7
  5
436
 10
0.834138
 20
0.428323
 30
0.0
 11
0.831636
 21
0.429774
 31
0.0
  0
LINE
  8
0
  6
CONTINUOUS
 62
     7
  5
437
 10
0.831636
 20
0.429774
 30
0.0
 11
0.829111
 21
0.431285
 31
0.0
  0
LINE
  8
0
  6
CONTINUOUS
 62
     7
  5
438
 10
0.829111
 20
0.431285
 30
0.0
 11
0.826565
 21
0.432857
 31
0.0
  0
LINE
  8
0
  6
CONTINUOUS
 62
     7
  5
439
 10
0.849671
 20
0.520552
 30
0.0
 11
0.852839
 21
0.516866
 31
0.0
  0
LINE
  8
0
  6
CONTINUOUS
 62
     7
  5
43A
 10
0.852839
 20
0.516866
 30
0.0
 11
0.855929
 21
0.513167
 31
0.0
  0
LINE
  8
0
  6
CONTINUOUS
 62
     7
  5
43B
 10
0.855929
 20
0.513167
 30
0.0
 11
0.858937
 21
0.50946
 31
0.0
  0
LINE
  8
0
  6
CONTINUOUS
 62
     7
  5
43C
 10
0.858937
 20
0.50946
 30
0.0
 11
0.861857
 21
0.505751
 31
0.0
  0
LINE
  8
0
  6
CONTINUOUS
 62
     7
  5
43D
 10
0.861857
 20
0.505751
 30
0.0
 11
0.864685
 21
0.502046
 31
0.0
  0
LINE
  8
0
  6
CONTINUOUS
 62
     7
  5
43E
 10
0.864685
 20
0.502046
 30
0.0
 11
0.867416
 21
0.49835
 31
0.0
  0
LINE
  8
0
  6
CONTINUOUS
 62
     7
  5
43F
 10
0.867416
 20
0.49835
 30
0.0
 11
0.870047
 21
0.494669
 31
0.0
  0
LINE
  8
0
  6
CONTINUOUS
 62
     7
  5
440
 10
0.870047
 20
0.494669
 30
0.0
 11
0.872574
 21
0.491009
 31
0.0
  0
LINE
  8
0
  6
CONTINUOUS
 62
     7
  5
441
 10
0.872574
 20
0.491009
 30
0.0
 11
0.874992
 21
0.487375
 31
0.0
  0
LINE
  8
0
  6
CONTINUOUS
 62
     7
  5
442
 10
0.874992
 20
0.487375
 30
0.0
 11
0.877298
 21
0.483773
 31
0.0
  0
LINE
  8
0
  6
CONTINUOUS
 62
     7
  5
443
 10
0.877298
 20
0.483773
 30
0.0
 11
0.879488
 21
0.480209
 31
0.0
  0
LINE
  8
0
  6
CONTINUOUS
 62
     7
  5
444
 10
0.879488
 20
0.480209
 30
0.0
 11
0.881559
 21
0.476687
 31
0.0
  0
LINE
  8
0
  6
CONTINUOUS
 62
     7
  5
445
 10
0.881559
 20
0.476687
 30
0.0
 11
0.883508
 21
0.473214
 31
0.0
  0
LINE
  8
0
  6
CONTINUOUS
 62
     7
  5
446
 10
0.883508
 20
0.473214
 30
0.0
 11
0.885332
 21
0.469795
 31
0.0
  0
LINE
  8
0
  6
CONTINUOUS
 62
     7
  5
447
 10
0.885332
 20
0.469795
 30
0.0
 11
0.887027
 21
0.466434
 31
0.0
  0
LINE
  8
0
  6
CONTINUOUS
 62
     7
  5
448
 10
0.887027
 20
0.466434
 30
0.0
 11
0.888592
 21
0.463138
 31
0.0
  0
LINE
  8
0
  6
CONTINUOUS
 62
     7
  5
449
 10
0.888592
 20
0.463138
 30
0.0
 11
0.890024
 21
0.459911
 31
0.0
  0
LINE
  8
0
  6
CONTINUOUS
 62
     7
  5
44A
 10
0.890024
 20
0.459911
 30
0.0
 11
0.89132
 21
0.456758
 31
0.0
  0
LINE
  8
0
  6
CONTINUOUS
 62
     7
  5
44B
 10
0.89132
 20
0.456758
 30
0.0
 11
0.892479
 21
0.453684
 31
0.0
  0
LINE
  8
0
  6
CONTINUOUS
 62
     7
  5
44C
 10
0.892479
 20
0.453684
 30
0.0
 11
0.893499
 21
0.450694
 31
0.0
  0
LINE
  8
0
  6
CONTINUOUS
 62
     7
  5
44D
 10
0.893499
 20
0.450694
 30
0.0
 11
0.894379
 21
0.447792
 31
0.0
  0
LINE
  8
0
  6
CONTINUOUS
 62
     7
  5
44E
 10
0.894379
 20
0.447792
 30
0.0
 11
0.895116
 21
0.444983
 31
0.0
  0
LINE
  8
0
  6
CONTINUOUS
 62
     7
  5
44F
 10
0.895116
 20
0.444983
 30
0.0
 11
0.89571
 21
0.442271
 31
0.0
  0
LINE
  8
0
  6
CONTINUOUS
 62
     7
  5
450
 10
0.89571
 20
0.442271
 30
0.0
 11
0.89616
 21
0.439661
 31
0.0
  0
LINE
  8
0
  6
CONTINUOUS
 62
     7
  5
451
 10
0.89616
 20
0.439661
 30
0.0
 11
0.896466
 21
0.437156
 31
0.0
  0
LINE
  8
0
  6
CONTINUOUS
 62
     7
  5
452
 10
0.896466
 20
0.437156
 30
0.0
 11
0.896626
 21
0.43476
 31
0.0
  0
LINE
  8
0
  6
CONTINUOUS
 62
     7
  5
453
 10
0.896626
 20
0.43476
 30
0.0
 11
0.89664
 21
0.432477
 31
0.0
  0
LINE
  8
0
  6
CONTINUOUS
 62
     7
  5
454
 10
0.89664
 20
0.432477
 30
0.0
 11
0.89651
 21
0.430311
 31
0.0
  0
LINE
  8
0
  6
CONTINUOUS
 62
     7
  5
455
 10
0.89651
 20
0.430311
 30
0.0
 11
0.896233
 21
0.428264
 31
0.0
  0
LINE
  8
0
  6
CONTINUOUS
 62
     7
  5
456
 10
0.896233
 20
0.428264
 30
0.0
 11
0.895812
 21
0.42634
 31
0.0
  0
LINE
  8
0
  6
CONTINUOUS
 62
     7
  5
457
 10
0.895812
 20
0.42634
 30
0.0
 11
0.895247
 21
0.424542
 31
0.0
  0
LINE
  8
0
  6
CONTINUOUS
 62
     7
  5
458
 10
0.895247
 20
0.424542
 30
0.0
 11
0.894539
 21
0.422873
 31
0.0
  0
LINE
  8
0
  6
CONTINUOUS
 62
     7
  5
459
 10
0.894539
 20
0.422873
 30
0.0
 11
0.893688
 21
0.421334
 31
0.0
  0
LINE
  8
0
  6
CONTINUOUS
 62
     7
  5
45A
 10
0.893688
 20
0.421334
 30
0.0
 11
0.892696
 21
0.41993
 31
0.0
  0
LINE
  8
0
  6
CONTINUOUS
 62
     7
  5
45B
 10
0.892696
 20
0.41993
 30
0.0
 11
0.891565
 21
0.418661
 31
0.0
  0
LINE
  8
0
  6
CONTINUOUS
 62
     7
  5
45C
 10
0.814558
 20
0.555665
 30
0.0
 11
0.849671
 21
0.520552
 31
0.0
  0
LINE
  8
0
  6
CONTINUOUS
 62
     7
  5
45D
 10
0.712667
 20
0.597559
 30
0.0
 11
0.713936
 21
0.59869
 31
0.0
  0
LINE
  8
0
  6
CONTINUOUS
 62
     7
  5
45E
 10
0.713936
 20
0.59869
 30
0.0
 11
0.71534
 21
0.599682
 31
0.0
  0
LINE
  8
0
  6
CONTINUOUS
 62
     7
  5
45F
 10
0.71534
 20
0.599682
 30
0.0
 11
0.716879
 21
0.600533
 31
0.0
  0
LINE
  8
0
  6
CONTINUOUS
 62
     7
  5
460
 10
0.716879
 20
0.600533
 30
0.0
 11
0.718548
 21
0.601241
 31
0.0
  0
LINE
  8
0
  6
CONTINUOUS
 62
     7
  5
461
 10
0.718548
 20
0.601241
 30
0.0
 11
0.720346
 21
0.601807
 31
0.0
  0
LINE
  8
0
  6
CONTINUOUS
 62
     7
  5
462
 10
0.720346
 20
0.601807
 30
0.0
 11
0.72227
 21
0.602228
 31
0.0
  0
LINE
  8
0
  6
CONTINUOUS
 62
     7
  5
463
 10
0.72227
 20
0.602228
 30
0.0
 11
0.724317
 21
0.602504
 31
0.0
  0
LINE
  8
0
  6
CONTINUOUS
 62
     7
  5
464
 10
0.724317
 20
0.602504
 30
0.0
 11
0.726483
 21
0.602635
 31
0.0
  0
LINE
  8
0
  6
CONTINUOUS
 62
     7
  5
465
 10
0.726483
 20
0.602635
 30
0.0
 11
0.728766
 21
0.60262
 31
0.0
  0
LINE
  8
0
  6
CONTINUOUS
 62
     7
  5
466
 10
0.728766
 20
0.60262
 30
0.0
 11
0.731162
 21
0.60246
 31
0.0
  0
LINE
  8
0
  6
CONTINUOUS
 62
     7
  5
467
 10
0.731162
 20
0.60246
 30
0.0
 11
0.733667
 21
0.602154
 31
0.0
  0
LINE
  8
0
  6
CONTINUOUS
 62
     7
  5
468
 10
0.733667
 20
0.602154
 30
0.0
 11
0.736277
 21
0.601704
 31
0.0
  0
LINE
  8
0
  6
CONTINUOUS
 62
     7
  5
469
 10
0.736277
 20
0.601704
 30
0.0
 11
0.738989
 21
0.60111
 31
0.0
  0
LINE
  8
0
  6
CONTINUOUS
 62
     7
  5
46A
 10
0.738989
 20
0.60111
 30
0.0
 11
0.741798
 21
0.600373
 31
0.0
  0
LINE
  8
0
  6
CONTINUOUS
 62
     7
  5
46B
 10
0.741798
 20
0.600373
 30
0.0
 11
0.7447
 21
0.599493
 31
0.0
  0
LINE
  8
0
  6
CONTINUOUS
 62
     7
  5
46C
 10
0.7447
 20
0.599493
 30
0.0
 11
0.74769
 21
0.598473
 31
0.0
  0
LINE
  8
0
  6
CONTINUOUS
 62
     7
  5
46D
 10
0.74769
 20
0.598473
 30
0.0
 11
0.750764
 21
0.597314
 31
0.0
  0
LINE
  8
0
  6
CONTINUOUS
 62
     7
  5
46E
 10
0.750764
 20
0.597314
 30
0.0
 11
0.753917
 21
0.596018
 31
0.0
  0
LINE
  8
0
  6
CONTINUOUS
 62
     7
  5
46F
 10
0.753917
 20
0.596018
 30
0.0
 11
0.757144
 21
0.594586
 31
0.0
  0
LINE
  8
0
  6
CONTINUOUS
 62
     7
  5
470
 10
0.757144
 20
0.594586
 30
0.0
 11
0.76044
 21
0.593021
 31
0.0
  0
LINE
  8
0
  6
CONTINUOUS
 62
     7
  5
471
 10
0.76044
 20
0.593021
 30
0.0
 11
0.763801
 21
0.591326
 31
0.0
  0
LINE
  8
0
  6
CONTINUOUS
 62
     7
  5
472
 10
0.763801
 20
0.591326
 30
0.0
 11
0.76722
 21
0.589502
 31
0.0
  0
LINE
  8
0
  6
CONTINUOUS
 62
     7
  5
473
 10
0.76722
 20
0.589502
 30
0.0
 11
0.770693
 21
0.587554
 31
0.0
  0
LINE
  8
0
  6
CONTINUOUS
 62
     7
  5
474
 10
0.770693
 20
0.587554
 30
0.0
 11
0.774215
 21
0.585482
 31
0.0
  0
LINE
  8
0
  6
CONTINUOUS
 62
     7
  5
475
 10
0.774215
 20
0.585482
 30
0.0
 11
0.777779
 21
0.583292
 31
0.0
  0
LINE
  8
0
  6
CONTINUOUS
 62
     7
  5
476
 10
0.777779
 20
0.583292
 30
0.0
 11
0.781381
 21
0.580986
 31
0.0
  0
LINE
  8
0
  6
CONTINUOUS
 62
     7
  5
477
 10
0.781381
 20
0.580986
 30
0.0
 11
0.785015
 21
0.578568
 31
0.0
  0
LINE
  8
0
  6
CONTINUOUS
 62
     7
  5
478
 10
0.785015
 20
0.578568
 30
0.0
 11
0.788675
 21
0.576041
 31
0.0
  0
LINE
  8
0
  6
CONTINUOUS
 62
     7
  5
479
 10
0.788675
 20
0.576041
 30
0.0
 11
0.792356
 21
0.57341
 31
0.0
  0
LINE
  8
0
  6
CONTINUOUS
 62
     7
  5
47A
 10
0.792356
 20
0.57341
 30
0.0
 11
0.796052
 21
0.570679
 31
0.0
  0
LINE
  8
0
  6
CONTINUOUS
 62
     7
  5
47B
 10
0.796052
 20
0.570679
 30
0.0
 11
0.799757
 21
0.567851
 31
0.0
  0
LINE
  8
0
  6
CONTINUOUS
 62
     7
  5
47C
 10
0.799757
 20
0.567851
 30
0.0
 11
0.803466
 21
0.564931
 31
0.0
  0
LINE
  8
0
  6
CONTINUOUS
 62
     7
  5
47D
 10
0.803466
 20
0.564931
 30
0.0
 11
0.807173
 21
0.561923
 31
0.0
  0
LINE
  8
0
  6
CONTINUOUS
 62
     7
  5
47E
 10
0.807173
 20
0.561923
 30
0.0
 11
0.810872
 21
0.558833
 31
0.0
  0
LINE
  8
0
  6
CONTINUOUS
 62
     7
  5
47F
 10
0.810872
 20
0.558833
 30
0.0
 11
0.814558
 21
0.555665
 31
0.0
  0
LINE
  8
0
  6
CONTINUOUS
 62
     7
  5
480
 10
0.726863
 20
0.532559
 30
0.0
 11
0.725291
 21
0.535105
 31
0.0
  0
LINE
  8
0
  6
CONTINUOUS
 62
     7
  5
481
 10
0.725291
 20
0.535105
 30
0.0
 11
0.723779
 21
0.53763
 31
0.0
  0
LINE
  8
0
  6
CONTINUOUS
 62
     7
  5
482
 10
0.723779
 20
0.53763
 30
0.0
 11
0.722329
 21
0.540132
 31
0.0
  0
LINE
  8
0
  6
CONTINUOUS
 62
     7
  5
483
 10
0.722329
 20
0.540132
 30
0.0
 11
0.720941
 21
0.542609
 31
0.0
  0
LINE
  8
0
  6
CONTINUOUS
 62
     7
  5
484
 10
0.720941
 20
0.542609
 30
0.0
 11
0.719617
 21
0.545059
 31
0.0
  0
LINE
  8
0
  6
CONTINUOUS
 62
     7
  5
485
 10
0.719617
 20
0.545059
 30
0.0
 11
0.718357
 21
0.54748
 31
0.0
  0
LINE
  8
0
  6
CONTINUOUS
 62
     7
  5
486
 10
0.718357
 20
0.54748
 30
0.0
 11
0.717163
 21
0.54987
 31
0.0
  0
LINE
  8
0
  6
CONTINUOUS
 62
     7
  5
487
 10
0.717163
 20
0.54987
 30
0.0
 11
0.716036
 21
0.552227
 31
0.0
  0
LINE
  8
0
  6
CONTINUOUS
 62
     7
  5
488
 10
0.716036
 20
0.552227
 30
0.0
 11
0.714976
 21
0.554549
 31
0.0
  0
LINE
  8
0
  6
CONTINUOUS
 62
     7
  5
489
 10
0.714976
 20
0.554549
 30
0.0
 11
0.713984
 21
0.556836
 31
0.0
  0
LINE
  8
0
  6
CONTINUOUS
 62
     7
  5
48A
 10
0.713984
 20
0.556836
 30
0.0
 11
0.713061
 21
0.559084
 31
0.0
  0
LINE
  8
0
  6
CONTINUOUS
 62
     7
  5
48B
 10
0.713061
 20
0.559084
 30
0.0
 11
0.712209
 21
0.561292
 31
0.0
  0
LINE
  8
0
  6
CONTINUOUS
 62
     7
  5
48C
 10
0.712209
 20
0.561292
 30
0.0
 11
0.711426
 21
0.563459
 31
0.0
  0
LINE
  8
0
  6
CONTINUOUS
 62
     7
  5
48D
 10
0.711426
 20
0.563459
 30
0.0
 11
0.710715
 21
0.565582
 31
0.0
  0
LINE
  8
0
  6
CONTINUOUS
 62
     7
  5
48E
 10
0.710715
 20
0.565582
 30
0.0
 11
0.710075
 21
0.56766
 31
0.0
  0
LINE
  8
0
  6
CONTINUOUS
 62
     7
  5
48F
 10
0.710075
 20
0.56766
 30
0.0
 11
0.709507
 21
0.569691
 31
0.0
  0
LINE
  8
0
  6
CONTINUOUS
 62
     7
  5
490
 10
0.709507
 20
0.569691
 30
0.0
 11
0.709012
 21
0.571675
 31
0.0
  0
LINE
  8
0
  6
CONTINUOUS
 62
     7
  5
491
 10
0.709012
 20
0.571675
 30
0.0
 11
0.708589
 21
0.573608
 31
0.0
  0
LINE
  8
0
  6
CONTINUOUS
 62
     7
  5
492
 10
0.708589
 20
0.573608
 30
0.0
 11
0.70824
 21
0.57549
 31
0.0
  0
LINE
  8
0
  6
CONTINUOUS
 62
     7
  5
493
 10
0.70824
 20
0.57549
 30
0.0
 11
0.707965
 21
0.57732
 31
0.0
  0
LINE
  8
0
  6
CONTINUOUS
 62
     7
  5
494
 10
0.707965
 20
0.57732
 30
0.0
 11
0.707763
 21
0.579095
 31
0.0
  0
LINE
  8
0
  6
CONTINUOUS
 62
     7
  5
495
 10
0.707763
 20
0.579095
 30
0.0
 11
0.707635
 21
0.580814
 31
0.0
  0
LINE
  8
0
  6
CONTINUOUS
 62
     7
  5
496
 10
0.707635
 20
0.580814
 30
0.0
 11
0.707582
 21
0.582477
 31
0.0
  0
LINE
  8
0
  6
CONTINUOUS
 62
     7
  5
497
 10
0.707582
 20
0.582477
 30
0.0
 11
0.707602
 21
0.584081
 31
0.0
  0
LINE
  8
0
  6
CONTINUOUS
 62
     7
  5
498
 10
0.707602
 20
0.584081
 30
0.0
 11
0.707696
 21
0.585626
 31
0.0
  0
LINE
  8
0
  6
CONTINUOUS
 62
     7
  5
499
 10
0.707696
 20
0.585626
 30
0.0
 11
0.707865
 21
0.58711
 31
0.0
  0
LINE
  8
0
  6
CONTINUOUS
 62
     7
  5
49A
 10
0.707865
 20
0.58711
 30
0.0
 11
0.708107
 21
0.588532
 31
0.0
  0
LINE
  8
0
  6
CONTINUOUS
 62
     7
  5
49B
 10
0.708107
 20
0.588532
 30
0.0
 11
0.708422
 21
0.589892
 31
0.0
  0
LINE
  8
0
  6
CONTINUOUS
 62
     7
  5
49C
 10
0.708422
 20
0.589892
 30
0.0
 11
0.708812
 21
0.591187
 31
0.0
  0
LINE
  8
0
  6
CONTINUOUS
 62
     7
  5
49D
 10
0.708812
 20
0.591187
 30
0.0
 11
0.709274
 21
0.592417
 31
0.0
  0
LINE
  8
0
  6
CONTINUOUS
 62
     7
  5
49E
 10
0.709274
 20
0.592417
 30
0.0
 11
0.709809
 21
0.593581
 31
0.0
  0
LINE
  8
0
  6
CONTINUOUS
 62
     7
  5
49F
 10
0.709809
 20
0.593581
 30
0.0
 11
0.710416
 21
0.594678
 31
0.0
  0
LINE
  8
0
  6
CONTINUOUS
 62
     7
  5
4A0
 10
0.710416
 20
0.594678
 30
0.0
 11
0.711095
 21
0.595707
 31
0.0
  0
LINE
  8
0
  6
CONTINUOUS
 62
     7
  5
4A1
 10
0.711095
 20
0.595707
 30
0.0
 11
0.711846
 21
0.596668
 31
0.0
  0
LINE
  8
0
  6
CONTINUOUS
 62
     7
  5
4A2
 10
0.711846
 20
0.596668
 30
0.0
 11
0.712667
 21
0.597559
 31
0.0
  0
LINE
  8
0
  6
CONTINUOUS
 62
     7
  5
4A3
 10
0.803211
 20
0.409503
 30
0.0
 11
0.632357
 21
0.238649
 31
0.0
  0
LINE
  8
0
  6
CONTINUOUS
 62
     7
  5
4A4
 10
0.826565
 20
0.432857
 30
0.0
 11
0.803211
 21
0.409503
 31
0.0
  0
LINE
  8
0
  6
CONTINUOUS
 62
     7
  5
4A5
 10
0.730998
 20
0.639225
 30
0.0
 11
0.814558
 21
0.555665
 31
0.0
  0
LINE
  8
0
  6
CONTINUOUS
 62
     7
  5
4A6
 10
0.652244
 20
0.560471
 30
0.0
 11
0.730998
 21
0.639225
 31
0.0
  0
LINE
  8
0
  6
CONTINUOUS
 62
     7
  5
4A7
 10
0.703509
 20
0.509205
 30
0.0
 11
0.652244
 21
0.560471
 31
0.0
  0
LINE
  8
0
  6
CONTINUOUS
 62
     7
  5
4A8
 10
0.703509
 20
0.509205
 30
0.0
 11
0.726863
 21
0.532559
 31
0.0
  0
LINE
  8
0
  6
CONTINUOUS
 62
     7
  5
4A9
 10
0.532654
 20
-0.338351
 30
0.0
 11
0.489874
 21
-0.381131
 31
0.0
  0
LINE
  8
0
  6
CONTINUOUS
 62
     7
  5
4AA
 10
0.489874
 20
-0.381131
 30
0.0
 11
0.415628
 21
-0.306884
 31
0.0
  0
LINE
  8
0
  6
CONTINUOUS
 62
     7
  5
4AB
 10
0.60089
 20
-0.121622
 30
0.0
 11
0.675136
 21
-0.195869
 31
0.0
  0
LINE
  8
0
  6
CONTINUOUS
 62
     7
  5
4AC
 10
0.675136
 20
-0.195869
 30
0.0
 11
0.632357
 21
-0.238649
 31
0.0
  0
LINE
  8
0
  6
CONTINUOUS
 62
     7
  5
4AD
 10
0.632357
 20
-0.238649
 30
0.0
 11
0.803211
 21
-0.409503
 31
0.0
  0
LINE
  8
0
  6
CONTINUOUS
 62
     7
  5
4AE
 10
0.652244
 20
-0.560471
 30
0.0
 11
0.703509
 21
-0.509205
 31
0.0
  0
LINE
  8
0
  6
CONTINUOUS
 62
     7
  5
4AF
 10
0.730998
 20
-0.639225
 30
0.0
 11
0.652244
 21
-0.560471
 31
0.0
  0
LINE
  8
0
  6
CONTINUOUS
 62
     7
  5
4B0
 10
0.814558
 20
-0.555665
 30
0.0
 11
0.730998
 21
-0.639225
 31
0.0
  0
LINE
  8
0
  6
CONTINUOUS
 62
     7
  5
4B1
 10
0.632357
 20
0.238649
 30
0.0
 11
0.675136
 21
0.195869
 31
0.0
  0
LINE
  8
0
  6
CONTINUOUS
 62
     7
  5
4B2
 10
0.675136
 20
0.195869
 30
0.0
 11
0.60089
 21
0.121622
 31
0.0
  0
LINE
  8
0
  6
CONTINUOUS
 62
     7
  5
4B3
 10
0.415628
 20
0.306884
 30
0.0
 11
0.489874
 21
0.381131
 31
0.0
  0
LINE
  8
0
  6
CONTINUOUS
 62
     7
  5
4B4
 10
0.489874
 20
0.381131
 30
0.0
 11
0.532654
 21
0.338351
 31
0.0
  0
LINE
  8
0
  6
CONTINUOUS
 62
     7
  5
4B5
 10
0.532654
 20
0.338351
 30
0.0
 11
0.703509
 21
0.509205
 31
0.0
  0
LINE
  8
0
  6
CONTINUOUS
 62
     7
  5
4B6
 10
0.97
 20
0.242715
 30
0.0
 11
0.97
 21
-0.242715
 31
0.0
  0
LINE
  8
0
  6
CONTINUOUS
 62
     7
  5
4B7
 10
0.97
 20
0.242715
 30
0.0
 11
0.803211
 21
0.409503
 31
0.0
  0
LINE
  8
0
  6
CONTINUOUS
 62
     7
  5
4B8
 10
0.554663
 20
0.46289
 30
0.0
 11
0.652244
 21
0.560471
 31
0.0
  0
LINE
  8
0
  6
CONTINUOUS
 62
     7
  5
4B9
 10
0.554663
 20
0.46289
 30
0.0
 11
0.454608
 21
0.562945
 31
0.0
  0
LINE
  8
0
  6
CONTINUOUS
 62
     7
  5
4BA
 10
0.454608
 20
0.562945
 30
0.0
 11
0.283753
 21
0.392091
 31
0.0
  0
LINE
  8
0
  6
CONTINUOUS
 62
     7
  5
4BB
 10
0.283753
 20
0.392091
 30
0.0
 11
0.326533
 21
0.349311
 31
0.0
  0
LINE
  8
0
  6
CONTINUOUS
 62
     7
  5
4BC
 10
0.326533
 20
0.349311
 30
0.0
 11
0.252287
 21
0.275065
 31
0.0
  0
LINE
  8
0
  6
CONTINUOUS
 62
     7
  5
4BD
 10
0.067025
 20
0.460327
 30
0.0
 11
0.141271
 21
0.534573
 31
0.0
  0
LINE
  8
0
  6
CONTINUOUS
 62
     7
  5
4BE
 10
0.141271
 20
0.534573
 30
0.0
 11
0.184051
 21
0.491793
 31
0.0
  0
LINE
  8
0
  6
CONTINUOUS
 62
     7
  5
4BF
 10
0.184051
 20
0.491793
 30
0.0
 11
0.354906
 21
0.662648
 31
0.0
  0
LINE
  8
0
  6
CONTINUOUS
 62
     7
  5
4C0
 10
0.354906
 20
0.662648
 30
0.0
 11
0.259877
 21
0.757676
 31
0.0
  0
LINE
  8
0
  6
CONTINUOUS
 62
     7
  5
4C1
 10
0.004954
 20
0.502753
 30
0.0
 11
0.259877
 21
0.757676
 31
0.0
  0
LINE
  8
0
  6
CONTINUOUS
 62
     7
  5
4C2
 10
0.004954
 20
-0.502753
 30
0.0
 11
0.004954
 21
0.502753
 31
0.0
  0
LINE
  8
0
  6
CONTINUOUS
 62
     7
  5
4C3
 10
0.259877
 20
-0.757676
 30
0.0
 11
0.004954
 21
-0.502753
 31
0.0
  0
LINE
  8
0
  6
CONTINUOUS
 62
     7
  5
4C4
 10
0.259877
 20
-0.757676
 30
0.0
 11
0.354906
 21
-0.662648
 31
0.0
  0
LINE
  8
0
  6
CONTINUOUS
 62
     7
  5
4C5
 10
0.354906
 20
-0.662648
 30
0.0
 11
0.184051
 21
-0.491793
 31
0.0
  0
LINE
  8
0
  6
CONTINUOUS
 62
     7
  5
4C6
 10
0.184051
 20
-0.491793
 30
0.0
 11
0.141271
 21
-0.534573
 31
0.0
  0
LINE
  8
0
  6
CONTINUOUS
 62
     7
  5
4C7
 10
0.141271
 20
-0.534573
 30
0.0
 11
0.067025
 21
-0.460327
 31
0.0
  0
LINE
  8
0
  6
CONTINUOUS
 62
     7
  5
4C8
 10
0.252287
 20
-0.275065
 30
0.0
 11
0.326533
 21
-0.349311
 31
0.0
  0
LINE
  8
0
  6
CONTINUOUS
 62
     7
  5
4C9
 10
0.326533
 20
-0.349311
 30
0.0
 11
0.283753
 21
-0.392091
 31
0.0
  0
LINE
  8
0
  6
CONTINUOUS
 62
     7
  5
4CA
 10
0.283753
 20
-0.392091
 30
0.0
 11
0.454608
 21
-0.562945
 31
0.0
  0
LINE
  8
0
  6
CONTINUOUS
 62
     7
  5
4CB
 10
0.454608
 20
-0.562945
 30
0.0
 11
0.554663
 21
-0.46289
 31
0.0
  0
LINE
  8
0
  6
CONTINUOUS
 62
     7
  5
4CC
 10
0.554663
 20
-0.46289
 30
0.0
 11
0.652244
 21
-0.560471
 31
0.0
  0
LINE
  8
0
  6
CONTINUOUS
 62
     7
  5
4CD
 10
0.97
 20
0.400222
 30
0.0
 11
0.97
 21
0.242715
 31
0.0
  0
LINE
  8
0
  6
CONTINUOUS
 62
     7
  5
4CE
 10
0.849671
 20
0.520552
 30
0.0
 11
0.97
 21
0.400222
 31
0.0
  0
LINE
  8
0
  6
CONTINUOUS
 62
     7
  5
4CF
 10
0.97
 20
-0.795
 30
0.0
 11
0.97
 21
-0.400222
 31
0.0
  0
LINE
  8
0
  6
CONTINUOUS
 62
     7
  5
4D0
 10
0.97
 20
0.400222
 30
0.0
 11
0.97
 21
0.795
 31
0.0
  0
LINE
  8
0
  6
CONTINUOUS
 62
     7
  5
4D1
 10
0.498006
 20
-0.606344
 30
0.0
 11
0.454608
 21
-0.562945
 31
0.0
  0
LINE
  8
0
  6
CONTINUOUS
 62
     7
  5
4D2
 10
0.398304
 20
-0.706046
 30
0.0
 11
0.498006
 21
-0.606344
 31
0.0
  0
LINE
  8
0
  6
CONTINUOUS
 62
     7
  5
4D3
 10
0.378259
 20
-0.686001
 30
0.0
 11
0.398304
 21
-0.706046
 31
0.0
  0
LINE
  8
0
  6
CONTINUOUS
 62
     7
  5
4D4
 10
0.364063
 20
-0.751001
 30
0.0
 11
0.363242
 21
-0.75011
 31
0.0
  0
LINE
  8
0
  6
CONTINUOUS
 62
     7
  5
4D5
 10
0.363242
 20
-0.75011
 30
0.0
 11
0.362492
 21
-0.749149
 31
0.0
  0
LINE
  8
0
  6
CONTINUOUS
 62
     7
  5
4D6
 10
0.362492
 20
-0.749149
 30
0.0
 11
0.361812
 21
-0.74812
 31
0.0
  0
LINE
  8
0
  6
CONTINUOUS
 62
     7
  5
4D7
 10
0.361812
 20
-0.74812
 30
0.0
 11
0.361205
 21
-0.747023
 31
0.0
  0
LINE
  8
0
  6
CONTINUOUS
 62
     7
  5
4D8
 10
0.361205
 20
-0.747023
 30
0.0
 11
0.36067
 21
-0.745859
 31
0.0
  0
LINE
  8
0
  6
CONTINUOUS
 62
     7
  5
4D9
 10
0.36067
 20
-0.745859
 30
0.0
 11
0.360208
 21
-0.744629
 31
0.0
  0
LINE
  8
0
  6
CONTINUOUS
 62
     7
  5
4DA
 10
0.360208
 20
-0.744629
 30
0.0
 11
0.359819
 21
-0.743334
 31
0.0
  0
LINE
  8
0
  6
CONTINUOUS
 62
     7
  5
4DB
 10
0.359819
 20
-0.743334
 30
0.0
 11
0.359503
 21
-0.741975
 31
0.0
  0
LINE
  8
0
  6
CONTINUOUS
 62
     7
  5
4DC
 10
0.359503
 20
-0.741975
 30
0.0
 11
0.359261
 21
-0.740552
 31
0.0
  0
LINE
  8
0
  6
CONTINUOUS
 62
     7
  5
4DD
 10
0.359261
 20
-0.740552
 30
0.0
 11
0.359093
 21
-0.739068
 31
0.0
  0
LINE
  8
0
  6
CONTINUOUS
 62
     7
  5
4DE
 10
0.359093
 20
-0.739068
 30
0.0
 11
0.358998
 21
-0.737524
 31
0.0
  0
LINE
  8
0
  6
CONTINUOUS
 62
     7
  5
4DF
 10
0.358998
 20
-0.737524
 30
0.0
 11
0.358978
 21
-0.735919
 31
0.0
  0
LINE
  8
0
  6
CONTINUOUS
 62
     7
  5
4E0
 10
0.358978
 20
-0.735919
 30
0.0
 11
0.359032
 21
-0.734257
 31
0.0
  0
LINE
  8
0
  6
CONTINUOUS
 62
     7
  5
4E1
 10
0.359032
 20
-0.734257
 30
0.0
 11
0.35916
 21
-0.732537
 31
0.0
  0
LINE
  8
0
  6
CONTINUOUS
 62
     7
  5
4E2
 10
0.35916
 20
-0.732537
 30
0.0
 11
0.359361
 21
-0.730762
 31
0.0
  0
LINE
  8
0
  6
CONTINUOUS
 62
     7
  5
4E3
 10
0.359361
 20
-0.730762
 30
0.0
 11
0.359637
 21
-0.728933
 31
0.0
  0
LINE
  8
0
  6
CONTINUOUS
 62
     7
  5
4E4
 10
0.359637
 20
-0.728933
 30
0.0
 11
0.359986
 21
-0.72705
 31
0.0
  0
LINE
  8
0
  6
CONTINUOUS
 62
     7
  5
4E5
 10
0.359986
 20
-0.72705
 30
0.0
 11
0.360408
 21
-0.725117
 31
0.0
  0
LINE
  8
0
  6
CONTINUOUS
 62
     7
  5
4E6
 10
0.360408
 20
-0.725117
 30
0.0
 11
0.360903
 21
-0.723134
 31
0.0
  0
LINE
  8
0
  6
CONTINUOUS
 62
     7
  5
4E7
 10
0.360903
 20
-0.723134
 30
0.0
 11
0.361471
 21
-0.721102
 31
0.0
  0
LINE
  8
0
  6
CONTINUOUS
 62
     7
  5
4E8
 10
0.361471
 20
-0.721102
 30
0.0
 11
0.362111
 21
-0.719024
 31
0.0
  0
LINE
  8
0
  6
CONTINUOUS
 62
     7
  5
4E9
 10
0.362111
 20
-0.719024
 30
0.0
 11
0.362822
 21
-0.716901
 31
0.0
  0
LINE
  8
0
  6
CONTINUOUS
 62
     7
  5
4EA
 10
0.362822
 20
-0.716901
 30
0.0
 11
0.363605
 21
-0.714734
 31
0.0
  0
LINE
  8
0
  6
CONTINUOUS
 62
     7
  5
4EB
 10
0.363605
 20
-0.714734
 30
0.0
 11
0.364458
 21
-0.712526
 31
0.0
  0
LINE
  8
0
  6
CONTINUOUS
 62
     7
  5
4EC
 10
0.364458
 20
-0.712526
 30
0.0
 11
0.365381
 21
-0.710278
 31
0.0
  0
LINE
  8
0
  6
CONTINUOUS
 62
     7
  5
4ED
 10
0.365381
 20
-0.710278
 30
0.0
 11
0.366372
 21
-0.707992
 31
0.0
  0
LINE
  8
0
  6
CONTINUOUS
 62
     7
  5
4EE
 10
0.366372
 20
-0.707992
 30
0.0
 11
0.367432
 21
-0.705669
 31
0.0
  0
LINE
  8
0
  6
CONTINUOUS
 62
     7
  5
4EF
 10
0.367432
 20
-0.705669
 30
0.0
 11
0.36856
 21
-0.703312
 31
0.0
  0
LINE
  8
0
  6
CONTINUOUS
 62
     7
  5
4F0
 10
0.36856
 20
-0.703312
 30
0.0
 11
0.369754
 21
-0.700922
 31
0.0
  0
LINE
  8
0
  6
CONTINUOUS
 62
     7
  5
4F1
 10
0.369754
 20
-0.700922
 30
0.0
 11
0.371013
 21
-0.698501
 31
0.0
  0
LINE
  8
0
  6
CONTINUOUS
 62
     7
  5
4F2
 10
0.371013
 20
-0.698501
 30
0.0
 11
0.372338
 21
-0.696051
 31
0.0
  0
LINE
  8
0
  6
CONTINUOUS
 62
     7
  5
4F3
 10
0.372338
 20
-0.696051
 30
0.0
 11
0.373726
 21
-0.693574
 31
0.0
  0
LINE
  8
0
  6
CONTINUOUS
 62
     7
  5
4F4
 10
0.373726
 20
-0.693574
 30
0.0
 11
0.375176
 21
-0.691073
 31
0.0
  0
LINE
  8
0
  6
CONTINUOUS
 62
     7
  5
4F5
 10
0.375176
 20
-0.691073
 30
0.0
 11
0.376688
 21
-0.688548
 31
0.0
  0
LINE
  8
0
  6
CONTINUOUS
 62
     7
  5
4F6
 10
0.376688
 20
-0.688548
 30
0.0
 11
0.378259
 21
-0.686001
 31
0.0
  0
LINE
  8
0
  6
CONTINUOUS
 62
     7
  5
4F7
 10
0.465954
 20
-0.709107
 30
0.0
 11
0.462268
 21
-0.712275
 31
0.0
  0
LINE
  8
0
  6
CONTINUOUS
 62
     7
  5
4F8
 10
0.462268
 20
-0.712275
 30
0.0
 11
0.458569
 21
-0.715366
 31
0.0
  0
LINE
  8
0
  6
CONTINUOUS
 62
     7
  5
4F9
 10
0.458569
 20
-0.715366
 30
0.0
 11
0.454863
 21
-0.718373
 31
0.0
  0
LINE
  8
0
  6
CONTINUOUS
 62
     7
  5
4FA
 10
0.454863
 20
-0.718373
 30
0.0
 11
0.451154
 21
-0.721293
 31
0.0
  0
LINE
  8
0
  6
CONTINUOUS
 62
     7
  5
4FB
 10
0.451154
 20
-0.721293
 30
0.0
 11
0.447448
 21
-0.724121
 31
0.0
  0
LINE
  8
0
  6
CONTINUOUS
 62
     7
  5
4FC
 10
0.447448
 20
-0.724121
 30
0.0
 11
0.443753
 21
-0.726852
 31
0.0
  0
LINE
  8
0
  6
CONTINUOUS
 62
     7
  5
4FD
 10
0.443753
 20
-0.726852
 30
0.0
 11
0.440072
 21
-0.729484
 31
0.0
  0
LINE
  8
0
  6
CONTINUOUS
 62
     7
  5
4FE
 10
0.440072
 20
-0.729484
 30
0.0
 11
0.436411
 21
-0.73201
 31
0.0
  0
LINE
  8
0
  6
CONTINUOUS
 62
     7
  5
4FF
 10
0.436411
 20
-0.73201
 30
0.0
 11
0.432778
 21
-0.734428
 31
0.0
  0
LINE
  8
0
  6
CONTINUOUS
 62
     7
  5
500
 10
0.432778
 20
-0.734428
 30
0.0
 11
0.429176
 21
-0.736734
 31
0.0
  0
LINE
  8
0
  6
CONTINUOUS
 62
     7
  5
501
 10
0.429176
 20
-0.736734
 30
0.0
 11
0.425611
 21
-0.738925
 31
0.0
  0
LINE
  8
0
  6
CONTINUOUS
 62
     7
  5
502
 10
0.425611
 20
-0.738925
 30
0.0
 11
0.42209
 21
-0.740996
 31
0.0
  0
LINE
  8
0
  6
CONTINUOUS
 62
     7
  5
503
 10
0.42209
 20
-0.740996
 30
0.0
 11
0.418616
 21
-0.742945
 31
0.0
  0
LINE
  8
0
  6
CONTINUOUS
 62
     7
  5
504
 10
0.418616
 20
-0.742945
 30
0.0
 11
0.415197
 21
-0.744768
 31
0.0
  0
LINE
  8
0
  6
CONTINUOUS
 62
     7
  5
505
 10
0.415197
 20
-0.744768
 30
0.0
 11
0.411836
 21
-0.746464
 31
0.0
  0
LINE
  8
0
  6
CONTINUOUS
 62
     7
  5
506
 10
0.411836
 20
-0.746464
 30
0.0
 11
0.40854
 21
-0.748028
 31
0.0
  0
LINE
  8
0
  6
CONTINUOUS
 62
     7
  5
507
 10
0.40854
 20
-0.748028
 30
0.0
 11
0.405313
 21
-0.74946
 31
0.0
  0
LINE
  8
0
  6
CONTINUOUS
 62
     7
  5
508
 10
0.405313
 20
-0.74946
 30
0.0
 11
0.40216
 21
-0.750757
 31
0.0
  0
LINE
  8
0
  6
CONTINUOUS
 62
     7
  5
509
 10
0.40216
 20
-0.750757
 30
0.0
 11
0.399086
 21
-0.751916
 31
0.0
  0
LINE
  8
0
  6
CONTINUOUS
 62
     7
  5
50A
 10
0.399086
 20
-0.751916
 30
0.0
 11
0.396096
 21
-0.752936
 31
0.0
  0
LINE
  8
0
  6
CONTINUOUS
 62
     7
  5
50B
 10
0.396096
 20
-0.752936
 30
0.0
 11
0.393194
 21
-0.753815
 31
0.0
  0
LINE
  8
0
  6
CONTINUOUS
 62
     7
  5
50C
 10
0.393194
 20
-0.753815
 30
0.0
 11
0.390385
 21
-0.754552
 31
0.0
  0
LINE
  8
0
  6
CONTINUOUS
 62
     7
  5
50D
 10
0.390385
 20
-0.754552
 30
0.0
 11
0.387674
 21
-0.755146
 31
0.0
  0
LINE
  8
0
  6
CONTINUOUS
 62
     7
  5
50E
 10
0.387674
 20
-0.755146
 30
0.0
 11
0.385063
 21
-0.755597
 31
0.0
  0
LINE
  8
0
  6
CONTINUOUS
 62
     7
  5
50F
 10
0.385063
 20
-0.755597
 30
0.0
 11
0.382558
 21
-0.755902
 31
0.0
  0
LINE
  8
0
  6
CONTINUOUS
 62
     7
  5
510
 10
0.382558
 20
-0.755902
 30
0.0
 11
0.380162
 21
-0.756062
 31
0.0
  0
LINE
  8
0
  6
CONTINUOUS
 62
     7
  5
511
 10
0.380162
 20
-0.756062
 30
0.0
 11
0.377879
 21
-0.756077
 31
0.0
  0
LINE
  8
0
  6
CONTINUOUS
 62
     7
  5
512
 10
0.377879
 20
-0.756077
 30
0.0
 11
0.375713
 21
-0.755946
 31
0.0
  0
LINE
  8
0
  6
CONTINUOUS
 62
     7
  5
513
 10
0.375713
 20
-0.755946
 30
0.0
 11
0.373666
 21
-0.75567
 31
0.0
  0
LINE
  8
0
  6
CONTINUOUS
 62
     7
  5
514
 10
0.373666
 20
-0.75567
 30
0.0
 11
0.371742
 21
-0.755249
 31
0.0
  0
LINE
  8
0
  6
CONTINUOUS
 62
     7
  5
515
 10
0.371742
 20
-0.755249
 30
0.0
 11
0.369944
 21
-0.754684
 31
0.0
  0
LINE
  8
0
  6
CONTINUOUS
 62
     7
  5
516
 10
0.369944
 20
-0.754684
 30
0.0
 11
0.368275
 21
-0.753975
 31
0.0
  0
LINE
  8
0
  6
CONTINUOUS
 62
     7
  5
517
 10
0.368275
 20
-0.753975
 30
0.0
 11
0.366737
 21
-0.753124
 31
0.0
  0
LINE
  8
0
  6
CONTINUOUS
 62
     7
  5
518
 10
0.366737
 20
-0.753124
 30
0.0
 11
0.365332
 21
-0.752132
 31
0.0
  0
LINE
  8
0
  6
CONTINUOUS
 62
     7
  5
519
 10
0.365332
 20
-0.752132
 30
0.0
 11
0.364063
 21
-0.751001
 31
0.0
  0
LINE
  8
0
  6
CONTINUOUS
 62
     7
  5
51A
 10
0.501067
 20
-0.673994
 30
0.0
 11
0.465954
 21
-0.709107
 31
0.0
  0
LINE
  8
0
  6
CONTINUOUS
 62
     7
  5
51B
 10
0.542961
 20
-0.572103
 30
0.0
 11
0.544092
 21
-0.573372
 31
0.0
  0
LINE
  8
0
  6
CONTINUOUS
 62
     7
  5
51C
 10
0.544092
 20
-0.573372
 30
0.0
 11
0.545084
 21
-0.574777
 31
0.0
  0
LINE
  8
0
  6
CONTINUOUS
 62
     7
  5
51D
 10
0.545084
 20
-0.574777
 30
0.0
 11
0.545935
 21
-0.576315
 31
0.0
  0
LINE
  8
0
  6
CONTINUOUS
 62
     7
  5
51E
 10
0.545935
 20
-0.576315
 30
0.0
 11
0.546644
 21
-0.577984
 31
0.0
  0
LINE
  8
0
  6
CONTINUOUS
 62
     7
  5
51F
 10
0.546644
 20
-0.577984
 30
0.0
 11
0.547209
 21
-0.579782
 31
0.0
  0
LINE
  8
0
  6
CONTINUOUS
 62
     7
  5
520
 10
0.547209
 20
-0.579782
 30
0.0
 11
0.54763
 21
-0.581706
 31
0.0
  0
LINE
  8
0
  6
CONTINUOUS
 62
     7
  5
521
 10
0.54763
 20
-0.581706
 30
0.0
 11
0.547906
 21
-0.583753
 31
0.0
  0
LINE
  8
0
  6
CONTINUOUS
 62
     7
  5
522
 10
0.547906
 20
-0.583753
 30
0.0
 11
0.548037
 21
-0.585919
 31
0.0
  0
LINE
  8
0
  6
CONTINUOUS
 62
     7
  5
523
 10
0.548037
 20
-0.585919
 30
0.0
 11
0.548022
 21
-0.588202
 31
0.0
  0
LINE
  8
0
  6
CONTINUOUS
 62
     7
  5
524
 10
0.548022
 20
-0.588202
 30
0.0
 11
0.547862
 21
-0.590598
 31
0.0
  0
LINE
  8
0
  6
CONTINUOUS
 62
     7
  5
525
 10
0.547862
 20
-0.590598
 30
0.0
 11
0.547557
 21
-0.593103
 31
0.0
  0
LINE
  8
0
  6
CONTINUOUS
 62
     7
  5
526
 10
0.547557
 20
-0.593103
 30
0.0
 11
0.547107
 21
-0.595713
 31
0.0
  0
LINE
  8
0
  6
CONTINUOUS
 62
     7
  5
527
 10
0.547107
 20
-0.595713
 30
0.0
 11
0.546512
 21
-0.598425
 31
0.0
  0
LINE
  8
0
  6
CONTINUOUS
 62
     7
  5
528
 10
0.546512
 20
-0.598425
 30
0.0
 11
0.545775
 21
-0.601234
 31
0.0
  0
LINE
  8
0
  6
CONTINUOUS
 62
     7
  5
529
 10
0.545775
 20
-0.601234
 30
0.0
 11
0.544896
 21
-0.604136
 31
0.0
  0
LINE
  8
0
  6
CONTINUOUS
 62
     7
  5
52A
 10
0.544896
 20
-0.604136
 30
0.0
 11
0.543876
 21
-0.607126
 31
0.0
  0
LINE
  8
0
  6
CONTINUOUS
 62
     7
  5
52B
 10
0.543876
 20
-0.607126
 30
0.0
 11
0.542717
 21
-0.6102
 31
0.0
  0
LINE
  8
0
  6
CONTINUOUS
 62
     7
  5
52C
 10
0.542717
 20
-0.6102
 30
0.0
 11
0.54142
 21
-0.613353
 31
0.0
  0
LINE
  8
0
  6
CONTINUOUS
 62
     7
  5
52D
 10
0.54142
 20
-0.613353
 30
0.0
 11
0.539989
 21
-0.61658
 31
0.0
  0
LINE
  8
0
  6
CONTINUOUS
 62
     7
  5
52E
 10
0.539989
 20
-0.61658
 30
0.0
 11
0.538424
 21
-0.619876
 31
0.0
  0
LINE
  8
0
  6
CONTINUOUS
 62
     7
  5
52F
 10
0.538424
 20
-0.619876
 30
0.0
 11
0.536728
 21
-0.623237
 31
0.0
  0
LINE
  8
0
  6
CONTINUOUS
 62
     7
  5
530
 10
0.536728
 20
-0.623237
 30
0.0
 11
0.534905
 21
-0.626656
 31
0.0
  0
LINE
  8
0
  6
CONTINUOUS
 62
     7
  5
531
 10
0.534905
 20
-0.626656
 30
0.0
 11
0.532956
 21
-0.630129
 31
0.0
  0
LINE
  8
0
  6
CONTINUOUS
 62
     7
  5
532
 10
0.532956
 20
-0.630129
 30
0.0
 11
0.530885
 21
-0.633651
 31
0.0
  0
LINE
  8
0
  6
CONTINUOUS
 62
     7
  5
533
 10
0.530885
 20
-0.633651
 30
0.0
 11
0.528694
 21
-0.637216
 31
0.0
  0
LINE
  8
0
  6
CONTINUOUS
 62
     7
  5
534
 10
0.528694
 20
-0.637216
 30
0.0
 11
0.526388
 21
-0.640817
 31
0.0
  0
LINE
  8
0
  6
CONTINUOUS
 62
     7
  5
535
 10
0.526388
 20
-0.640817
 30
0.0
 11
0.52397
 21
-0.644451
 31
0.0
  0
LINE
  8
0
  6
CONTINUOUS
 62
     7
  5
536
 10
0.52397
 20
-0.644451
 30
0.0
 11
0.521444
 21
-0.648112
 31
0.0
  0
LINE
  8
0
  6
CONTINUOUS
 62
     7
  5
537
 10
0.521444
 20
-0.648112
 30
0.0
 11
0.518813
 21
-0.651792
 31
0.0
  0
LINE
  8
0
  6
CONTINUOUS
 62
     7
  5
538
 10
0.518813
 20
-0.651792
 30
0.0
 11
0.516081
 21
-0.655488
 31
0.0
  0
LINE
  8
0
  6
CONTINUOUS
 62
     7
  5
539
 10
0.516081
 20
-0.655488
 30
0.0
 11
0.513253
 21
-0.659194
 31
0.0
  0
LINE
  8
0
  6
CONTINUOUS
 62
     7
  5
53A
 10
0.513253
 20
-0.659194
 30
0.0
 11
0.510333
 21
-0.662902
 31
0.0
  0
LINE
  8
0
  6
CONTINUOUS
 62
     7
  5
53B
 10
0.510333
 20
-0.662902
 30
0.0
 11
0.507326
 21
-0.666609
 31
0.0
  0
LINE
  8
0
  6
CONTINUOUS
 62
     7
  5
53C
 10
0.507326
 20
-0.666609
 30
0.0
 11
0.504235
 21
-0.670308
 31
0.0
  0
LINE
  8
0
  6
CONTINUOUS
 62
     7
  5
53D
 10
0.504235
 20
-0.670308
 30
0.0
 11
0.501067
 21
-0.673994
 31
0.0
  0
LINE
  8
0
  6
CONTINUOUS
 62
     7
  5
53E
 10
0.477962
 20
-0.586299
 30
0.0
 11
0.480508
 21
-0.584727
 31
0.0
  0
LINE
  8
0
  6
CONTINUOUS
 62
     7
  5
53F
 10
0.480508
 20
-0.584727
 30
0.0
 11
0.483033
 21
-0.583216
 31
0.0
  0
LINE
  8
0
  6
CONTINUOUS
 62
     7
  5
540
 10
0.483033
 20
-0.583216
 30
0.0
 11
0.485534
 21
-0.581765
 31
0.0
  0
LINE
  8
0
  6
CONTINUOUS
 62
     7
  5
541
 10
0.485534
 20
-0.581765
 30
0.0
 11
0.488011
 21
-0.580378
 31
0.0
  0
LINE
  8
0
  6
CONTINUOUS
 62
     7
  5
542
 10
0.488011
 20
-0.580378
 30
0.0
 11
0.490461
 21
-0.579053
 31
0.0
  0
LINE
  8
0
  6
CONTINUOUS
 62
     7
  5
543
 10
0.490461
 20
-0.579053
 30
0.0
 11
0.492882
 21
-0.577794
 31
0.0
  0
LINE
  8
0
  6
CONTINUOUS
 62
     7
  5
544
 10
0.492882
 20
-0.577794
 30
0.0
 11
0.495272
 21
-0.5766
 31
0.0
  0
LINE
  8
0
  6
CONTINUOUS
 62
     7
  5
545
 10
0.495272
 20
-0.5766
 30
0.0
 11
0.497629
 21
-0.575472
 31
0.0
  0
LINE
  8
0
  6
CONTINUOUS
 62
     7
  5
546
 10
0.497629
 20
-0.575472
 30
0.0
 11
0.499952
 21
-0.574412
 31
0.0
  0
LINE
  8
0
  6
CONTINUOUS
 62
     7
  5
547
 10
0.499952
 20
-0.574412
 30
0.0
 11
0.502238
 21
-0.57342
 31
0.0
  0
LINE
  8
0
  6
CONTINUOUS
 62
     7
  5
548
 10
0.502238
 20
-0.57342
 30
0.0
 11
0.504486
 21
-0.572498
 31
0.0
  0
LINE
  8
0
  6
CONTINUOUS
 62
     7
  5
549
 10
0.504486
 20
-0.572498
 30
0.0
 11
0.506694
 21
-0.571645
 31
0.0
  0
LINE
  8
0
  6
CONTINUOUS
 62
     7
  5
54A
 10
0.506694
 20
-0.571645
 30
0.0
 11
0.508861
 21
-0.570862
 31
0.0
  0
LINE
  8
0
  6
CONTINUOUS
 62
     7
  5
54B
 10
0.508861
 20
-0.570862
 30
0.0
 11
0.510984
 21
-0.570151
 31
0.0
  0
LINE
  8
0
  6
CONTINUOUS
 62
     7
  5
54C
 10
0.510984
 20
-0.570151
 30
0.0
 11
0.513062
 21
-0.569511
 31
0.0
  0
LINE
  8
0
  6
CONTINUOUS
 62
     7
  5
54D
 10
0.513062
 20
-0.569511
 30
0.0
 11
0.515094
 21
-0.568943
 31
0.0
  0
LINE
  8
0
  6
CONTINUOUS
 62
     7
  5
54E
 10
0.515094
 20
-0.568943
 30
0.0
 11
0.517077
 21
-0.568448
 31
0.0
  0
LINE
  8
0
  6
CONTINUOUS
 62
     7
  5
54F
 10
0.517077
 20
-0.568448
 30
0.0
 11
0.51901
 21
-0.568026
 31
0.0
  0
LINE
  8
0
  6
CONTINUOUS
 62
     7
  5
550
 10
0.51901
 20
-0.568026
 30
0.0
 11
0.520893
 21
-0.567677
 31
0.0
  0
LINE
  8
0
  6
CONTINUOUS
 62
     7
  5
551
 10
0.520893
 20
-0.567677
 30
0.0
 11
0.522722
 21
-0.567401
 31
0.0
  0
LINE
  8
0
  6
CONTINUOUS
 62
     7
  5
552
 10
0.522722
 20
-0.567401
 30
0.0
 11
0.524497
 21
-0.567199
 31
0.0
  0
LINE
  8
0
  6
CONTINUOUS
 62
     7
  5
553
 10
0.524497
 20
-0.567199
 30
0.0
 11
0.526217
 21
-0.567072
 31
0.0
  0
LINE
  8
0
  6
CONTINUOUS
 62
     7
  5
554
 10
0.526217
 20
-0.567072
 30
0.0
 11
0.527879
 21
-0.567018
 31
0.0
  0
LINE
  8
0
  6
CONTINUOUS
 62
     7
  5
555
 10
0.527879
 20
-0.567018
 30
0.0
 11
0.529484
 21
-0.567038
 31
0.0
  0
LINE
  8
0
  6
CONTINUOUS
 62
     7
  5
556
 10
0.529484
 20
-0.567038
 30
0.0
 11
0.531028
 21
-0.567133
 31
0.0
  0
LINE
  8
0
  6
CONTINUOUS
 62
     7
  5
557
 10
0.531028
 20
-0.567133
 30
0.0
 11
0.532513
 21
-0.567301
 31
0.0
  0
LINE
  8
0
  6
CONTINUOUS
 62
     7
  5
558
 10
0.532513
 20
-0.567301
 30
0.0
 11
0.533935
 21
-0.567543
 31
0.0
  0
LINE
  8
0
  6
CONTINUOUS
 62
     7
  5
559
 10
0.533935
 20
-0.567543
 30
0.0
 11
0.535294
 21
-0.567859
 31
0.0
  0
LINE
  8
0
  6
CONTINUOUS
 62
     7
  5
55A
 10
0.535294
 20
-0.567859
 30
0.0
 11
0.536589
 21
-0.568248
 31
0.0
  0
LINE
  8
0
  6
CONTINUOUS
 62
     7
  5
55B
 10
0.536589
 20
-0.568248
 30
0.0
 11
0.537819
 21
-0.56871
 31
0.0
  0
LINE
  8
0
  6
CONTINUOUS
 62
     7
  5
55C
 10
0.537819
 20
-0.56871
 30
0.0
 11
0.538983
 21
-0.569245
 31
0.0
  0
LINE
  8
0
  6
CONTINUOUS
 62
     7
  5
55D
 10
0.538983
 20
-0.569245
 30
0.0
 11
0.54008
 21
-0.569852
 31
0.0
  0
LINE
  8
0
  6
CONTINUOUS
 62
     7
  5
55E
 10
0.54008
 20
-0.569852
 30
0.0
 11
0.541109
 21
-0.570532
 31
0.0
  0
LINE
  8
0
  6
CONTINUOUS
 62
     7
  5
55F
 10
0.541109
 20
-0.570532
 30
0.0
 11
0.54207
 21
-0.571282
 31
0.0
  0
LINE
  8
0
  6
CONTINUOUS
 62
     7
  5
560
 10
0.54207
 20
-0.571282
 30
0.0
 11
0.542961
 21
-0.572103
 31
0.0
  0
LINE
  8
0
  6
CONTINUOUS
 62
     7
  5
561
 10
0.378259
 20
-0.686001
 30
0.0
 11
0.354906
 21
-0.662648
 31
0.0
  0
LINE
  8
0
  6
CONTINUOUS
 62
     7
  5
562
 10
0.633417
 20
-0.541644
 30
0.0
 11
0.501067
 21
-0.673994
 31
0.0
  0
LINE
  8
0
  6
CONTINUOUS
 62
     7
  5
563
 10
0.454608
 20
-0.562945
 30
0.0
 11
0.477962
 21
-0.586299
 31
0.0
  0
LINE
  8
0
  6
CONTINUOUS
 62
     7
  5
564
 10
0.398304
 20
0.706046
 30
0.0
 11
0.354906
 21
0.662648
 31
0.0
  0
LINE
  8
0
  6
CONTINUOUS
 62
     7
  5
565
 10
0.498006
 20
0.606344
 30
0.0
 11
0.398304
 21
0.706046
 31
0.0
  0
LINE
  8
0
  6
CONTINUOUS
 62
     7
  5
566
 10
0.477962
 20
0.586299
 30
0.0
 11
0.498006
 21
0.606344
 31
0.0
  0
LINE
  8
0
  6
CONTINUOUS
 62
     7
  5
567
 10
0.542961
 20
0.572103
 30
0.0
 11
0.54207
 21
0.571282
 31
0.0
  0
LINE
  8
0
  6
CONTINUOUS
 62
     7
  5
568
 10
0.54207
 20
0.571282
 30
0.0
 11
0.541109
 21
0.570532
 31
0.0
  0
LINE
  8
0
  6
CONTINUOUS
 62
     7
  5
569
 10
0.541109
 20
0.570532
 30
0.0
 11
0.54008
 21
0.569852
 31
0.0
  0
LINE
  8
0
  6
CONTINUOUS
 62
     7
  5
56A
 10
0.54008
 20
0.569852
 30
0.0
 11
0.538983
 21
0.569245
 31
0.0
  0
LINE
  8
0
  6
CONTINUOUS
 62
     7
  5
56B
 10
0.538983
 20
0.569245
 30
0.0
 11
0.537819
 21
0.56871
 31
0.0
  0
LINE
  8
0
  6
CONTINUOUS
 62
     7
  5
56C
 10
0.537819
 20
0.56871
 30
0.0
 11
0.536589
 21
0.568248
 31
0.0
  0
LINE
  8
0
  6
CONTINUOUS
 62
     7
  5
56D
 10
0.536589
 20
0.568248
 30
0.0
 11
0.535294
 21
0.567859
 31
0.0
  0
LINE
  8
0
  6
CONTINUOUS
 62
     7
  5
56E
 10
0.535294
 20
0.567859
 30
0.0
 11
0.533935
 21
0.567543
 31
0.0
  0
LINE
  8
0
  6
CONTINUOUS
 62
     7
  5
56F
 10
0.533935
 20
0.567543
 30
0.0
 11
0.532513
 21
0.567301
 31
0.0
  0
LINE
  8
0
  6
CONTINUOUS
 62
     7
  5
570
 10
0.532513
 20
0.567301
 30
0.0
 11
0.531028
 21
0.567133
 31
0.0
  0
LINE
  8
0
  6
CONTINUOUS
 62
     7
  5
571
 10
0.531028
 20
0.567133
 30
0.0
 11
0.529484
 21
0.567038
 31
0.0
  0
LINE
  8
0
  6
CONTINUOUS
 62
     7
  5
572
 10
0.529484
 20
0.567038
 30
0.0
 11
0.527879
 21
0.567018
 31
0.0
  0
LINE
  8
0
  6
CONTINUOUS
 62
     7
  5
573
 10
0.527879
 20
0.567018
 30
0.0
 11
0.526217
 21
0.567072
 31
0.0
  0
LINE
  8
0
  6
CONTINUOUS
 62
     7
  5
574
 10
0.526217
 20
0.567072
 30
0.0
 11
0.524497
 21
0.567199
 31
0.0
  0
LINE
  8
0
  6
CONTINUOUS
 62
     7
  5
575
 10
0.524497
 20
0.567199
 30
0.0
 11
0.522722
 21
0.567401
 31
0.0
  0
LINE
  8
0
  6
CONTINUOUS
 62
     7
  5
576
 10
0.522722
 20
0.567401
 30
0.0
 11
0.520893
 21
0.567677
 31
0.0
  0
LINE
  8
0
  6
CONTINUOUS
 62
     7
  5
577
 10
0.520893
 20
0.567677
 30
0.0
 11
0.51901
 21
0.568026
 31
0.0
  0
LINE
  8
0
  6
CONTINUOUS
 62
     7
  5
578
 10
0.51901
 20
0.568026
 30
0.0
 11
0.517077
 21
0.568448
 31
0.0
  0
LINE
  8
0
  6
CONTINUOUS
 62
     7
  5
579
 10
0.517077
 20
0.568448
 30
0.0
 11
0.515094
 21
0.568943
 31
0.0
  0
LINE
  8
0
  6
CONTINUOUS
 62
     7
  5
57A
 10
0.515094
 20
0.568943
 30
0.0
 11
0.513062
 21
0.569511
 31
0.0
  0
LINE
  8
0
  6
CONTINUOUS
 62
     7
  5
57B
 10
0.513062
 20
0.569511
 30
0.0
 11
0.510984
 21
0.570151
 31
0.0
  0
LINE
  8
0
  6
CONTINUOUS
 62
     7
  5
57C
 10
0.510984
 20
0.570151
 30
0.0
 11
0.508861
 21
0.570862
 31
0.0
  0
LINE
  8
0
  6
CONTINUOUS
 62
     7
  5
57D
 10
0.508861
 20
0.570862
 30
0.0
 11
0.506694
 21
0.571645
 31
0.0
  0
LINE
  8
0
  6
CONTINUOUS
 62
     7
  5
57E
 10
0.506694
 20
0.571645
 30
0.0
 11
0.504486
 21
0.572498
 31
0.0
  0
LINE
  8
0
  6
CONTINUOUS
 62
     7
  5
57F
 10
0.504486
 20
0.572498
 30
0.0
 11
0.502238
 21
0.57342
 31
0.0
  0
LINE
  8
0
  6
CONTINUOUS
 62
     7
  5
580
 10
0.502238
 20
0.57342
 30
0.0
 11
0.499952
 21
0.574412
 31
0.0
  0
LINE
  8
0
  6
CONTINUOUS
 62
     7
  5
581
 10
0.499952
 20
0.574412
 30
0.0
 11
0.497629
 21
0.575472
 31
0.0
  0
LINE
  8
0
  6
CONTINUOUS
 62
     7
  5
582
 10
0.497629
 20
0.575472
 30
0.0
 11
0.495272
 21
0.5766
 31
0.0
  0
LINE
  8
0
  6
CONTINUOUS
 62
     7
  5
583
 10
0.495272
 20
0.5766
 30
0.0
 11
0.492882
 21
0.577794
 31
0.0
  0
LINE
  8
0
  6
CONTINUOUS
 62
     7
  5
584
 10
0.492882
 20
0.577794
 30
0.0
 11
0.490461
 21
0.579053
 31
0.0
  0
LINE
  8
0
  6
CONTINUOUS
 62
     7
  5
585
 10
0.490461
 20
0.579053
 30
0.0
 11
0.488011
 21
0.580378
 31
0.0
  0
LINE
  8
0
  6
CONTINUOUS
 62
     7
  5
586
 10
0.488011
 20
0.580378
 30
0.0
 11
0.485534
 21
0.581765
 31
0.0
  0
LINE
  8
0
  6
CONTINUOUS
 62
     7
  5
587
 10
0.485534
 20
0.581765
 30
0.0
 11
0.483033
 21
0.583216
 31
0.0
  0
LINE
  8
0
  6
CONTINUOUS
 62
     7
  5
588
 10
0.483033
 20
0.583216
 30
0.0
 11
0.480508
 21
0.584727
 31
0.0
  0
LINE
  8
0
  6
CONTINUOUS
 62
     7
  5
589
 10
0.480508
 20
0.584727
 30
0.0
 11
0.477962
 21
0.586299
 31
0.0
  0
LINE
  8
0
  6
CONTINUOUS
 62
     7
  5
58A
 10
0.501067
 20
0.673994
 30
0.0
 11
0.504235
 21
0.670308
 31
0.0
  0
LINE
  8
0
  6
CONTINUOUS
 62
     7
  5
58B
 10
0.504235
 20
0.670308
 30
0.0
 11
0.507326
 21
0.666609
 31
0.0
  0
LINE
  8
0
  6
CONTINUOUS
 62
     7
  5
58C
 10
0.507326
 20
0.666609
 30
0.0
 11
0.510333
 21
0.662902
 31
0.0
  0
LINE
  8
0
  6
CONTINUOUS
 62
     7
  5
58D
 10
0.510333
 20
0.662902
 30
0.0
 11
0.513253
 21
0.659194
 31
0.0
  0
LINE
  8
0
  6
CONTINUOUS
 62
     7
  5
58E
 10
0.513253
 20
0.659194
 30
0.0
 11
0.516081
 21
0.655488
 31
0.0
  0
LINE
  8
0
  6
CONTINUOUS
 62
     7
  5
58F
 10
0.516081
 20
0.655488
 30
0.0
 11
0.518813
 21
0.651792
 31
0.0
  0
LINE
  8
0
  6
CONTINUOUS
 62
     7
  5
590
 10
0.518813
 20
0.651792
 30
0.0
 11
0.521444
 21
0.648112
 31
0.0
  0
LINE
  8
0
  6
CONTINUOUS
 62
     7
  5
591
 10
0.521444
 20
0.648112
 30
0.0
 11
0.52397
 21
0.644451
 31
0.0
  0
LINE
  8
0
  6
CONTINUOUS
 62
     7
  5
592
 10
0.52397
 20
0.644451
 30
0.0
 11
0.526388
 21
0.640817
 31
0.0
  0
LINE
  8
0
  6
CONTINUOUS
 62
     7
  5
593
 10
0.526388
 20
0.640817
 30
0.0
 11
0.528694
 21
0.637216
 31
0.0
  0
LINE
  8
0
  6
CONTINUOUS
 62
     7
  5
594
 10
0.528694
 20
0.637216
 30
0.0
 11
0.530885
 21
0.633651
 31
0.0
  0
LINE
  8
0
  6
CONTINUOUS
 62
     7
  5
595
 10
0.530885
 20
0.633651
 30
0.0
 11
0.532956
 21
0.630129
 31
0.0
  0
LINE
  8
0
  6
CONTINUOUS
 62
     7
  5
596
 10
0.532956
 20
0.630129
 30
0.0
 11
0.534905
 21
0.626656
 31
0.0
  0
LINE
  8
0
  6
CONTINUOUS
 62
     7
  5
597
 10
0.534905
 20
0.626656
 30
0.0
 11
0.536728
 21
0.623237
 31
0.0
  0
LINE
  8
0
  6
CONTINUOUS
 62
     7
  5
598
 10
0.536728
 20
0.623237
 30
0.0
 11
0.538424
 21
0.619876
 31
0.0
  0
LINE
  8
0
  6
CONTINUOUS
 62
     7
  5
599
 10
0.538424
 20
0.619876
 30
0.0
 11
0.539989
 21
0.61658
 31
0.0
  0
LINE
  8
0
  6
CONTINUOUS
 62
     7
  5
59A
 10
0.539989
 20
0.61658
 30
0.0
 11
0.54142
 21
0.613353
 31
0.0
  0
LINE
  8
0
  6
CONTINUOUS
 62
     7
  5
59B
 10
0.54142
 20
0.613353
 30
0.0
 11
0.542717
 21
0.6102
 31
0.0
  0
LINE
  8
0
  6
CONTINUOUS
 62
     7
  5
59C
 10
0.542717
 20
0.6102
 30
0.0
 11
0.543876
 21
0.607126
 31
0.0
  0
LINE
  8
0
  6
CONTINUOUS
 62
     7
  5
59D
 10
0.543876
 20
0.607126
 30
0.0
 11
0.544896
 21
0.604136
 31
0.0
  0
LINE
  8
0
  6
CONTINUOUS
 62
     7
  5
59E
 10
0.544896
 20
0.604136
 30
0.0
 11
0.545775
 21
0.601234
 31
0.0
  0
LINE
  8
0
  6
CONTINUOUS
 62
     7
  5
59F
 10
0.545775
 20
0.601234
 30
0.0
 11
0.546512
 21
0.598425
 31
0.0
  0
LINE
  8
0
  6
CONTINUOUS
 62
     7
  5
5A0
 10
0.546512
 20
0.598425
 30
0.0
 11
0.547107
 21
0.595713
 31
0.0
  0
LINE
  8
0
  6
CONTINUOUS
 62
     7
  5
5A1
 10
0.547107
 20
0.595713
 30
0.0
 11
0.547557
 21
0.593103
 31
0.0
  0
LINE
  8
0
  6
CONTINUOUS
 62
     7
  5
5A2
 10
0.547557
 20
0.593103
 30
0.0
 11
0.547862
 21
0.590598
 31
0.0
  0
LINE
  8
0
  6
CONTINUOUS
 62
     7
  5
5A3
 10
0.547862
 20
0.590598
 30
0.0
 11
0.548022
 21
0.588202
 31
0.0
  0
LINE
  8
0
  6
CONTINUOUS
 62
     7
  5
5A4
 10
0.548022
 20
0.588202
 30
0.0
 11
0.548037
 21
0.585919
 31
0.0
  0
LINE
  8
0
  6
CONTINUOUS
 62
     7
  5
5A5
 10
0.548037
 20
0.585919
 30
0.0
 11
0.547906
 21
0.583753
 31
0.0
  0
LINE
  8
0
  6
CONTINUOUS
 62
     7
  5
5A6
 10
0.547906
 20
0.583753
 30
0.0
 11
0.54763
 21
0.581706
 31
0.0
  0
LINE
  8
0
  6
CONTINUOUS
 62
     7
  5
5A7
 10
0.54763
 20
0.581706
 30
0.0
 11
0.547209
 21
0.579782
 31
0.0
  0
LINE
  8
0
  6
CONTINUOUS
 62
     7
  5
5A8
 10
0.547209
 20
0.579782
 30
0.0
 11
0.546644
 21
0.577984
 31
0.0
  0
LINE
  8
0
  6
CONTINUOUS
 62
     7
  5
5A9
 10
0.546644
 20
0.577984
 30
0.0
 11
0.545935
 21
0.576315
 31
0.0
  0
LINE
  8
0
  6
CONTINUOUS
 62
     7
  5
5AA
 10
0.545935
 20
0.576315
 30
0.0
 11
0.545084
 21
0.574777
 31
0.0
  0
LINE
  8
0
  6
CONTINUOUS
 62
     7
  5
5AB
 10
0.545084
 20
0.574777
 30
0.0
 11
0.544092
 21
0.573372
 31
0.0
  0
LINE
  8
0
  6
CONTINUOUS
 62
     7
  5
5AC
 10
0.544092
 20
0.573372
 30
0.0
 11
0.542961
 21
0.572103
 31
0.0
  0
LINE
  8
0
  6
CONTINUOUS
 62
     7
  5
5AD
 10
0.465954
 20
0.709107
 30
0.0
 11
0.501067
 21
0.673994
 31
0.0
  0
LINE
  8
0
  6
CONTINUOUS
 62
     7
  5
5AE
 10
0.364063
 20
0.751001
 30
0.0
 11
0.365332
 21
0.752132
 31
0.0
  0
LINE
  8
0
  6
CONTINUOUS
 62
     7
  5
5AF
 10
0.365332
 20
0.752132
 30
0.0
 11
0.366737
 21
0.753124
 31
0.0
  0
LINE
  8
0
  6
CONTINUOUS
 62
     7
  5
5B0
 10
0.366737
 20
0.753124
 30
0.0
 11
0.368275
 21
0.753975
 31
0.0
  0
LINE
  8
0
  6
CONTINUOUS
 62
     7
  5
5B1
 10
0.368275
 20
0.753975
 30
0.0
 11
0.369944
 21
0.754684
 31
0.0
  0
LINE
  8
0
  6
CONTINUOUS
 62
     7
  5
5B2
 10
0.369944
 20
0.754684
 30
0.0
 11
0.371742
 21
0.755249
 31
0.0
  0
LINE
  8
0
  6
CONTINUOUS
 62
     7
  5
5B3
 10
0.371742
 20
0.755249
 30
0.0
 11
0.373666
 21
0.75567
 31
0.0
  0
LINE
  8
0
  6
CONTINUOUS
 62
     7
  5
5B4
 10
0.373666
 20
0.75567
 30
0.0
 11
0.375713
 21
0.755946
 31
0.0
  0
LINE
  8
0
  6
CONTINUOUS
 62
     7
  5
5B5
 10
0.375713
 20
0.755946
 30
0.0
 11
0.377879
 21
0.756077
 31
0.0
  0
LINE
  8
0
  6
CONTINUOUS
 62
     7
  5
5B6
 10
0.377879
 20
0.756077
 30
0.0
 11
0.380162
 21
0.756062
 31
0.0
  0
LINE
  8
0
  6
CONTINUOUS
 62
     7
  5
5B7
 10
0.380162
 20
0.756062
 30
0.0
 11
0.382558
 21
0.755902
 31
0.0
  0
LINE
  8
0
  6
CONTINUOUS
 62
     7
  5
5B8
 10
0.382558
 20
0.755902
 30
0.0
 11
0.385063
 21
0.755597
 31
0.0
  0
LINE
  8
0
  6
CONTINUOUS
 62
     7
  5
5B9
 10
0.385063
 20
0.755597
 30
0.0
 11
0.387674
 21
0.755146
 31
0.0
  0
LINE
  8
0
  6
CONTINUOUS
 62
     7
  5
5BA
 10
0.387674
 20
0.755146
 30
0.0
 11
0.390385
 21
0.754552
 31
0.0
  0
LINE
  8
0
  6
CONTINUOUS
 62
     7
  5
5BB
 10
0.390385
 20
0.754552
 30
0.0
 11
0.393194
 21
0.753815
 31
0.0
  0
LINE
  8
0
  6
CONTINUOUS
 62
     7
  5
5BC
 10
0.393194
 20
0.753815
 30
0.0
 11
0.396096
 21
0.752936
 31
0.0
  0
LINE
  8
0
  6
CONTINUOUS
 62
     7
  5
5BD
 10
0.396096
 20
0.752936
 30
0.0
 11
0.399086
 21
0.751916
 31
0.0
  0
LINE
  8
0
  6
CONTINUOUS
 62
     7
  5
5BE
 10
0.399086
 20
0.751916
 30
0.0
 11
0.40216
 21
0.750757
 31
0.0
  0
LINE
  8
0
  6
CONTINUOUS
 62
     7
  5
5BF
 10
0.40216
 20
0.750757
 30
0.0
 11
0.405313
 21
0.74946
 31
0.0
  0
LINE
  8
0
  6
CONTINUOUS
 62
     7
  5
5C0
 10
0.405313
 20
0.74946
 30
0.0
 11
0.40854
 21
0.748028
 31
0.0
  0
LINE
  8
0
  6
CONTINUOUS
 62
     7
  5
5C1
 10
0.40854
 20
0.748028
 30
0.0
 11
0.411836
 21
0.746464
 31
0.0
  0
LINE
  8
0
  6
CONTINUOUS
 62
     7
  5
5C2
 10
0.411836
 20
0.746464
 30
0.0
 11
0.415197
 21
0.744768
 31
0.0
  0
LINE
  8
0
  6
CONTINUOUS
 62
     7
  5
5C3
 10
0.415197
 20
0.744768
 30
0.0
 11
0.418616
 21
0.742945
 31
0.0
  0
LINE
  8
0
  6
CONTINUOUS
 62
     7
  5
5C4
 10
0.418616
 20
0.742945
 30
0.0
 11
0.42209
 21
0.740996
 31
0.0
  0
LINE
  8
0
  6
CONTINUOUS
 62
     7
  5
5C5
 10
0.42209
 20
0.740996
 30
0.0
 11
0.425611
 21
0.738925
 31
0.0
  0
LINE
  8
0
  6
CONTINUOUS
 62
     7
  5
5C6
 10
0.425611
 20
0.738925
 30
0.0
 11
0.429176
 21
0.736734
 31
0.0
  0
LINE
  8
0
  6
CONTINUOUS
 62
     7
  5
5C7
 10
0.429176
 20
0.736734
 30
0.0
 11
0.432778
 21
0.734428
 31
0.0
  0
LINE
  8
0
  6
CONTINUOUS
 62
     7
  5
5C8
 10
0.432778
 20
0.734428
 30
0.0
 11
0.436411
 21
0.73201
 31
0.0
  0
LINE
  8
0
  6
CONTINUOUS
 62
     7
  5
5C9
 10
0.436411
 20
0.73201
 30
0.0
 11
0.440072
 21
0.729484
 31
0.0
  0
LINE
  8
0
  6
CONTINUOUS
 62
     7
  5
5CA
 10
0.440072
 20
0.729484
 30
0.0
 11
0.443753
 21
0.726852
 31
0.0
  0
LINE
  8
0
  6
CONTINUOUS
 62
     7
  5
5CB
 10
0.443753
 20
0.726852
 30
0.0
 11
0.447448
 21
0.724121
 31
0.0
  0
LINE
  8
0
  6
CONTINUOUS
 62
     7
  5
5CC
 10
0.447448
 20
0.724121
 30
0.0
 11
0.451154
 21
0.721293
 31
0.0
  0
LINE
  8
0
  6
CONTINUOUS
 62
     7
  5
5CD
 10
0.451154
 20
0.721293
 30
0.0
 11
0.454863
 21
0.718373
 31
0.0
  0
LINE
  8
0
  6
CONTINUOUS
 62
     7
  5
5CE
 10
0.454863
 20
0.718373
 30
0.0
 11
0.458569
 21
0.715366
 31
0.0
  0
LINE
  8
0
  6
CONTINUOUS
 62
     7
  5
5CF
 10
0.458569
 20
0.715366
 30
0.0
 11
0.462268
 21
0.712275
 31
0.0
  0
LINE
  8
0
  6
CONTINUOUS
 62
     7
  5
5D0
 10
0.462268
 20
0.712275
 30
0.0
 11
0.465954
 21
0.709107
 31
0.0
  0
LINE
  8
0
  6
CONTINUOUS
 62
     7
  5
5D1
 10
0.378259
 20
0.686001
 30
0.0
 11
0.376688
 21
0.688548
 31
0.0
  0
LINE
  8
0
  6
CONTINUOUS
 62
     7
  5
5D2
 10
0.376688
 20
0.688548
 30
0.0
 11
0.375176
 21
0.691073
 31
0.0
  0
LINE
  8
0
  6
CONTINUOUS
 62
     7
  5
5D3
 10
0.375176
 20
0.691073
 30
0.0
 11
0.373726
 21
0.693574
 31
0.0
  0
LINE
  8
0
  6
CONTINUOUS
 62
     7
  5
5D4
 10
0.373726
 20
0.693574
 30
0.0
 11
0.372338
 21
0.696051
 31
0.0
  0
LINE
  8
0
  6
CONTINUOUS
 62
     7
  5
5D5
 10
0.372338
 20
0.696051
 30
0.0
 11
0.371013
 21
0.698501
 31
0.0
  0
LINE
  8
0
  6
CONTINUOUS
 62
     7
  5
5D6
 10
0.371013
 20
0.698501
 30
0.0
 11
0.369754
 21
0.700922
 31
0.0
  0
LINE
  8
0
  6
CONTINUOUS
 62
     7
  5
5D7
 10
0.369754
 20
0.700922
 30
0.0
 11
0.36856
 21
0.703312
 31
0.0
  0
LINE
  8
0
  6
CONTINUOUS
 62
     7
  5
5D8
 10
0.36856
 20
0.703312
 30
0.0
 11
0.367432
 21
0.705669
 31
0.0
  0
LINE
  8
0
  6
CONTINUOUS
 62
     7
  5
5D9
 10
0.367432
 20
0.705669
 30
0.0
 11
0.366372
 21
0.707992
 31
0.0
  0
LINE
  8
0
  6
CONTINUOUS
 62
     7
  5
5DA
 10
0.366372
 20
0.707992
 30
0.0
 11
0.365381
 21
0.710278
 31
0.0
  0
LINE
  8
0
  6
CONTINUOUS
 62
     7
  5
5DB
 10
0.365381
 20
0.710278
 30
0.0
 11
0.364458
 21
0.712526
 31
0.0
  0
LINE
  8
0
  6
CONTINUOUS
 62
     7
  5
5DC
 10
0.364458
 20
0.712526
 30
0.0
 11
0.363605
 21
0.714734
 31
0.0
  0
LINE
  8
0
  6
CONTINUOUS
 62
     7
  5
5DD
 10
0.363605
 20
0.714734
 30
0.0
 11
0.362822
 21
0.716901
 31
0.0
  0
LINE
  8
0
  6
CONTINUOUS
 62
     7
  5
5DE
 10
0.362822
 20
0.716901
 30
0.0
 11
0.362111
 21
0.719024
 31
0.0
  0
LINE
  8
0
  6
CONTINUOUS
 62
     7
  5
5DF
 10
0.362111
 20
0.719024
 30
0.0
 11
0.361471
 21
0.721102
 31
0.0
  0
LINE
  8
0
  6
CONTINUOUS
 62
     7
  5
5E0
 10
0.361471
 20
0.721102
 30
0.0
 11
0.360903
 21
0.723134
 31
0.0
  0
LINE
  8
0
  6
CONTINUOUS
 62
     7
  5
5E1
 10
0.360903
 20
0.723134
 30
0.0
 11
0.360408
 21
0.725117
 31
0.0
  0
LINE
  8
0
  6
CONTINUOUS
 62
     7
  5
5E2
 10
0.360408
 20
0.725117
 30
0.0
 11
0.359986
 21
0.72705
 31
0.0
  0
LINE
  8
0
  6
CONTINUOUS
 62
     7
  5
5E3
 10
0.359986
 20
0.72705
 30
0.0
 11
0.359637
 21
0.728933
 31
0.0
  0
LINE
  8
0
  6
CONTINUOUS
 62
     7
  5
5E4
 10
0.359637
 20
0.728933
 30
0.0
 11
0.359361
 21
0.730762
 31
0.0
  0
LINE
  8
0
  6
CONTINUOUS
 62
     7
  5
5E5
 10
0.359361
 20
0.730762
 30
0.0
 11
0.35916
 21
0.732537
 31
0.0
  0
LINE
  8
0
  6
CONTINUOUS
 62
     7
  5
5E6
 10
0.35916
 20
0.732537
 30
0.0
 11
0.359032
 21
0.734257
 31
0.0
  0
LINE
  8
0
  6
CONTINUOUS
 62
     7
  5
5E7
 10
0.359032
 20
0.734257
 30
0.0
 11
0.358978
 21
0.735919
 31
0.0
  0
LINE
  8
0
  6
CONTINUOUS
 62
     7
  5
5E8
 10
0.358978
 20
0.735919
 30
0.0
 11
0.358998
 21
0.737524
 31
0.0
  0
LINE
  8
0
  6
CONTINUOUS
 62
     7
  5
5E9
 10
0.358998
 20
0.737524
 30
0.0
 11
0.359093
 21
0.739068
 31
0.0
  0
LINE
  8
0
  6
CONTINUOUS
 62
     7
  5
5EA
 10
0.359093
 20
0.739068
 30
0.0
 11
0.359261
 21
0.740552
 31
0.0
  0
LINE
  8
0
  6
CONTINUOUS
 62
     7
  5
5EB
 10
0.359261
 20
0.740552
 30
0.0
 11
0.359503
 21
0.741975
 31
0.0
  0
LINE
  8
0
  6
CONTINUOUS
 62
     7
  5
5EC
 10
0.359503
 20
0.741975
 30
0.0
 11
0.359819
 21
0.743334
 31
0.0
  0
LINE
  8
0
  6
CONTINUOUS
 62
     7
  5
5ED
 10
0.359819
 20
0.743334
 30
0.0
 11
0.360208
 21
0.744629
 31
0.0
  0
LINE
  8
0
  6
CONTINUOUS
 62
     7
  5
5EE
 10
0.360208
 20
0.744629
 30
0.0
 11
0.36067
 21
0.745859
 31
0.0
  0
LINE
  8
0
  6
CONTINUOUS
 62
     7
  5
5EF
 10
0.36067
 20
0.745859
 30
0.0
 11
0.361205
 21
0.747023
 31
0.0
  0
LINE
  8
0
  6
CONTINUOUS
 62
     7
  5
5F0
 10
0.361205
 20
0.747023
 30
0.0
 11
0.361812
 21
0.74812
 31
0.0
  0
LINE
  8
0
  6
CONTINUOUS
 62
     7
  5
5F1
 10
0.361812
 20
0.74812
 30
0.0
 11
0.362492
 21
0.749149
 31
0.0
  0
LINE
  8
0
  6
CONTINUOUS
 62
     7
  5
5F2
 10
0.362492
 20
0.749149
 30
0.0
 11
0.363242
 21
0.75011
 31
0.0
  0
LINE
  8
0
  6
CONTINUOUS
 62
     7
  5
5F3
 10
0.363242
 20
0.75011
 30
0.0
 11
0.364063
 21
0.751001
 31
0.0
  0
LINE
  8
0
  6
CONTINUOUS
 62
     7
  5
5F4
 10
0.477962
 20
0.586299
 30
0.0
 11
0.454608
 21
0.562945
 31
0.0
  0
LINE
  8
0
  6
CONTINUOUS
 62
     7
  5
5F5
 10
0.366131
 20
0.80893
 30
0.0
 11
0.465954
 21
0.709107
 31
0.0
  0
LINE
  8
0
  6
CONTINUOUS
 62
     7
  5
5F6
 10
0.311131
 20
0.80893
 30
0.0
 11
0.366131
 21
0.80893
 31
0.0
  0
LINE
  8
0
  6
CONTINUOUS
 62
     7
  5
5F7
 10
0.259877
 20
0.757676
 30
0.0
 11
0.311131
 21
0.80893
 31
0.0
  0
LINE
  8
0
  6
CONTINUOUS
 62
     7
  5
5F8
 10
0.354906
 20
0.662648
 30
0.0
 11
0.378259
 21
0.686001
 31
0.0
  0
LINE
  8
0
  6
CONTINUOUS
 62
     7
  5
5F9
 10
0.311131
 20
-0.80893
 30
0.0
 11
0.259877
 21
-0.757676
 31
0.0
  0
LINE
  8
0
  6
CONTINUOUS
 62
     7
  5
5FA
 10
0.366131
 20
-0.80893
 30
0.0
 11
0.311131
 21
-0.80893
 31
0.0
  0
LINE
  8
0
  6
CONTINUOUS
 62
     7
  5
5FB
 10
0.465954
 20
-0.709107
 30
0.0
 11
0.366131
 21
-0.80893
 31
0.0
  0
LINE
  8
0
  6
CONTINUOUS
 62
     7
  5
5FC
 10
0.501067
 20
0.673994
 30
0.0
 11
0.633417
 21
0.541644
 31
0.0
  0
LINE
  8
0
  6
CONTINUOUS
 62
     7
  5
5FD
 10
0.0
 20
-0.795
 30
0.0
 11
0.297201
 21
-0.795
 31
0.0
  0
LINE
  8
0
  6
CONTINUOUS
 62
     7
  5
5FE
 10
0.380061
 20
-0.795
 30
0.0
 11
0.97
 21
-0.795
 31
0.0
  0
LINE
  8
0
  6
CONTINUOUS
 62
     7
  5
5FF
 10
0.297201
 20
0.795
 30
0.0
 11
0.0
 21
0.795
 31
0.0
  0
LINE
  8
0
  6
CONTINUOUS
 62
     7
  5
600
 10
0.0
 20
0.795
 30
0.0
 11
0.0
 21
-0.795
 31
0.0
  0
LINE
  8
0
  6
CONTINUOUS
 62
     7
  5
601
 10
0.97
 20
0.795
 30
0.0
 11
0.380061
 21
0.795
 31
0.0
  0
LINE
  8
0
  6
CONTINUOUS
 62
     7
  5
602
 10
-0.11
 20
0.557
 30
0.0
 11
-0.11
 21
0.661
 31
0.0
  0
LINE
  8
0
  6
CONTINUOUS
 62
     7
  5
603
 10
-0.2425
 20
0.094
 30
0.0
 11
0.0
 21
0.094
 31
0.0
  0
LINE
  8
0
  6
CONTINUOUS
 62
     7
  5
604
 10
-0.2425
 20
-0.094
 30
0.0
 11
-0.2425
 21
0.094
 31
0.0
  0
LINE
  8
0
  6
CONTINUOUS
 62
     7
  5
605
 10
-0.2425
 20
-0.094
 30
0.0
 11
0.0
 21
-0.094
 31
0.0
  0
LINE
  8
0
  6
CONTINUOUS
 62
     7
  5
606
 10
0.170969
 20
0.47659
 30
0.0
 11
0.110865
 21
0.416486
 31
0.0
  0
LINE
  8
0
  6
CONTINUOUS
 62
     7
  5
607
 10
0.208446
 20
0.318905
 30
0.0
 11
0.26855
 21
0.379009
 31
0.0
  0
LINE
  8
0
  6
CONTINUOUS
 62
     7
  5
608
 10
0.217924
 20
0.525665
 30
0.0
 11
0.216931
 21
0.522552
 31
0.0
  0
LINE
  8
0
  6
CONTINUOUS
 62
     7
  5
609
 10
0.314512
 20
0.424971
 30
0.0
 11
0.317626
 21
0.425963
 31
0.0
  0
LINE
  8
0
  6
CONTINUOUS
 62
     7
  5
60A
 10
0.199254
 20
0.504874
 30
0.0
 11
0.192183
 21
0.497803
 31
0.0
  0
LINE
  8
0
  6
CONTINUOUS
 62
     7
  5
60B
 10
0.289763
 20
0.400222
 30
0.0
 11
0.296834
 21
0.407294
 31
0.0
  0
LINE
  8
0
  6
CONTINUOUS
 62
     7
  5
60C
 10
0.26855
 20
-0.379009
 30
0.0
 11
0.208446
 21
-0.318905
 31
0.0
  0
LINE
  8
0
  6
CONTINUOUS
 62
     7
  5
60D
 10
0.110865
 20
-0.416486
 30
0.0
 11
0.170969
 21
-0.47659
 31
0.0
  0
LINE
  8
0
  6
CONTINUOUS
 62
     7
  5
60E
 10
0.317626
 20
-0.425963
 30
0.0
 11
0.314512
 21
-0.424971
 31
0.0
  0
LINE
  8
0
  6
CONTINUOUS
 62
     7
  5
60F
 10
0.216931
 20
-0.522552
 30
0.0
 11
0.217924
 21
-0.525665
 31
0.0
  0
LINE
  8
0
  6
CONTINUOUS
 62
     7
  5
610
 10
0.296834
 20
-0.407294
 30
0.0
 11
0.289763
 21
-0.400222
 31
0.0
  0
LINE
  8
0
  6
CONTINUOUS
 62
     7
  5
611
 10
0.192183
 20
-0.497803
 30
0.0
 11
0.199254
 21
-0.504874
 31
0.0
  0
LINE
  8
0
  6
CONTINUOUS
 62
     7
  5
612
 10
0.519573
 20
0.323148
 30
0.0
 11
0.459469
 21
0.263044
 31
0.0
  0
LINE
  8
0
  6
CONTINUOUS
 62
     7
  5
613
 10
0.55705
 20
0.165463
 30
0.0
 11
0.617154
 21
0.225567
 31
0.0
  0
LINE
  8
0
  6
CONTINUOUS
 62
     7
  5
614
 10
0.566527
 20
0.372223
 30
0.0
 11
0.565535
 21
0.36911
 31
0.0
  0
LINE
  8
0
  6
CONTINUOUS
 62
     7
  5
615
 10
0.663116
 20
0.271529
 30
0.0
 11
0.666229
 21
0.272521
 31
0.0
  0
LINE
  8
0
  6
CONTINUOUS
 62
     7
  5
616
 10
0.547857
 20
0.351432
 30
0.0
 11
0.540786
 21
0.344361
 31
0.0
  0
LINE
  8
0
  6
CONTINUOUS
 62
     7
  5
617
 10
0.638367
 20
0.24678
 30
0.0
 11
0.645438
 21
0.253851
 31
0.0
  0
LINE
  8
0
  6
CONTINUOUS
 62
     7
  5
618
 10
0.617154
 20
-0.225567
 30
0.0
 11
0.55705
 21
-0.165463
 31
0.0
  0
LINE
  8
0
  6
CONTINUOUS
 62
     7
  5
619
 10
0.459469
 20
-0.263044
 30
0.0
 11
0.519573
 21
-0.323148
 31
0.0
  0
LINE
  8
0
  6
CONTINUOUS
 62
     7
  5
61A
 10
0.666229
 20
-0.272521
 30
0.0
 11
0.663116
 21
-0.271529
 31
0.0
  0
LINE
  8
0
  6
CONTINUOUS
 62
     7
  5
61B
 10
0.565535
 20
-0.36911
 30
0.0
 11
0.566527
 21
-0.372223
 31
0.0
  0
LINE
  8
0
  6
CONTINUOUS
 62
     7
  5
61C
 10
0.645438
 20
-0.253851
 30
0.0
 11
0.638367
 21
-0.24678
 31
0.0
  0
LINE
  8
0
  6
CONTINUOUS
 62
     7
  5
61D
 10
0.540786
 20
-0.344361
 30
0.0
 11
0.547857
 21
-0.351432
 31
0.0
  0
LINE
  8
0
  6
CONTINUOUS
 62
     7
  5
61E
 10
-0.11
 20
0.557
 30
0.0
 11
0.0
 21
0.557
 31
0.0
  0
LINE
  8
0
  6
CONTINUOUS
 62
     7
  5
61F
 10
0.0
 20
0.661
 30
0.0
 11
-0.11
 21
0.661
 31
0.0
  0
LINE
  8
0
  6
CONTINUOUS
 62
     3
  5
620
 10
0.97
 20
0.0
 30
0.0
 11
0.0
 21
0.0
 31
0.0
  0
LINE
  8
0
  6
CONTINUOUS
 62
     3
  5
621
 10
0.308148
 20
0.516188
 30
0.0
 11
0.265722
 21
0.473762
 31
0.0
  0
LINE
  8
0
  6
CONTINUOUS
 62
     3
  5
622
 10
0.308148
 20
-0.516188
 30
0.0
 11
0.265722
 21
-0.473762
 31
0.0
  0
LINE
  8
0
  6
CONTINUOUS
 62
     3
  5
623
 10
0.656752
 20
0.362746
 30
0.0
 11
0.614325
 21
0.320319
 31
0.0
  0
LINE
  8
0
  6
CONTINUOUS
 62
     3
  5
624
 10
0.656752
 20
-0.362746
 30
0.0
 11
0.614325
 21
-0.320319
 31
0.0
  0
ENDSEC
  0
EOF
