999
DXF file: C:\Users\sesa63760\Dev\_Creo\CAD\MCADID0005623_3D-CAD\mcadid0005623_3d-simplified_4.dxf
999
Pro/ENGINEER 2019471 by Parametric Technology Corporation
  0
SECTION
  2
HEADER
  9
$ACADVER
  1
AC1024
  9
$DWGCODEPAGE
  3
ANSI_1252
  9
$EXTMAX
 10
113.9062219315
 20
161.095942446
 30
0.0
  9
$EXTMIN
 10
0.0
 20
0.0
 30
0.0
  9
$LIMMIN
 10
0.0
 20
0.0
  9
$LIMMAX
 10
113.9062219315
 20
161.095942446
  9
$VIEWCTR
 10
56.9531109658
 20
80.547971223
  9
$VIEWSIZE
 40
161.095942446
  9
$CLAYER
  8
0
  9
$LTSCALE
 40
10.5010688409
  9
$CELTYPE
  6
BYLAYER
  9
$DIMSCALE
 40
1.0
  9
$DIMASZ
 40
1.3560264516
  9
$DIMEXO
 40
1.0
  9
$DIMDLI
 40
7.2552839265
  9
$DIMEXE
 40
1.0
  9
$DIMCEN
 40
1.7183567194
  9
$DIMLFAC
 40
1.0
  9
$DIMBLK
  1
_FILLED
  9
$DIMALT
 70
0
  9
$DIMALTF
 40
0.0393700787
  9
$DIMTXT
 40
1.8984370322
  9
$DIMTOL
 70
1
  9
$DIMLIM
 70
0
  9
$DIMTFAC
 40
1.0
  9
$DIMTP
 40
0.01
  9
$DIMTM
 40
0.01
  9
$DIMGAP
 40
0.625
  9
$DIMDSEP
 70
46
  9
$AUNITS
 70
0
  9
$PDMODE
 70
3
  9
$PDSIZE
 40
0.3125
  9
$HANDSEED
  5
2BA
  9
$TILEMODE
 70
1
  9
$MEASUREMENT
 70
1
  9
$INSUNITS
 70
4
  0
ENDSEC
  0
SECTION
  2
CLASSES
  0
CLASS
  1
ACDBDICTIONARYWDFLT
  2
AcDbDictionaryWithDefault
  3
AutoCAD 2000
 90
0
 91
1
280
0
281
0
  0
CLASS
  1
ACDBPLACEHOLDER
  2
AcDbPlaceHolder
  3
AutoCAD 2000
 90
0
 91
1
280
0
281
0
  0
CLASS
  1
LAYOUT
  2
AcDbLayout
  3
AutoCAD 2000
 90
0
 91
0
280
0
281
0
  0
ENDSEC
  0
SECTION
  2
TABLES
  0
TABLE
  2
VPORT
  5
8
100
AcDbSymbolTable
 70
2
  0
VPORT
  5
1F4
100
AcDbSymbolTableRecord
100
AcDbViewportTableRecord
  2
*ACTIVE
 70
0
 10
0.0
 20
0.0
 11
1.0
 21
1.0
 12
56.9531109658
 22
80.547971223
 13
0.0
 23
0.0
 14
1.0
 24
1.0
 15
0.0
 25
0.0
 16
0.0
 26
0.0
 36
1.0
 17
0.0
 27
0.0
 37
0.0
 40
161.095942446
 41
0.7070707071
 42
50.0
 43
0.0
 44
0.0
 50
0.0
 51
0.0
 71
0
 72
100
 73
1
 74
1
 75
0
 76
0
 77
0
 78
0
  0
ENDTAB
  0
TABLE
  2
LTYPE
  5
5
100
AcDbSymbolTable
 70
6
  0
LTYPE
  5
14
100
AcDbSymbolTableRecord
100
AcDbLinetypeTableRecord
  2
BYBLOCK
 70
0
  3

 72
65
 73
0
 40
0.0
  0
LTYPE
  5
15
100
AcDbSymbolTableRecord
100
AcDbLinetypeTableRecord
  2
BYLAYER
 70
0
  3

 72
65
 73
0
 40
0.0
  0
LTYPE
  5
16
100
AcDbSymbolTableRecord
100
AcDbLinetypeTableRecord
  2
CONTINUOUS
 70
64
  3
Solid line
 72
65
 73
0
 40
0.0
  0
LTYPE
  5
1F5
100
AcDbSymbolTableRecord
100
AcDbLinetypeTableRecord
  2
CENTER
 70
64
  3
____ _ ____ _ ____ _ ____ _ ____ _ ____ _ ____
 72
65
 73
4
 40
0.6
 49
0.375
 74
0
 49
-0.075
 74
0
 49
0.075
 74
0
 49
-0.075
 74
0
  0
LTYPE
  5
1F6
100
AcDbSymbolTableRecord
100
AcDbLinetypeTableRecord
  2
HIDDEN
 70
64
  3
- - - - - - - - - - - - - - - - - - - -
 72
65
 73
2
 40
0.2
 49
0.1
 74
0
 49
-0.1
 74
0
  0
LTYPE
  5
1F7
100
AcDbSymbolTableRecord
100
AcDbLinetypeTableRecord
  2
PHANTOM
 70
64
  3
_____ _ _ _____ _ _ _____ _ _ _____
 72
65
 73
6
 40
0.8
 49
0.45
 74
0
 49
-0.05
 74
0
 49
0.1
 74
0
 49
-0.05
 74
0
 49
0.1
 74
0
 49
-0.05
 74
0
  0
LTYPE
  5
1F8
100
AcDbSymbolTableRecord
100
AcDbLinetypeTableRecord
  2
DOT
 70
64
  3
. . . . . . . . . . . . . . . . . . . .
 72
65
 73
2
 40
0.2
 49
0.1
 74
0
 49
-0.1
 74
0
  0
LTYPE
  5
1F9
100
AcDbSymbolTableRecord
100
AcDbLinetypeTableRecord
  2
DASHED
 70
64
  3
- - - - - - - - - - - - - - - - - - - -
 72
65
 73
2
 40
0.2
 49
0.1
 74
0
 49
-0.1
 74
0
  0
ENDTAB
  0
TABLE
  2
LAYER
  5
2
100
AcDbSymbolTable
 70
36
  0
LAYER
  5
10
100
AcDbSymbolTableRecord
100
AcDbLayerTableRecord
  2
0
 70
0
 62
7
  6
CONTINUOUS
370
-3
390
F
  0
LAYER
  5
1FA
100
AcDbSymbolTableRecord
100
AcDbLayerTableRecord
  2
DEFAULT_1
 70
0
 62
7
  6
CENTER
370
-3
390
F
  0
LAYER
  5
1FB
100
AcDbSymbolTableRecord
100
AcDbLayerTableRecord
  2
DEFAULT_2
 70
0
 62
7
  6
HIDDEN
370
-3
390
F
  0
LAYER
  5
1FC
100
AcDbSymbolTableRecord
100
AcDbLayerTableRecord
  2
DEFAULT_3
 70
0
 62
7
  6
PHANTOM
370
-3
390
F
  0
LAYER
  5
1FD
100
AcDbSymbolTableRecord
100
AcDbLayerTableRecord
  2
00_COMPONENTS
 70
0
 62
7
  6
CONTINUOUS
370
-3
390
F
  0
LAYER
  5
1FE
100
AcDbSymbolTableRecord
100
AcDbLayerTableRecord
  2
00_COMPONENTS_1
 70
0
 62
7
  6
CONTINUOUS
370
-3
390
F
  0
LAYER
  5
1FF
100
AcDbSymbolTableRecord
100
AcDbLayerTableRecord
  2
00_COMPONENTS_3
 70
0
 62
7
  6
CONTINUOUS
370
-3
390
F
  0
LAYER
  5
200
100
AcDbSymbolTableRecord
100
AcDbLayerTableRecord
  2
00_COMPONENTS_4
 70
0
 62
7
  6
CONTINUOUS
370
-3
390
F
  0
LAYER
  5
201
100
AcDbSymbolTableRecord
100
AcDbLayerTableRecord
  2
01_1_DEFAULT_DATUMS
 70
0
 62
7
  6
CONTINUOUS
370
-3
390
F
  0
LAYER
  5
202
100
AcDbSymbolTableRecord
100
AcDbLayerTableRecord
  2
01_PLANES
 70
0
 62
7
  6
CONTINUOUS
370
-3
390
F
  0
LAYER
  5
203
100
AcDbSymbolTableRecord
100
AcDbLayerTableRecord
  2
02_COORD_SYS
 70
0
 62
7
  6
CONTINUOUS
370
-3
390
F
  0
LAYER
  5
204
100
AcDbSymbolTableRecord
100
AcDbLayerTableRecord
  2
03_AXES
 70
0
 62
7
  6
CONTINUOUS
370
-3
390
F
  0
LAYER
  5
205
100
AcDbSymbolTableRecord
100
AcDbLayerTableRecord
  2
04_POINTS
 70
0
 62
7
  6
CONTINUOUS
370
-3
390
F
  0
LAYER
  5
206
100
AcDbSymbolTableRecord
100
AcDbLayerTableRecord
  2
05_CURVES
 70
0
 62
7
  6
CONTINUOUS
370
-3
390
F
  0
LAYER
  5
207
100
AcDbSymbolTableRecord
100
AcDbLayerTableRecord
  2
06_SURFS
 70
0
 62
7
  6
CONTINUOUS
370
-3
390
F
  0
LAYER
  5
208
100
AcDbSymbolTableRecord
100
AcDbLayerTableRecord
  2
07_COSMETICS
 70
0
 62
7
  6
CONTINUOUS
370
-3
390
F
  0
LAYER
  5
209
100
AcDbSymbolTableRecord
100
AcDbLayerTableRecord
  2
10_NOTES
 70
0
 62
7
  6
CONTINUOUS
370
-3
390
F
  0
LAYER
  5
20A
100
AcDbSymbolTableRecord
100
AcDbLayerTableRecord
  2
11_NOTES_PUB
 70
0
 62
7
  6
CONTINUOUS
370
-3
390
F
  0
LAYER
  5
20B
100
AcDbSymbolTableRecord
100
AcDbLayerTableRecord
  2
13_REF_GTOL
 70
0
 62
7
  6
CONTINUOUS
370
-3
390
F
  0
LAYER
  5
20C
100
AcDbSymbolTableRecord
100
AcDbLayerTableRecord
  2
16_MISC
 70
0
 62
7
  6
CONTINUOUS
370
-3
390
F
  0
LAYER
  5
20D
100
AcDbSymbolTableRecord
100
AcDbLayerTableRecord
  2
17_NO_PRINT
 70
0
 62
7
  6
CONTINUOUS
370
-3
390
F
  0
LAYER
  5
20E
100
AcDbSymbolTableRecord
100
AcDbLayerTableRecord
  2
18_DATUM_CAMS_JOINTS
 70
0
 62
7
  6
CONTINUOUS
370
-3
390
F
  0
LAYER
  5
20F
100
AcDbSymbolTableRecord
100
AcDbLayerTableRecord
  2
19_DATUM_FUNCTIONAL
 70
0
 62
7
  6
CONTINUOUS
370
-3
390
F
  0
LAYER
  5
210
100
AcDbSymbolTableRecord
100
AcDbLayerTableRecord
  2
20_DATUM_KINEMATIC_SCHEME
 70
0
 62
7
  6
CONTINUOUS
370
-3
390
F
  0
LAYER
  5
211
100
AcDbSymbolTableRecord
100
AcDbLayerTableRecord
  2
INTF_BLANK
 70
0
 62
7
  6
CONTINUOUS
370
-3
390
F
  0
LAYER
  5
212
100
AcDbSymbolTableRecord
100
AcDbLayerTableRecord
  2
SHELL1
 70
0
 62
7
  6
CONTINUOUS
370
-3
390
F
  0
LAYER
  5
213
100
AcDbSymbolTableRecord
100
AcDbLayerTableRecord
  2
SHELL506
 70
0
 62
7
  6
CONTINUOUS
370
-3
390
F
  0
LAYER
  5
214
100
AcDbSymbolTableRecord
100
AcDbLayerTableRecord
  2
SHELL507
 70
0
 62
7
  6
CONTINUOUS
370
-3
390
F
  0
LAYER
  5
215
100
AcDbSymbolTableRecord
100
AcDbLayerTableRecord
  2
_BLACK_HOLE
 70
0
 62
7
  6
CONTINUOUS
370
-3
390
F
  0
LAYER
  5
216
100
AcDbSymbolTableRecord
100
AcDbLayerTableRecord
  2
black
 70
0
 62
7
  6
CONTINUOUS
370
-3
390
F
  0
ENDTAB
  0
TABLE
  2
STYLE
  5
3
100
AcDbSymbolTable
 70
1
  0
STYLE
  5
11
100
AcDbSymbolTableRecord
100
AcDbTextStyleTableRecord
  2
STANDARD
 70
0
 40
0.0
 41
1.0
 50
0.0
 71
0
 42
0.2
  3
ARIAL.TTF
  4

  0
STYLE
  5
217
100
AcDbSymbolTableRecord
100
AcDbTextStyleTableRecord
  2
TEXTSTYLE_1
 70
0
 40
0.0
 41
0.8
 50
0.0
 71
0
 42
0.2
  3
gdt
  4

  0
ENDTAB
  0
TABLE
  2
VIEW
  5
6
100
AcDbSymbolTable
 70
0
  0
ENDTAB
  0
TABLE
  2
UCS
  5
7
100
AcDbSymbolTable
 70
0
  0
ENDTAB
  0
TABLE
  2
APPID
  5
9
100
AcDbSymbolTable
 70
1
  0
APPID
  5
218
100
AcDbSymbolTableRecord
100
AcDbRegAppTableRecord
  2
ACAD
 70
0
  0
ENDTAB
  0
TABLE
  2
BLOCK_RECORD
  5
1
100
AcDbSymbolTable
 70
0
  0
BLOCK_RECORD
  5
219
100
AcDbSymbolTableRecord
100
AcDbBlockTableRecord
  2
*Model_Space
  0
BLOCK_RECORD
  5
21A
100
AcDbSymbolTableRecord
100
AcDbBlockTableRecord
  2
*Paper_Space
  0
BLOCK_RECORD
  5
21B
100
AcDbSymbolTableRecord
100
AcDbBlockTableRecord
  2
_FILLED
  0
ENDTAB
  0
TABLE
  2
DIMSTYLE
  5
A
100
AcDbSymbolTable
 70
1
100
AcDbDimStyleTable
 71
0
  0
DIMSTYLE
105
21C
100
AcDbSymbolTableRecord
100
AcDbDimStyleTableRecord
  2
STANDARD
 70
0
  3

  4

 40
1.0
 41
1.3560264516
 42
1.0
 43
0.38
 44
1.0
 45
0.0
 46
0.0
 47
0.01
 48
0.01
140
1.8984370322
141
0.09
142
0.0
143
25.4
144
1.0
145
0.0
146
1.0
147
0.625
 71
1
 72
0
 73
0
 74
0
 75
0
 76
0
 77
1
 78
8
 79
2
170
0
171
1
172
0
173
0
174
0
175
0
176
0
177
0
178
0
270
2
179
2
271
2
272
2
273
2
274
2
275
0
280
0
281
0
282
0
283
1
284
8
285
0
286
0
287
3
288
0
340
11
278
46
341
21B
342
21B
343
21B
344
21B
  0
ENDTAB
  0
ENDSEC
  0
SECTION
  2
BLOCKS
  0
BLOCK
  5
20
100
AcDbEntity
  8
0
100
AcDbBlockBegin
  2
*Model_Space
 70
0
 10
0.0
 20
0.0
 30
0.0
  3
*Model_Space
  1

  0
ENDBLK
  5
21
100
AcDbEntity
  8
0
100
AcDbBlockEnd
  0
BLOCK
  5
1C
100
AcDbEntity
  8
0
100
AcDbBlockBegin
  2
*Paper_Space
 70
0
 10
0.0
 20
0.0
 30
0.0
  3
*Paper_Space
  1

  0
ENDBLK
  5
1D
100
AcDbEntity
  8
0
100
AcDbBlockEnd
  0
BLOCK
  5
21D
100
AcDbEntity
  8
0
100
AcDbBlockBegin
  2
_FILLED
 70
64
 10
0.0
 20
0.0
  3
_FILLED
  1

  0
SOLID
  5
21E
100
AcDbEntity
  8
0
  6
BYBLOCK
 62
0
100
AcDbTrace
 10
0.0
 20
0.0
 11
-1.0
 21
0.25
 12
-1.0
 22
-0.25
 13
-1.0
 23
-0.25
  0
ENDBLK
  5
21F
100
AcDbEntity
  8
0
  6
BYBLOCK
 62
0
100
AcDbBlockEnd
  0
ENDSEC
  0
SECTION
  2
ENTITIES
  0
LINE
  5
220
100
AcDbEntity
  8
00_COMPONENTS
100
AcDbLine
 62
7
  6
BYLAYER
 10
44.3539598866
 20
11.5350215827
 11
72.9289598866
 21
11.5350215827
  0
LINE
  5
221
100
AcDbEntity
  8
00_COMPONENTS_1
100
AcDbLine
 62
7
  6
BYLAYER
 10
40.9948598866
 20
131.4333441279
 11
38.2808242862
 21
130.036344128
  0
LINE
  5
222
100
AcDbEntity
  8
00_COMPONENTS
100
AcDbLine
 62
7
  6
BYLAYER
 10
53.6414598866
 20
24.9190664216
 11
63.6414598866
 21
24.9190664216
  0
LINE
  5
223
100
AcDbEntity
  8
00_COMPONENTS
100
AcDbLine
 62
7
  6
BYLAYER
 10
46.1414598867
 20
43.3218215828
 11
71.1414598866
 21
43.3218215828
  0
LINE
  5
224
100
AcDbEntity
  8
00_COMPONENTS
100
AcDbLine
 62
7
  6
BYLAYER
 10
71.1414598866
 20
46.3218215827
 11
46.1414598867
 21
46.3218215827
  0
LINE
  5
225
100
AcDbEntity
  8
00_COMPONENTS_1
100
AcDbLine
 62
7
  6
BYLAYER
 10
33.2224598866
 20
122.2594423271
 11
33.2224598866
 21
146.7716215827
  0
LINE
  5
226
100
AcDbEntity
  8
00_COMPONENTS_3
100
AcDbLine
 62
7
  6
BYLAYER
 10
33.6414598866
 20
87.1336215827
 11
33.6414598866
 21
85.5125215827
  0
LINE
  5
227
100
AcDbEntity
  8
00_COMPONENTS_1
100
AcDbLine
 62
7
  6
BYLAYER
 10
34.4924598866
 20
140.3296100693
 11
34.4924598866
 21
141.6977768743
  0
LINE
  5
228
100
AcDbEntity
  8
00_COMPONENTS_3
100
AcDbLine
 62
7
  6
BYLAYER
 10
34.6414598866
 20
122.1336215827
 11
34.6414598866
 21
112.1336215827
  0
LINE
  5
229
100
AcDbEntity
  8
00_COMPONENTS_3
100
AcDbLine
 62
7
  6
BYLAYER
 10
34.6414598866
 20
89.6336215827
 11
34.6414598866
 21
87.1336215827
  0
LINE
  5
22A
100
AcDbEntity
  8
00_COMPONENTS_3
100
AcDbLine
 62
7
  6
BYLAYER
 10
34.6668598866
 20
112.1336215827
 11
34.6668598866
 21
89.6336215827
  0
LINE
  5
22B
100
AcDbEntity
  8
00_COMPONENTS_1
100
AcDbLine
 62
7
  6
BYLAYER
 10
34.7464598866
 20
146.7716215827
 11
34.7464598866
 21
148.5750215827
  0
LINE
  5
22C
100
AcDbEntity
  8
00_COMPONENTS
100
AcDbLine
 62
7
  6
BYLAYER
 10
42.6414598826
 20
58.5758215827
 11
42.8954598826
 21
58.3218215827
  0
LINE
  5
22D
100
AcDbEntity
  8
00_COMPONENTS_1
100
AcDbLine
 62
7
  6
BYLAYER
 10
36.7821984176
 20
140.4371339609
 11
36.7821984176
 21
141.0837124016
  0
LINE
  5
22E
100
AcDbEntity
  8
00_COMPONENTS_1
100
AcDbLine
 62
7
  6
BYLAYER
 10
38.2008598866
 20
146.7716215827
 11
38.2008598866
 21
148.5750215827
  0
LINE
  5
22F
100
AcDbEntity
  8
00_COMPONENTS_3
100
AcDbLine
 62
7
  6
BYLAYER
 10
38.7977098866
 20
85.5125215827
 11
38.7977098866
 21
83.9250215827
  0
LINE
  5
230
100
AcDbEntity
  8
00_COMPONENTS
100
AcDbLine
 62
7
  6
BYLAYER
 10
39.5914598866
 20
76.0510215827
 11
39.5914598866
 21
77.5750215827
  0
LINE
  5
231
100
AcDbEntity
  8
00_COMPONENTS
100
AcDbLine
 62
7
  6
BYLAYER
 10
42.8954598826
 20
58.3218215827
 11
74.3874598906
 21
58.3218215827
  0
LINE
  5
232
100
AcDbEntity
  8
00_COMPONENTS
100
AcDbLine
 62
7
  6
BYLAYER
 10
42.6414598826
 20
58.5758215827
 11
74.6414598906
 21
58.5758215827
  0
LINE
  5
233
100
AcDbEntity
  8
00_COMPONENTS
100
AcDbLine
 62
7
  6
BYLAYER
 10
40.2264598866
 20
74.7810215827
 11
40.2264598866
 21
76.0510215827
  0
LINE
  5
234
100
AcDbEntity
  8
00_COMPONENTS_1
100
AcDbLine
 62
7
  6
BYLAYER
 10
40.9948598866
 20
146.7716215827
 11
40.9948598866
 21
143.7152602052
  0
LINE
  5
235
100
AcDbEntity
  8
00_COMPONENTS_1
100
AcDbLine
 62
7
  6
BYLAYER
 10
40.9948598866
 20
142.8233831859
 11
40.9948598866
 21
140.7009684449
  0
LINE
  5
236
100
AcDbEntity
  8
00_COMPONENTS_1
100
AcDbLine
 62
7
  6
BYLAYER
 10
40.9948598866
 20
138.2224177555
 11
40.9948598866
 21
131.4333441279
  0
LINE
  5
237
100
AcDbEntity
  8
00_COMPONENTS
100
AcDbLine
 62
7
  6
BYLAYER
 10
41.1789598866
 20
68.4879963491
 11
41.1789598866
 21
74.7810215827
  0
LINE
  5
238
100
AcDbEntity
  8
00_COMPONENTS
100
AcDbLine
 62
7
  6
BYLAYER
 10
42.6414598826
 20
67.1890159808
 11
42.6414598826
 21
58.5758215827
  0
LINE
  5
239
100
AcDbEntity
  8
00_COMPONENTS_3
100
AcDbLine
 62
7
  6
BYLAYER
 10
43.6554598866
 20
83.9250215827
 11
43.6554598866
 21
77.5750215827
  0
LINE
  5
23A
100
AcDbEntity
  8
00_COMPONENTS
100
AcDbLine
 62
7
  6
BYLAYER
 10
41.1789598866
 20
68.4879963491
 11
42.2477598826
 21
67.8709243837
  0
LINE
  5
23B
100
AcDbEntity
  8
00_COMPONENTS
100
AcDbLine
 62
7
  6
BYLAYER
 10
46.1414598867
 20
46.3218215827
 11
44.6414598866
 21
58.3218215827
  0
LINE
  5
23C
100
AcDbEntity
  8
00_COMPONENTS_1
100
AcDbLine
 62
7
  6
BYLAYER
 10
45.9224598866
 20
122.1336215827
 11
45.9224598866
 21
129.6825181229
  0
LINE
  5
23D
100
AcDbEntity
  8
00_COMPONENTS_1
100
AcDbLine
 62
7
  6
BYLAYER
 10
45.9224598866
 20
131.787170133
 11
45.9224598866
 21
146.7716215827
  0
LINE
  5
23E
100
AcDbEntity
  8
00_COMPONENTS
100
AcDbLine
 62
7
  6
BYLAYER
 10
46.1414598867
 20
46.3218215827
 11
46.1414598867
 21
43.3218215828
  0
LINE
  5
23F
100
AcDbEntity
  8
00_COMPONENTS_1
100
AcDbLine
 62
7
  6
BYLAYER
 10
48.4624598866
 20
122.1336215827
 11
48.4624598866
 21
146.7716215827
  0
LINE
  5
240
100
AcDbEntity
  8
00_COMPONENTS_1
100
AcDbLine
 62
7
  6
BYLAYER
 10
48.4878598866
 20
146.7716215827
 11
48.4878598866
 21
122.1336215827
  0
LINE
  5
241
100
AcDbEntity
  8
00_COMPONENTS_3
100
AcDbLine
 62
7
  6
BYLAYER
 10
48.6414598866
 20
112.1336215827
 11
48.6414598866
 21
117.1336215827
  0
LINE
  5
242
100
AcDbEntity
  8
00_COMPONENTS_1
100
AcDbLine
 62
7
  6
BYLAYER
 10
75.895154709
 20
143.6375121965
 11
75.7858520834
 21
143.4251634368
  0
LINE
  5
243
100
AcDbEntity
  8
00_COMPONENTS
100
AcDbLine
 62
7
  6
BYLAYER
 10
74.6414598906
 20
67.1890159808
 11
42.6414598826
 21
67.1890159808
  0
LINE
  5
244
100
AcDbEntity
  8
00_COMPONENTS
100
AcDbLine
 62
7
  6
BYLAYER
 10
42.2477598826
 20
67.8709243837
 11
75.0351598906
 21
67.8709243837
  0
LINE
  5
245
100
AcDbEntity
  8
00_COMPONENTS
100
AcDbLine
 62
7
  6
BYLAYER
 10
51.4082555537
 20
74.7810215827
 11
51.4082555537
 21
69.3186727885
  0
LINE
  5
246
100
AcDbEntity
  8
00_COMPONENTS
100
AcDbLine
 62
7
  6
BYLAYER
 10
53.6414598866
 20
43.3218215828
 11
53.6414598866
 21
24.9190664216
  0
LINE
  5
247
100
AcDbEntity
  8
00_COMPONENTS_1
100
AcDbLine
 62
7
  6
BYLAYER
 10
75.9475180413
 20
143.9778191394
 11
75.8436598866
 21
143.7152602052
  0
LINE
  5
248
100
AcDbEntity
  8
00_COMPONENTS_1
100
AcDbLine
 62
7
  6
BYLAYER
 10
80.5748375225
 20
141.6977768743
 11
81.3112124909
 21
143.1283766448
  0
LINE
  5
249
100
AcDbEntity
  8
00_COMPONENTS
100
AcDbLine
 62
7
  6
BYLAYER
 10
40.2264598866
 20
74.7810215827
 11
77.0564598866
 21
74.7810215827
  0
LINE
  5
24A
100
AcDbEntity
  8
00_COMPONENTS_1
100
AcDbLine
 62
7
  6
BYLAYER
 10
55.1045598866
 20
122.1336215827
 11
55.1045598866
 21
146.7716215827
  0
LINE
  5
24B
100
AcDbEntity
  8
00_COMPONENTS_1
100
AcDbLine
 62
7
  6
BYLAYER
 10
55.1172598866
 20
122.1336215827
 11
55.1172598866
 21
146.7716215827
  0
LINE
  5
24C
100
AcDbEntity
  8
00_COMPONENTS
100
AcDbLine
 62
7
  6
BYLAYER
 10
55.5723662093
 20
76.0510215827
 11
55.5723662093
 21
74.7810215827
  0
LINE
  5
24D
100
AcDbEntity
  8
00_COMPONENTS
100
AcDbLine
 62
7
  6
BYLAYER
 10
39.5914598866
 20
76.0510215827
 11
77.6914598866
 21
76.0510215827
  0
LINE
  5
24E
100
AcDbEntity
  8
00_COMPONENTS
100
AcDbLine
 62
7
  6
BYLAYER
 10
77.6914598866
 20
77.5750215827
 11
39.5914598866
 21
77.5750215827
  0
LINE
  5
24F
100
AcDbEntity
  8
00_COMPONENTS
100
AcDbLine
 62
7
  6
BYLAYER
 10
61.7105535639
 20
74.7810215827
 11
61.7105535639
 21
76.0510215827
  0
LINE
  5
250
100
AcDbEntity
  8
00_COMPONENTS
100
AcDbLine
 62
7
  6
BYLAYER
 10
63.6414598866
 20
24.9190664216
 11
63.6414598866
 21
43.3218215828
  0
LINE
  5
251
100
AcDbEntity
  8
00_COMPONENTS_3
100
AcDbLine
 62
7
  6
BYLAYER
 10
38.7977098866
 20
83.9250215827
 11
78.4852098866
 21
83.9250215827
  0
LINE
  5
252
100
AcDbEntity
  8
00_COMPONENTS_3
100
AcDbLine
 62
7
  6
BYLAYER
 10
33.6414598866
 20
85.5125215827
 11
83.6414598866
 21
85.5125215827
  0
LINE
  5
253
100
AcDbEntity
  8
00_COMPONENTS
100
AcDbLine
 62
7
  6
BYLAYER
 10
65.8746642196
 20
74.7810215827
 11
65.8746642196
 21
69.3186727885
  0
LINE
  5
254
100
AcDbEntity
  8
00_COMPONENTS_1
100
AcDbLine
 62
7
  6
BYLAYER
 10
68.3506598866
 20
122.1336215827
 11
68.3506598866
 21
146.7716215827
  0
LINE
  5
255
100
AcDbEntity
  8
00_COMPONENTS_1
100
AcDbLine
 62
7
  6
BYLAYER
 10
68.3760598866
 20
122.1336215827
 11
68.3760598866
 21
146.7716215827
  0
LINE
  5
256
100
AcDbEntity
  8
00_COMPONENTS_3
100
AcDbLine
 62
7
  6
BYLAYER
 10
68.6414598866
 20
117.1336215827
 11
68.6414598866
 21
112.1336215827
  0
LINE
  5
257
100
AcDbEntity
  8
00_COMPONENTS_3
100
AcDbLine
 62
7
  6
BYLAYER
 10
83.6414598866
 20
87.1336215827
 11
33.6414598866
 21
87.1336215827
  0
LINE
  5
258
100
AcDbEntity
  8
00_COMPONENTS_3
100
AcDbLine
 62
7
  6
BYLAYER
 10
82.6414598866
 20
89.6336215827
 11
34.6414598866
 21
89.6336215827
  0
LINE
  5
259
100
AcDbEntity
  8
00_COMPONENTS_1
100
AcDbLine
 62
7
  6
BYLAYER
 10
35.5273072824
 20
143.1283766448
 11
36.2636822507
 21
141.6977768743
  0
LINE
  5
25A
100
AcDbEntity
  8
00_COMPONENTS_1
100
AcDbLine
 62
7
  6
BYLAYER
 10
40.9948598866
 20
143.7152602052
 11
40.8910017319
 21
143.9778191394
  0
LINE
  5
25B
100
AcDbEntity
  8
00_COMPONENTS_1
100
AcDbLine
 62
7
  6
BYLAYER
 10
70.9160598866
 20
146.7716215827
 11
70.9160598866
 21
131.787170133
  0
LINE
  5
25C
100
AcDbEntity
  8
00_COMPONENTS_1
100
AcDbLine
 62
7
  6
BYLAYER
 10
70.9160598866
 20
129.6825181229
 11
70.9160598866
 21
122.1336215827
  0
LINE
  5
25D
100
AcDbEntity
  8
00_COMPONENTS
100
AcDbLine
 62
7
  6
BYLAYER
 10
71.1414598866
 20
43.3218215828
 11
71.1414598866
 21
46.3218215827
  0
LINE
  5
25E
100
AcDbEntity
  8
00_COMPONENTS_3
100
AcDbLine
 62
7
  6
BYLAYER
 10
73.6274598866
 20
77.5750215827
 11
73.6274598866
 21
83.9250215827
  0
LINE
  5
25F
100
AcDbEntity
  8
00_COMPONENTS_1
100
AcDbLine
 62
7
  6
BYLAYER
 10
41.0526676899
 20
143.4251634368
 11
40.9433650642
 21
143.6375121965
  0
LINE
  5
260
100
AcDbEntity
  8
00_COMPONENTS
100
AcDbLine
 62
7
  6
BYLAYER
 10
74.6414598906
 20
58.5758215827
 11
74.6414598906
 21
67.1890159808
  0
LINE
  5
261
100
AcDbEntity
  8
00_COMPONENTS_1
100
AcDbLine
 62
7
  6
BYLAYER
 10
75.8436598866
 20
131.4333441279
 11
75.8436598866
 21
138.2224177555
  0
LINE
  5
262
100
AcDbEntity
  8
00_COMPONENTS_1
100
AcDbLine
 62
7
  6
BYLAYER
 10
75.8436598866
 20
140.7009684449
 11
75.8436598866
 21
142.8233831859
  0
LINE
  5
263
100
AcDbEntity
  8
00_COMPONENTS_1
100
AcDbLine
 62
7
  6
BYLAYER
 10
75.8436598866
 20
143.7152602052
 11
75.8436598866
 21
146.7716215827
  0
LINE
  5
264
100
AcDbEntity
  8
00_COMPONENTS
100
AcDbLine
 62
7
  6
BYLAYER
 10
76.1039598866
 20
74.7810215827
 11
76.1039598866
 21
68.4879963491
  0
LINE
  5
265
100
AcDbEntity
  8
00_COMPONENTS
100
AcDbLine
 62
7
  6
BYLAYER
 10
77.0564598866
 20
76.0510215827
 11
77.0564598866
 21
74.7810215827
  0
LINE
  5
266
100
AcDbEntity
  8
00_COMPONENTS
100
AcDbLine
 62
7
  6
BYLAYER
 10
77.6914598866
 20
77.5750215827
 11
77.6914598866
 21
76.0510215827
  0
LINE
  5
267
100
AcDbEntity
  8
00_COMPONENTS_3
100
AcDbLine
 62
7
  6
BYLAYER
 10
78.4852098866
 20
83.9250215827
 11
78.4852098866
 21
85.5125215827
  0
LINE
  5
268
100
AcDbEntity
  8
00_COMPONENTS
100
AcDbLine
 62
7
  6
BYLAYER
 10
72.6414598866
 20
58.3218215827
 11
71.1414598866
 21
46.3218215827
  0
LINE
  5
269
100
AcDbEntity
  8
00_COMPONENTS
100
AcDbLine
 62
7
  6
BYLAYER
 10
75.0351598906
 20
67.8709243837
 11
76.1039598866
 21
68.4879963491
  0
LINE
  5
26A
100
AcDbEntity
  8
00_COMPONENTS_1
100
AcDbLine
 62
7
  6
BYLAYER
 10
78.6376598866
 20
146.7716215827
 11
78.6376598866
 21
148.5750215827
  0
LINE
  5
26B
100
AcDbEntity
  8
00_COMPONENTS_1
100
AcDbLine
 62
7
  6
BYLAYER
 10
82.0920598866
 20
146.7716215827
 11
82.0920598866
 21
148.5750215827
  0
LINE
  5
26C
100
AcDbEntity
  8
00_COMPONENTS_1
100
AcDbLine
 62
7
  6
BYLAYER
 10
82.3460598866
 20
141.6977768743
 11
82.3460598866
 21
140.3296100693
  0
LINE
  5
26D
100
AcDbEntity
  8
00_COMPONENTS_3
100
AcDbLine
 62
7
  6
BYLAYER
 10
82.6160598866
 20
89.6336215827
 11
82.6160598866
 21
112.1336215827
  0
LINE
  5
26E
100
AcDbEntity
  8
00_COMPONENTS_3
100
AcDbLine
 62
7
  6
BYLAYER
 10
82.6414598866
 20
87.1336215827
 11
82.6414598866
 21
89.6336215827
  0
LINE
  5
26F
100
AcDbEntity
  8
00_COMPONENTS_3
100
AcDbLine
 62
7
  6
BYLAYER
 10
82.6414598866
 20
112.1336215827
 11
82.6414598866
 21
122.1336215827
  0
LINE
  5
270
100
AcDbEntity
  8
00_COMPONENTS_1
100
AcDbLine
 62
7
  6
BYLAYER
 10
83.6160598866
 20
122.2594423271
 11
83.6160598866
 21
146.7716215827
  0
LINE
  5
271
100
AcDbEntity
  8
00_COMPONENTS_3
100
AcDbLine
 62
7
  6
BYLAYER
 10
83.6414598866
 20
85.5125215827
 11
83.6414598866
 21
87.1336215827
  0
LINE
  5
272
100
AcDbEntity
  8
00_COMPONENTS
100
AcDbLine
 62
7
  6
BYLAYER
 10
74.3874598906
 20
58.3218215827
 11
74.6414598906
 21
58.5758215827
  0
LINE
  5
273
100
AcDbEntity
  8
00_COMPONENTS_3
100
AcDbLine
 62
7
  6
BYLAYER
 10
34.6414598866
 20
112.1336215827
 11
48.6414598866
 21
112.1336215827
  0
LINE
  5
274
100
AcDbEntity
  8
00_COMPONENTS_3
100
AcDbLine
 62
7
  6
BYLAYER
 10
68.6414598866
 20
112.1336215827
 11
82.6414598866
 21
112.1336215827
  0
LINE
  5
275
100
AcDbEntity
  8
00_COMPONENTS_3
100
AcDbLine
 62
7
  6
BYLAYER
 10
48.6414598866
 20
117.1336215827
 11
68.6414598866
 21
117.1336215827
  0
LINE
  5
276
100
AcDbEntity
  8
00_COMPONENTS_3
100
AcDbLine
 62
7
  6
BYLAYER
 10
82.6414598866
 20
122.1336215827
 11
34.6414598866
 21
122.1336215827
  0
LINE
  5
277
100
AcDbEntity
  8
00_COMPONENTS_1
100
AcDbLine
 62
7
  6
BYLAYER
 10
48.4624598866
 20
122.1590215827
 11
48.4878598866
 21
122.1590215827
  0
LINE
  5
278
100
AcDbEntity
  8
00_COMPONENTS_1
100
AcDbLine
 62
7
  6
BYLAYER
 10
68.3506598866
 20
122.1590215827
 11
68.3760598866
 21
122.1590215827
  0
LINE
  5
279
100
AcDbEntity
  8
00_COMPONENTS_1
100
AcDbLine
 62
7
  6
BYLAYER
 10
45.9224598866
 20
122.2594423271
 11
33.2224598866
 21
122.2594423271
  0
LINE
  5
27A
100
AcDbEntity
  8
00_COMPONENTS_1
100
AcDbLine
 62
7
  6
BYLAYER
 10
70.9160598866
 20
122.2594423271
 11
83.6160598866
 21
122.2594423271
  0
LINE
  5
27B
100
AcDbEntity
  8
00_COMPONENTS_1
100
AcDbLine
 62
7
  6
BYLAYER
 10
37.0805588262
 20
140.1323467486
 11
36.2741984176
 21
140.4615420069
  0
LINE
  5
27C
100
AcDbEntity
  8
00_COMPONENTS_1
100
AcDbLine
 62
7
  6
BYLAYER
 10
36.7821984176
 20
140.4371339609
 11
37.4349948932
 21
140.1706309156
  0
LINE
  5
27D
100
AcDbEntity
  8
00_COMPONENTS_1
100
AcDbLine
 62
7
  6
BYLAYER
 10
36.7821984176
 20
141.0837124016
 11
38.4899711863
 21
140.3865170882
  0
LINE
  5
27E
100
AcDbEntity
  8
00_COMPONENTS_1
100
AcDbLine
 62
7
  6
BYLAYER
 10
38.2808242862
 20
130.036344128
 11
33.2224598866
 21
128.7344940224
  0
LINE
  5
27F
100
AcDbEntity
  8
00_COMPONENTS_1
100
AcDbLine
 62
7
  6
BYLAYER
 10
70.9160598866
 20
129.6825181229
 11
68.3760598866
 21
129.6825181229
  0
LINE
  5
280
100
AcDbEntity
  8
00_COMPONENTS_1
100
AcDbLine
 62
7
  6
BYLAYER
 10
48.4624598866
 20
129.6825181229
 11
45.9224598866
 21
129.6825181229
  0
LINE
  5
281
100
AcDbEntity
  8
00_COMPONENTS_1
100
AcDbLine
 62
7
  6
BYLAYER
 10
48.4624598866
 20
130.0363441279
 11
38.2808242861
 21
130.0363441279
  0
LINE
  5
282
100
AcDbEntity
  8
00_COMPONENTS_1
100
AcDbLine
 62
7
  6
BYLAYER
 10
68.3760598866
 20
130.0363441279
 11
78.5576954871
 21
130.0363441279
  0
LINE
  5
283
100
AcDbEntity
  8
00_COMPONENTS_1
100
AcDbLine
 62
7
  6
BYLAYER
 10
48.4624598866
 20
131.4333441279
 11
40.9948598866
 21
131.4333441279
  0
LINE
  5
284
100
AcDbEntity
  8
00_COMPONENTS_1
100
AcDbLine
 62
7
  6
BYLAYER
 10
68.3760598866
 20
131.4333441279
 11
75.8436598866
 21
131.4333441279
  0
LINE
  5
285
100
AcDbEntity
  8
00_COMPONENTS_1
100
AcDbLine
 62
7
  6
BYLAYER
 10
45.9224598866
 20
131.787170133
 11
48.4624598866
 21
131.787170133
  0
LINE
  5
286
100
AcDbEntity
  8
00_COMPONENTS_1
100
AcDbLine
 62
7
  6
BYLAYER
 10
68.3760598866
 20
131.787170133
 11
70.9160598866
 21
131.787170133
  0
LINE
  5
287
100
AcDbEntity
  8
00_COMPONENTS_1
100
AcDbLine
 62
7
  6
BYLAYER
 10
83.6160598866
 20
128.7344940224
 11
78.5576954871
 21
130.0363441279
  0
LINE
  5
288
100
AcDbEntity
  8
00_COMPONENTS_1
100
AcDbLine
 62
7
  6
BYLAYER
 10
78.5576954871
 20
130.0363441279
 11
75.8436598866
 21
131.4333441279
  0
LINE
  5
289
100
AcDbEntity
  8
00_COMPONENTS_1
100
AcDbLine
 62
7
  6
BYLAYER
 10
45.9224598866
 20
138.2224177555
 11
40.9948598866
 21
138.2224177555
  0
LINE
  5
28A
100
AcDbEntity
  8
00_COMPONENTS_1
100
AcDbLine
 62
7
  6
BYLAYER
 10
70.9160598866
 20
138.2224177555
 11
75.8436598866
 21
138.2224177555
  0
LINE
  5
28B
100
AcDbEntity
  8
00_COMPONENTS_1
100
AcDbLine
 62
7
  6
BYLAYER
 10
33.2224598866
 20
136.2220676499
 11
40.9948598866
 21
138.2224177555
  0
LINE
  5
28C
100
AcDbEntity
  8
00_COMPONENTS_1
100
AcDbLine
 62
7
  6
BYLAYER
 10
40.9948598866
 20
140.7009684449
 11
33.2224598866
 21
138.7006183393
  0
LINE
  5
28D
100
AcDbEntity
  8
00_COMPONENTS_1
100
AcDbLine
 62
7
  6
BYLAYER
 10
45.9224598866
 20
140.7009684449
 11
40.9948598866
 21
140.7009684449
  0
LINE
  5
28E
100
AcDbEntity
  8
00_COMPONENTS_1
100
AcDbLine
 62
7
  6
BYLAYER
 10
70.9160598866
 20
140.7009684449
 11
75.8436598866
 21
140.7009684449
  0
LINE
  5
28F
100
AcDbEntity
  8
00_COMPONENTS_1
100
AcDbLine
 62
7
  6
BYLAYER
 10
34.4924598866
 20
141.6977768743
 11
36.2636822507
 21
141.6977768743
  0
LINE
  5
290
100
AcDbEntity
  8
00_COMPONENTS_1
100
AcDbLine
 62
7
  6
BYLAYER
 10
80.5748375225
 20
141.6977768743
 11
82.3460598866
 21
141.6977768743
  0
LINE
  5
291
100
AcDbEntity
  8
00_COMPONENTS_1
100
AcDbLine
 62
7
  6
BYLAYER
 10
83.6160598866
 20
136.2220676499
 11
75.8436598866
 21
138.2224177555
  0
LINE
  5
292
100
AcDbEntity
  8
00_COMPONENTS_1
100
AcDbLine
 62
7
  6
BYLAYER
 10
83.6160598866
 20
138.7006183393
 11
75.8436598866
 21
140.7009684449
  0
LINE
  5
293
100
AcDbEntity
  8
00_COMPONENTS_1
100
AcDbLine
 62
7
  6
BYLAYER
 10
35.5273072824
 20
140.5959444187
 11
33.2224598866
 21
140.0027554769
  0
LINE
  5
294
100
AcDbEntity
  8
00_COMPONENTS_1
100
AcDbLine
 62
7
  6
BYLAYER
 10
33.2224598866
 20
142.535187703
 11
35.5273072824
 21
143.1283766448
  0
LINE
  5
295
100
AcDbEntity
  8
00_COMPONENTS_1
100
AcDbLine
 62
7
  6
BYLAYER
 10
68.3760598866
 20
146.7462215827
 11
68.3506598866
 21
146.7462215827
  0
LINE
  5
296
100
AcDbEntity
  8
00_COMPONENTS_1
100
AcDbLine
 62
7
  6
BYLAYER
 10
48.4878598866
 20
146.7462215827
 11
48.4624598866
 21
146.7462215827
  0
LINE
  5
297
100
AcDbEntity
  8
00_COMPONENTS_1
100
AcDbLine
 62
7
  6
BYLAYER
 10
33.2224598866
 20
146.7716215827
 11
55.1045598866
 21
146.7716215827
  0
LINE
  5
298
100
AcDbEntity
  8
00_COMPONENTS_1
100
AcDbLine
 62
7
  6
BYLAYER
 10
55.1172598866
 20
146.7716215827
 11
83.6160598866
 21
146.7716215827
  0
LINE
  5
299
100
AcDbEntity
  8
00_COMPONENTS_1
100
AcDbLine
 62
7
  6
BYLAYER
 10
82.0920598866
 20
148.5750215827
 11
78.6376598866
 21
148.5750215827
  0
LINE
  5
29A
100
AcDbEntity
  8
00_COMPONENTS_1
100
AcDbLine
 62
7
  6
BYLAYER
 10
38.2008598866
 20
148.5750215827
 11
34.7464598866
 21
148.5750215827
  0
LINE
  5
29B
100
AcDbEntity
  8
00_COMPONENTS_1
100
AcDbLine
 62
7
  6
BYLAYER
 10
83.6160598866
 20
140.0027554769
 11
81.3112124909
 21
140.5959444187
  0
LINE
  5
29C
100
AcDbEntity
  8
00_COMPONENTS_1
100
AcDbLine
 62
7
  6
BYLAYER
 10
81.3112124909
 20
143.1283766448
 11
83.6160598866
 21
142.535187703
  0
ARC
  5
29D
100
AcDbEntity
  8
00_COMPONENTS
100
AcDbCircle
 62
7
  6
BYLAYER
 10
58.6414598866
 20
11.5350215827
 40
14.2875
100
AcDbArc
 50
110.4846395279
 51
180.0
  0
ARC
  5
29E
100
AcDbEntity
  8
00_COMPONENTS
100
AcDbCircle
 62
7
  6
BYLAYER
 10
58.6414598866
 20
11.5350215827
 40
14.2875
100
AcDbArc
 50
0.0
 51
69.5153604721
  0
ARC
  5
29F
100
AcDbEntity
  8
00_COMPONENTS_1
100
AcDbCircle
 62
7
  6
BYLAYER
 10
38.0779662659
 20
138.8104844078
 40
2.079664176
100
AcDbArc
 50
128.5403706278
 51
133.7507702358
  0
ARC
  5
2A0
100
AcDbEntity
  8
00_COMPONENTS
100
AcDbCircle
 62
7
  6
BYLAYER
 10
41.8540598826
 20
67.1890159808
 40
0.7874
100
AcDbArc
 50
0.0
 51
60.0
  0
ARC
  5
2A1
100
AcDbEntity
  8
00_COMPONENTS
100
AcDbCircle
 62
7
  6
BYLAYER
 10
75.4288598906
 20
67.1890159808
 40
0.7874
100
AcDbArc
 50
120.0
 51
180.0
  0
SPLINE
  5
2A2
100
AcDbEntity
  8
00_COMPONENTS_1
100
AcDbSpline
 62
7
  6
BYLAYER
 70
0
 71
3
 72
10
 73
6
 74
0
 42
0.0000001
 43
0.0000001
 44
0.0000000001
 40
0.0
 40
0.0
 40
0.0
 40
0.0
 40
0.4779224232
 40
0.7360717239
 40
1.0
 40
1.0
 40
1.0
 40
1.0
 10
36.7821984176
 20
141.0837124016
 30
0.0
 10
37.0344003956
 20
141.2850202045
 30
0.0
 10
37.4928887787
 20
141.5115967962
 30
0.0
 10
38.1518693168
 20
141.6624897429
 30
0.0
 10
38.5052557243
 20
141.6887966182
 30
0.0
 10
38.6834598866
 20
141.6887966182
 30
0.0
  0
SPLINE
  5
2A3
100
AcDbEntity
  8
00_COMPONENTS_1
100
AcDbSpline
 62
7
  6
BYLAYER
 70
0
 71
3
 72
9
 73
5
 74
0
 42
0.0000001
 43
0.0000001
 44
0.0000000001
 40
0.0
 40
0.0
 40
0.0
 40
0.0
 40
0.2573487613
 40
1.0
 40
1.0
 40
1.0
 40
1.0
 10
38.6834598866
 20
141.6887966182
 30
0.0
 10
38.8075156528
 20
141.6887966182
 30
0.0
 10
39.2889524672
 20
141.6639423105
 30
0.0
 10
39.7675787189
 20
141.540083874
 30
0.0
 10
40.0914676434
 20
141.3875779729
 30
0.0
  0
SPLINE
  5
2A4
100
AcDbEntity
  8
00_COMPONENTS_1
100
AcDbSpline
 62
7
  6
BYLAYER
 70
0
 71
3
 72
9
 73
5
 74
0
 42
0.0000001
 43
0.0000001
 44
0.0000000001
 40
0.0
 40
0.0
 40
0.0
 40
0.0
 40
0.2477717144
 40
1.0
 40
1.0
 40
1.0
 40
1.0
 10
36.1960243832
 20
140.2561403225
 30
0.0
 10
36.2011185315
 20
140.2735731432
 30
0.0
 10
36.2230908793
 20
140.3435127539
 30
0.0
 10
36.2506556577
 20
140.411681773
 30
0.0
 10
36.2741984176
 20
140.4615420069
 30
0.0
  0
SPLINE
  5
2A5
100
AcDbEntity
  8
00_COMPONENTS_1
100
AcDbSpline
 62
7
  6
BYLAYER
 70
0
 71
3
 72
13
 73
9
 74
0
 42
0.0000001
 43
0.0000001
 44
0.0000000001
 40
0.0
 40
0.0
 40
0.0
 40
0.0
 40
0.2659883478
 40
0.4000212187
 40
0.5317123818
 40
0.6590447555
 40
0.7803329525
 40
1.0
 40
1.0
 40
1.0
 40
1.0
 10
38.0342629822
 20
140.2353604445
 30
0.0
 10
38.3861634255
 20
140.3259275909
 30
0.0
 10
38.9010457555
 20
140.5275093259
 30
0.0
 10
39.5244648006
 20
140.9022321633
 30
0.0
 10
39.9508430462
 20
141.2307102806
 30
0.0
 10
40.3220061258
 20
141.5966468568
 30
0.0
 10
40.7152285779
 20
142.101960202
 30
0.0
 10
40.922361481
 20
142.5321840232
 30
0.0
 10
40.9948598866
 20
142.8233831859
 30
0.0
  0
SPLINE
  5
2A6
100
AcDbEntity
  8
00_COMPONENTS_1
100
AcDbSpline
 62
7
  6
BYLAYER
 70
0
 71
3
 72
12
 73
8
 74
0
 42
0.0000001
 43
0.0000001
 44
0.0000000001
 40
0.0
 40
0.0
 40
0.0
 40
0.0
 40
0.2157579023
 40
0.3321416359
 40
0.454637652
 40
0.7171628539
 40
1.0
 40
1.0
 40
1.0
 40
1.0
 10
35.5273072824
 20
140.5959444187
 30
0.0
 10
35.6700958471
 20
140.4726156931
 30
0.0
 10
35.9252310077
 20
140.3213542345
 30
0.0
 10
36.3023178997
 20
140.1936838049
 30
0.0
 10
36.7332764541
 20
140.1066783672
 30
0.0
 10
37.3217962505
 20
140.0930577993
 30
0.0
 10
37.794733501
 20
140.173713743
 30
0.0
 10
38.0342629822
 20
140.2353604445
 30
0.0
  0
SPLINE
  5
2A7
100
AcDbEntity
  8
00_COMPONENTS_1
100
AcDbSpline
 62
7
  6
BYLAYER
 70
0
 71
3
 72
14
 73
10
 74
0
 42
0.0000001
 43
0.0000001
 44
0.0000000001
 40
0.0
 40
0.0
 40
0.0
 40
0.0
 40
0.1041780387
 40
0.211354019
 40
0.3241053906
 40
0.4441074141
 40
0.5721406982
 40
0.7081228727
 40
1.0
 40
1.0
 40
1.0
 40
1.0
 10
40.891092312
 20
143.9778657577
 30
0.0
 10
40.8404149269
 20
144.076349338
 30
0.0
 10
40.7134141252
 20
144.2646400406
 30
0.0
 10
40.4588347521
 20
144.5007703732
 30
0.0
 10
40.146492581
 20
144.6872887646
 30
0.0
 10
39.7846750293
 20
144.8202791963
 30
0.0
 10
39.3820904337
 20
144.8974393047
 30
0.0
 10
38.7902771137
 20
144.9248266695
 30
0.0
 10
38.3347805949
 20
144.8567130038
 30
0.0
 10
38.0342629822
 20
144.7793700418
 30
0.0
  0
SPLINE
  5
2A8
100
AcDbEntity
  8
00_COMPONENTS_1
100
AcDbSpline
 62
7
  6
BYLAYER
 70
0
 71
3
 72
11
 73
7
 74
0
 42
0.0000001
 43
0.0000001
 44
0.0000000001
 40
0.0
 40
0.0
 40
0.0
 40
0.0
 40
0.2538815877
 40
0.510686144
 40
0.7619495882
 40
1.0
 40
1.0
 40
1.0
 40
1.0
 10
38.0342629822
 20
144.7793700418
 30
0.0
 10
37.7838632822
 20
144.7149257175
 30
0.0
 10
37.2906722384
 20
144.5410894415
 30
0.0
 10
36.6069375836
 20
144.1673435482
 30
0.0
 10
36.0052458863
 20
143.6978174879
 30
0.0
 10
35.6696681671
 20
143.3246136284
 30
0.0
 10
35.5273072824
 20
143.1283766448
 30
0.0
  0
SPLINE
  5
2A9
100
AcDbEntity
  8
00_COMPONENTS_1
100
AcDbSpline
 62
7
  6
BYLAYER
 70
0
 71
3
 72
13
 73
9
 74
0
 42
0.0000001
 43
0.0000001
 44
0.0000000001
 40
0.0
 40
0.0
 40
0.0
 40
0.0
 40
0.2807582328
 40
0.5459521906
 40
0.6694868764
 40
0.7859469383
 40
0.8956906808
 40
1.0
 40
1.0
 40
1.0
 40
1.0
 10
78.1550598866
 20
141.6887966182
 30
0.0
 10
78.4413154559
 20
141.6887966182
 30
0.0
 10
79.0001366705
 20
141.6227867524
 30
0.0
 10
79.6456100702
 20
141.3736433309
 30
0.0
 10
80.0734526389
 20
141.0832298649
 30
0.0
 10
80.3320983158
 20
140.8349125606
 30
0.0
 10
80.5279118384
 20
140.5580072407
 30
0.0
 10
80.6138845706
 20
140.3550293586
 30
0.0
 10
80.6434538145
 20
140.2528709027
 30
0.0
  0
SPLINE
  5
2AA
100
AcDbEntity
  8
00_COMPONENTS_1
100
AcDbSpline
 62
7
  6
BYLAYER
 70
0
 71
3
 72
9
 73
5
 74
0
 42
0.0000001
 43
0.0000001
 44
0.0000000001
 40
0.0
 40
0.0
 40
0.0
 40
0.0
 40
0.24161918
 40
1.0
 40
1.0
 40
1.0
 40
1.0
 10
76.7470741223
 20
141.3875969649
 30
0.0
 10
76.8524673024
 20
141.4372260624
 30
0.0
 10
77.3012409005
 20
141.6153951964
 30
0.0
 10
77.789416119
 20
141.6887966182
 30
0.0
 10
78.1550598866
 20
141.6887966182
 30
0.0
  0
SPLINE
  5
2AB
100
AcDbEntity
  8
00_COMPONENTS_1
100
AcDbSpline
 62
7
  6
BYLAYER
 70
0
 71
3
 72
13
 73
9
 74
0
 42
0.0000001
 43
0.0000001
 44
0.0000000001
 40
0.0
 40
0.0
 40
0.0
 40
0.0
 40
0.2196670475
 40
0.3409552445
 40
0.4682876182
 40
0.5999787813
 40
0.7340116522
 40
1.0
 40
1.0
 40
1.0
 40
1.0
 10
75.8436598866
 20
142.8233831859
 30
0.0
 10
75.9161582922
 20
142.5321840232
 30
0.0
 10
76.1232911954
 20
142.101960202
 30
0.0
 10
76.5165136474
 20
141.5966468568
 30
0.0
 10
76.8876767271
 20
141.2307102806
 30
0.0
 10
77.3140549726
 20
140.9022321633
 30
0.0
 10
77.9374740177
 20
140.5275093259
 30
0.0
 10
78.4523563478
 20
140.3259275909
 30
0.0
 10
78.8042567911
 20
140.2353604445
 30
0.0
  0
SPLINE
  5
2AC
100
AcDbEntity
  8
00_COMPONENTS_1
100
AcDbSpline
 62
7
  6
BYLAYER
 70
0
 71
3
 72
12
 73
8
 74
0
 42
0.0000001
 43
0.0000001
 44
0.0000000001
 40
0.0
 40
0.0
 40
0.0
 40
0.0
 40
0.2828371461
 40
0.545362348
 40
0.6678583641
 40
0.7842420977
 40
1.0
 40
1.0
 40
1.0
 40
1.0
 10
78.8042567911
 20
140.2353604445
 30
0.0
 10
79.0437862722
 20
140.173713743
 30
0.0
 10
79.5167235228
 20
140.0930577993
 30
0.0
 10
80.1052433192
 20
140.1066783672
 30
0.0
 10
80.5362018736
 20
140.1936838049
 30
0.0
 10
80.9132887656
 20
140.3213542345
 30
0.0
 10
81.1684239262
 20
140.4726156931
 30
0.0
 10
81.3112124909
 20
140.5959444187
 30
0.0
  0
SPLINE
  5
2AD
100
AcDbEntity
  8
00_COMPONENTS_1
100
AcDbSpline
 62
7
  6
BYLAYER
 70
0
 71
3
 72
14
 73
10
 74
0
 42
0.0000001
 43
0.0000001
 44
0.0000000001
 40
0.0
 40
0.0
 40
0.0
 40
0.0
 40
0.2918771273
 40
0.4278593018
 40
0.5558925859
 40
0.6758946094
 40
0.788645981
 40
0.8958219613
 40
1.0
 40
1.0
 40
1.0
 40
1.0
 10
78.8042567911
 20
144.7793700418
 30
0.0
 10
78.5037391784
 20
144.8567130038
 30
0.0
 10
78.0482426596
 20
144.9248266695
 30
0.0
 10
77.4564293396
 20
144.8974393047
 30
0.0
 10
77.053844744
 20
144.8202791963
 30
0.0
 10
76.6920271923
 20
144.6872887646
 30
0.0
 10
76.3796850212
 20
144.5007703732
 30
0.0
 10
76.1251056481
 20
144.2646400406
 30
0.0
 10
75.9981048464
 20
144.076349338
 30
0.0
 10
75.9474274613
 20
143.9778657577
 30
0.0
  0
SPLINE
  5
2AE
100
AcDbEntity
  8
00_COMPONENTS_1
100
AcDbSpline
 62
7
  6
BYLAYER
 70
0
 71
3
 72
11
 73
7
 74
0
 42
0.0000001
 43
0.0000001
 44
0.0000000001
 40
0.0
 40
0.0
 40
0.0
 40
0.0
 40
0.2380504118
 40
0.489313856
 40
0.7461184123
 40
1.0
 40
1.0
 40
1.0
 40
1.0
 10
81.3112124909
 20
143.1283766448
 30
0.0
 10
81.1688516062
 20
143.3246136284
 30
0.0
 10
80.833273887
 20
143.6978174879
 30
0.0
 10
80.2315821897
 20
144.1673435482
 30
0.0
 10
79.5478475348
 20
144.5410894415
 30
0.0
 10
79.0546564911
 20
144.7149257175
 30
0.0
 10
78.8042567911
 20
144.7793700418
 30
0.0
  0
SPLINE
  5
2AF
100
AcDbEntity
  8
00_COMPONENTS
100
AcDbSpline
 62
7
  6
BYLAYER
 70
0
 71
3
 72
13
 73
9
 74
0
 42
0.0000001
 43
0.0000001
 44
0.0000000001
 40
0.0
 40
0.0
 40
0.0
 40
0.0
 40
0.2514376165
 40
0.3759332228
 40
0.5
 40
0.6240667772
 40
0.7485623835
 40
1.0
 40
1.0
 40
1.0
 40
1.0
 10
41.1789598866
 20
69.3186727885
 30
0.0
 10
42.0107994665
 20
69.0587564312
 30
0.0
 10
43.2808288279
 20
68.7434980906
 30
0.0
 10
45.001625886
 20
68.5249855389
 30
0.0
 10
46.2936077202
 20
68.4695002266
 30
0.0
 10
47.5855895543
 20
68.5249855389
 30
0.0
 10
49.3063866124
 20
68.7434980906
 30
0.0
 10
50.5764159738
 20
69.0587564312
 30
0.0
 10
51.4082555537
 20
69.3186727885
 30
0.0
  0
SPLINE
  5
2B0
100
AcDbEntity
  8
00_COMPONENTS
100
AcDbSpline
 62
7
  6
BYLAYER
 70
0
 71
3
 72
13
 73
9
 74
0
 42
0.0000001
 43
0.0000001
 44
0.0000000001
 40
0.0
 40
0.0
 40
0.0
 40
0.0
 40
0.2499628565
 40
0.3749801887
 40
0.5
 40
0.6250198113
 40
0.7500371435
 40
1.0
 40
1.0
 40
1.0
 40
1.0
 10
51.4082555537
 20
69.3186727885
 30
0.0
 10
52.5950053935
 20
69.0564694512
 30
0.0
 10
54.3950671565
 20
68.7419940518
 30
0.0
 10
56.8175510223
 20
68.5248265052
 30
0.0
 10
58.6414598866
 20
68.4695476339
 30
0.0
 10
60.465368751
 20
68.5248265052
 30
0.0
 10
62.8878526168
 20
68.7419940518
 30
0.0
 10
64.6879143798
 20
69.0564694512
 30
0.0
 10
65.8746642196
 20
69.3186727885
 30
0.0
  0
SPLINE
  5
2B1
100
AcDbEntity
  8
00_COMPONENTS
100
AcDbSpline
 62
7
  6
BYLAYER
 70
0
 71
3
 72
13
 73
9
 74
0
 42
0.0000001
 43
0.0000001
 44
0.0000000001
 40
0.0
 40
0.0
 40
0.0
 40
0.0
 40
0.2514376165
 40
0.3759332228
 40
0.5
 40
0.6240667772
 40
0.7485623835
 40
1.0
 40
1.0
 40
1.0
 40
1.0
 10
65.8746642196
 20
69.3186727885
 30
0.0
 10
66.7065037994
 20
69.0587564312
 30
0.0
 10
67.9765331608
 20
68.7434980906
 30
0.0
 10
69.6973302189
 20
68.5249855389
 30
0.0
 10
70.9893120531
 20
68.4695002266
 30
0.0
 10
72.2812938873
 20
68.5249855389
 30
0.0
 10
74.0020909454
 20
68.7434980906
 30
0.0
 10
75.2721203068
 20
69.0587564312
 30
0.0
 10
76.1039598866
 20
69.3186727885
 30
0.0
  0
ELLIPSE
  5
2B2
100
AcDbEntity
  8
00_COMPONENTS_1
100
AcDbEllipse
 62
7
  6
BYLAYER
 10
38.1043020842
 20
142.3712960834
 30
0.0
 11
3.4193096007
 21
-0.0
 31
0.0
 40
0.6644630244
 41
0.5315947947
 42
0.5911452022
  0
ELLIPSE
  5
2B3
100
AcDbEntity
  8
00_COMPONENTS_1
100
AcDbEllipse
 62
7
  6
BYLAYER
 10
37.6420598866
 20
143.2693216955
 30
0.0
 11
3.4193096007
 21
-0.0
 31
0.0
 40
0.6644630244
 41
-0.1975579181
 42
0.1975579181
  0
ELLIPSE
  5
2B4
100
AcDbEntity
  8
00_COMPONENTS_1
100
AcDbEllipse
 62
7
  6
BYLAYER
 10
39.1027452308
 20
140.4315607613
 30
0.0
 11
3.4193096007
 21
0.0
 31
0.0
 40
0.6644630244
 41
7.3215210918
 42
8.8336327586
  0
ELLIPSE
  5
2B5
100
AcDbEntity
  8
00_COMPONENTS_1
100
AcDbEllipse
 62
7
  6
BYLAYER
 10
79.1964598866
 20
143.2693216955
 30
0.0
 11
3.4193096007
 21
0.0
 31
0.0
 40
0.6644630244
 41
2.9440347355
 42
3.3391505717
  0
ELLIPSE
  5
2B6
100
AcDbEntity
  8
00_COMPONENTS_1
100
AcDbEllipse
 62
7
  6
BYLAYER
 10
78.7342176891
 20
142.3712960834
 30
0.0
 11
3.4193096007
 21
-0.0
 31
0.0
 40
0.6644630244
 41
2.5504474514
 42
2.6099721559
  0
ELLIPSE
  5
2B7
100
AcDbEntity
  8
00_COMPONENTS_1
100
AcDbEllipse
 62
7
  6
BYLAYER
 10
77.7357745425
 20
140.4315607613
 30
0.0
 11
3.4193096007
 21
0.0
 31
0.0
 40
0.6644630244
 41
0.5911452022
 42
2.1032571002
  0
ENDSEC
  0
SECTION
  2
OBJECTS
  0
DICTIONARY
  5
C
100
AcDbDictionary
280
0
281
1
  3
ACAD_GROUP
350
D
  3
ACAD_MLINESTYLE
350
17
  3
ACAD_LAYOUT
350
1A
  3
ACAD_PLOTSETTINGS
350
19
  3
ACAD_PLOTSTYLENAME
350
E
  0
DICTIONARY
  5
D
102
{ACAD_REACTORS
330
C
102
}
100
AcDbDictionary
280
0
281
1
  0
ACDBDICTIONARYWDFLT
  5
E
102
{ACAD_REACTORS
330
C
102
}
100
AcDbDictionary
281
1
  3
Normal
350
F
100
AcDbDictionaryWithDefault
340
F
  0
DICTIONARY
  5
17
102
{ACAD_REACTORS
330
C
102
}
100
AcDbDictionary
280
0
281
1
  3
Standard
350
18
  0
DICTIONARY
  5
19
102
{ACAD_REACTORS
330
C
102
}
100
AcDbDictionary
281
1
  0
DICTIONARY
  5
1A
102
{ACAD_REACTORS
330
C
102
}
100
AcDbDictionary
281
1
  3
Model
350
2B8
  3
Layout1
350
2B9
  0
ACDBPLACEHOLDER
  5
F
102
{ACAD_REACTORS
330
E
102
}
  0
MLINESTYLE
  5
18
102
{ACAD_REACTORS
330
17
102
}
100
AcDbMlineStyle
  2
STANDARD
 70
0
  3

 62
256
 51
90.0
 52
90.0
 71
2
 49
0.5
 62
256
  6
BYLAYER
 49
-0.5
 62
256
  6
BYLAYER
  0
LAYOUT
  5
2B8
102
{ACAD_REACTORS
330
1A
102
}
100
AcDbPlotSettings
  1

  2
none_device
  4

  6

 40
0.0
 41
0.0
 42
0.0
 43
0.0
 44
210.0
 45
297.0
 46
0.0
 47
0.0
 48
0.0
 49
0.0
140
0.0
141
0.0
142
1.0
143
1.0
 70
1024
 72
1
 73
0
 74
0
  7

 75
0
147
1.0
148
0.0
149
0.0
100
AcDbLayout
  1
Model
 70
0
 71
0
 10
0.0
 20
0.0
 11
210.0
 21
297.0
 12
0.0
 22
0.0
 32
0.0
 14
0.0
 24
0.0
 34
0.0
 15
0.0
 25
0.0
 35
0.0
146
0.0
 13
0.0
 23
0.0
 33
0.0
 16
1.0
 26
0.0
 36
0.0
 17
0.0
 27
1.0
 37
0.0
 76
0
330
219
345
0
346
0
  0
LAYOUT
  5
2B9
102
{ACAD_REACTORS
330
1A
102
}
100
AcDbPlotSettings
  1

  2
none_device
  4

  6

 40
0.0
 41
0.0
 42
0.0
 43
0.0
 44
210.0
 45
297.0
 46
0.0
 47
0.0
 48
0.0
 49
0.0
140
0.0
141
0.0
142
1.0
143
1.0
 70
0
 72
1
 73
0
 74
0
  7

 75
0
147
1.0
148
0.0
149
0.0
100
AcDbLayout
  1
Layout1
 70
0
 71
1
 10
0.0
 20
0.0
 11
210.0
 21
297.0
 12
0.0
 22
0.0
 32
0.0
 14
0.0
 24
0.0
 34
0.0
 15
0.0
 25
0.0
 35
0.0
146
0.0
 13
0.0
 23
0.0
 33
0.0
 16
1.0
 26
0.0
 36
0.0
 17
0.0
 27
1.0
 37
0.0
 76
0
330
21A
345
0
346
0
  0
ENDSEC
  0
EOF
