999
DXF file: C:\Users\sesa63760\Dev\_Creo\CAD\MCADID0000516_3D-CAD\drw0001_4.dxf
999
Pro/ENGINEER 2019471 by Parametric Technology Corporation
  0
SECTION
  2
HEADER
  9
$ACADVER
  1
AC1024
  9
$DWGCODEPAGE
  3
ANSI_1252
  9
$EXTMAX
 10
226.9147591018
 20
320.9223021583
 30
0.0
  9
$EXTMIN
 10
0.0
 20
0.0
 30
0.0
  9
$LIMMIN
 10
0.0
 20
0.0
  9
$LIMMAX
 10
226.9147591018
 20
320.9223021583
  9
$VIEWCTR
 10
113.4573795509
 20
160.4611510791
  9
$VIEWSIZE
 40
320.9223021583
  9
$CLAYER
  8
0
  9
$LTSCALE
 40
20.9193796962
  9
$CELTYPE
  6
BYLAYER
  9
$DIMSCALE
 40
1.0
  9
$DIMASZ
 40
2.7013661798
  9
$DIMEXO
 40
1.0
  9
$DIMDLI
 40
14.4533896083
  9
$DIMEXE
 40
1.0
  9
$DIMCEN
 40
3.423171223
  9
$DIMLFAC
 40
1.0
  9
$DIMBLK
  1
_FILLED
  9
$DIMALT
 70
0
  9
$DIMALTF
 40
0.0393700787
  9
$DIMTXT
 40
3.7819126517
  9
$DIMTOL
 70
1
  9
$DIMLIM
 70
0
  9
$DIMTFAC
 40
1.0
  9
$DIMTP
 40
0.01
  9
$DIMTM
 40
0.01
  9
$DIMGAP
 40
0.625
  9
$DIMDSEP
 70
46
  9
$AUNITS
 70
0
  9
$PDMODE
 70
3
  9
$PDSIZE
 40
0.3125
  9
$HANDSEED
  5
329
  9
$TILEMODE
 70
1
  9
$MEASUREMENT
 70
1
  9
$INSUNITS
 70
4
  0
ENDSEC
  0
SECTION
  2
CLASSES
  0
CLASS
  1
ACDBDICTIONARYWDFLT
  2
AcDbDictionaryWithDefault
  3
AutoCAD 2000
 90
0
 91
1
280
0
281
0
  0
CLASS
  1
ACDBPLACEHOLDER
  2
AcDbPlaceHolder
  3
AutoCAD 2000
 90
0
 91
1
280
0
281
0
  0
CLASS
  1
LAYOUT
  2
AcDbLayout
  3
AutoCAD 2000
 90
0
 91
0
280
0
281
0
  0
ENDSEC
  0
SECTION
  2
TABLES
  0
TABLE
  2
VPORT
  5
8
100
AcDbSymbolTable
 70
2
  0
VPORT
  5
1F4
100
AcDbSymbolTableRecord
100
AcDbViewportTableRecord
  2
*ACTIVE
 70
0
 10
0.0
 20
0.0
 11
1.0
 21
1.0
 12
113.4573795509
 22
160.4611510791
 13
0.0
 23
0.0
 14
1.0
 24
1.0
 15
0.0
 25
0.0
 16
0.0
 26
0.0
 36
1.0
 17
0.0
 27
0.0
 37
0.0
 40
320.9223021583
 41
0.7070707071
 42
50.0
 43
0.0
 44
0.0
 50
0.0
 51
0.0
 71
0
 72
100
 73
1
 74
1
 75
0
 76
0
 77
0
 78
0
  0
ENDTAB
  0
TABLE
  2
LTYPE
  5
5
100
AcDbSymbolTable
 70
6
  0
LTYPE
  5
14
100
AcDbSymbolTableRecord
100
AcDbLinetypeTableRecord
  2
BYBLOCK
 70
0
  3

 72
65
 73
0
 40
0.0
  0
LTYPE
  5
15
100
AcDbSymbolTableRecord
100
AcDbLinetypeTableRecord
  2
BYLAYER
 70
0
  3

 72
65
 73
0
 40
0.0
  0
LTYPE
  5
16
100
AcDbSymbolTableRecord
100
AcDbLinetypeTableRecord
  2
CONTINUOUS
 70
64
  3
Solid line
 72
65
 73
0
 40
0.0
  0
LTYPE
  5
1F5
100
AcDbSymbolTableRecord
100
AcDbLinetypeTableRecord
  2
CENTER
 70
64
  3
____ _ ____ _ ____ _ ____ _ ____ _ ____ _ ____
 72
65
 73
4
 40
0.6
 49
0.375
 74
0
 49
-0.075
 74
0
 49
0.075
 74
0
 49
-0.075
 74
0
  0
LTYPE
  5
1F6
100
AcDbSymbolTableRecord
100
AcDbLinetypeTableRecord
  2
HIDDEN
 70
64
  3
- - - - - - - - - - - - - - - - - - - -
 72
65
 73
2
 40
0.2
 49
0.1
 74
0
 49
-0.1
 74
0
  0
LTYPE
  5
1F7
100
AcDbSymbolTableRecord
100
AcDbLinetypeTableRecord
  2
PHANTOM
 70
64
  3
_____ _ _ _____ _ _ _____ _ _ _____
 72
65
 73
6
 40
0.8
 49
0.45
 74
0
 49
-0.05
 74
0
 49
0.1
 74
0
 49
-0.05
 74
0
 49
0.1
 74
0
 49
-0.05
 74
0
  0
LTYPE
  5
1F8
100
AcDbSymbolTableRecord
100
AcDbLinetypeTableRecord
  2
DOT
 70
64
  3
. . . . . . . . . . . . . . . . . . . .
 72
65
 73
2
 40
0.2
 49
0.1
 74
0
 49
-0.1
 74
0
  0
LTYPE
  5
1F9
100
AcDbSymbolTableRecord
100
AcDbLinetypeTableRecord
  2
DASHED
 70
64
  3
- - - - - - - - - - - - - - - - - - - -
 72
65
 73
2
 40
0.2
 49
0.1
 74
0
 49
-0.1
 74
0
  0
ENDTAB
  0
TABLE
  2
LAYER
  5
2
100
AcDbSymbolTable
 70
36
  0
LAYER
  5
10
100
AcDbSymbolTableRecord
100
AcDbLayerTableRecord
  2
0
 70
0
 62
7
  6
CONTINUOUS
370
-3
390
F
  0
LAYER
  5
1FA
100
AcDbSymbolTableRecord
100
AcDbLayerTableRecord
  2
DEFAULT_1
 70
0
 62
7
  6
CENTER
370
-3
390
F
  0
LAYER
  5
1FB
100
AcDbSymbolTableRecord
100
AcDbLayerTableRecord
  2
DEFAULT_2
 70
0
 62
8
  6
HIDDEN
370
-3
390
F
  0
LAYER
  5
1FC
100
AcDbSymbolTableRecord
100
AcDbLayerTableRecord
  2
DEFAULT_3
 70
0
 62
7
  6
PHANTOM
370
-3
390
F
  0
LAYER
  5
1FD
100
AcDbSymbolTableRecord
100
AcDbLayerTableRecord
  2
00_COMPONENTS
 70
0
 62
7
  6
CONTINUOUS
370
-3
390
F
  0
LAYER
  5
1FE
100
AcDbSymbolTableRecord
100
AcDbLayerTableRecord
  2
01_1_DEFAULT_DATUMS
 70
0
 62
7
  6
CONTINUOUS
370
-3
390
F
  0
LAYER
  5
1FF
100
AcDbSymbolTableRecord
100
AcDbLayerTableRecord
  2
01_PLANES
 70
0
 62
7
  6
CONTINUOUS
370
-3
390
F
  0
LAYER
  5
200
100
AcDbSymbolTableRecord
100
AcDbLayerTableRecord
  2
02_COORD_SYS
 70
0
 62
7
  6
CONTINUOUS
370
-3
390
F
  0
LAYER
  5
201
100
AcDbSymbolTableRecord
100
AcDbLayerTableRecord
  2
03_AXES
 70
0
 62
7
  6
CONTINUOUS
370
-3
390
F
  0
LAYER
  5
202
100
AcDbSymbolTableRecord
100
AcDbLayerTableRecord
  2
04_POINTS
 70
0
 62
7
  6
CONTINUOUS
370
-3
390
F
  0
LAYER
  5
203
100
AcDbSymbolTableRecord
100
AcDbLayerTableRecord
  2
05_CURVES
 70
0
 62
7
  6
CONTINUOUS
370
-3
390
F
  0
LAYER
  5
204
100
AcDbSymbolTableRecord
100
AcDbLayerTableRecord
  2
06_SURFS
 70
0
 62
7
  6
CONTINUOUS
370
-3
390
F
  0
LAYER
  5
205
100
AcDbSymbolTableRecord
100
AcDbLayerTableRecord
  2
07_COSMETICS
 70
0
 62
7
  6
CONTINUOUS
370
-3
390
F
  0
LAYER
  5
206
100
AcDbSymbolTableRecord
100
AcDbLayerTableRecord
  2
10_NOTES
 70
0
 62
7
  6
CONTINUOUS
370
-3
390
F
  0
LAYER
  5
207
100
AcDbSymbolTableRecord
100
AcDbLayerTableRecord
  2
11_NOTES_PUB
 70
0
 62
7
  6
CONTINUOUS
370
-3
390
F
  0
LAYER
  5
208
100
AcDbSymbolTableRecord
100
AcDbLayerTableRecord
  2
13_REF_GTOL
 70
0
 62
7
  6
CONTINUOUS
370
-3
390
F
  0
LAYER
  5
209
100
AcDbSymbolTableRecord
100
AcDbLayerTableRecord
  2
16_MISC
 70
0
 62
7
  6
CONTINUOUS
370
-3
390
F
  0
LAYER
  5
20A
100
AcDbSymbolTableRecord
100
AcDbLayerTableRecord
  2
17_NO_PRINT
 70
0
 62
7
  6
CONTINUOUS
370
-3
390
F
  0
LAYER
  5
20B
100
AcDbSymbolTableRecord
100
AcDbLayerTableRecord
  2
18_DATUM_CAMS_JOINTS
 70
0
 62
7
  6
CONTINUOUS
370
-3
390
F
  0
LAYER
  5
20C
100
AcDbSymbolTableRecord
100
AcDbLayerTableRecord
  2
19_DATUM_FUNCTIONAL
 70
0
 62
7
  6
CONTINUOUS
370
-3
390
F
  0
LAYER
  5
20D
100
AcDbSymbolTableRecord
100
AcDbLayerTableRecord
  2
20_DATUM_KINEMATIC_SCHEME
 70
0
 62
7
  6
CONTINUOUS
370
-3
390
F
  0
ENDTAB
  0
TABLE
  2
STYLE
  5
3
100
AcDbSymbolTable
 70
1
  0
STYLE
  5
11
100
AcDbSymbolTableRecord
100
AcDbTextStyleTableRecord
  2
STANDARD
 70
0
 40
0.0
 41
0.8
 50
0.0
 71
0
 42
0.2
  3
txt
  4

  0
STYLE
  5
20E
100
AcDbSymbolTableRecord
100
AcDbTextStyleTableRecord
  2
TEXTSTYLE_1
 70
0
 40
0.0
 41
0.8
 50
0.0
 71
0
 42
0.2
  3
gdt
  4

  0
ENDTAB
  0
TABLE
  2
VIEW
  5
6
100
AcDbSymbolTable
 70
0
  0
ENDTAB
  0
TABLE
  2
UCS
  5
7
100
AcDbSymbolTable
 70
0
  0
ENDTAB
  0
TABLE
  2
APPID
  5
9
100
AcDbSymbolTable
 70
1
  0
APPID
  5
20F
100
AcDbSymbolTableRecord
100
AcDbRegAppTableRecord
  2
ACAD
 70
0
  0
ENDTAB
  0
TABLE
  2
BLOCK_RECORD
  5
1
100
AcDbSymbolTable
 70
0
  0
BLOCK_RECORD
  5
210
100
AcDbSymbolTableRecord
100
AcDbBlockTableRecord
  2
*Model_Space
  0
BLOCK_RECORD
  5
211
100
AcDbSymbolTableRecord
100
AcDbBlockTableRecord
  2
*Paper_Space
  0
BLOCK_RECORD
  5
212
100
AcDbSymbolTableRecord
100
AcDbBlockTableRecord
  2
_FILLED
  0
ENDTAB
  0
TABLE
  2
DIMSTYLE
  5
A
100
AcDbSymbolTable
 70
1
100
AcDbDimStyleTable
 71
0
  0
DIMSTYLE
105
213
100
AcDbSymbolTableRecord
100
AcDbDimStyleTableRecord
  2
STANDARD
 70
0
  3

  4

 40
1.0
 41
2.7013661798
 42
1.0
 43
0.38
 44
1.0
 45
0.0
 46
0.0
 47
0.01
 48
0.01
140
3.7819126517
141
0.09
142
0.0
143
25.4
144
1.0
145
0.0
146
1.0
147
0.625
 71
1
 72
0
 73
0
 74
0
 75
0
 76
0
 77
1
 78
8
 79
2
170
0
171
1
172
0
173
0
174
0
175
0
176
0
177
0
178
0
270
2
179
2
271
2
272
2
273
2
274
2
275
0
280
0
281
0
282
0
283
1
284
8
285
0
286
0
287
3
288
0
340
11
278
46
341
212
342
212
343
212
344
212
  0
ENDTAB
  0
ENDSEC
  0
SECTION
  2
BLOCKS
  0
BLOCK
  5
20
100
AcDbEntity
  8
0
100
AcDbBlockBegin
  2
*Model_Space
 70
0
 10
0.0
 20
0.0
 30
0.0
  3
*Model_Space
  1

  0
ENDBLK
  5
21
100
AcDbEntity
  8
0
100
AcDbBlockEnd
  0
BLOCK
  5
1C
100
AcDbEntity
  8
0
100
AcDbBlockBegin
  2
*Paper_Space
 70
0
 10
0.0
 20
0.0
 30
0.0
  3
*Paper_Space
  1

  0
ENDBLK
  5
1D
100
AcDbEntity
  8
0
100
AcDbBlockEnd
  0
BLOCK
  5
214
100
AcDbEntity
  8
0
100
AcDbBlockBegin
  2
_FILLED
 70
64
 10
0.0
 20
0.0
  3
_FILLED
  1

  0
SOLID
  5
215
100
AcDbEntity
  8
0
  6
BYBLOCK
 62
0
100
AcDbTrace
 10
0.0
 20
0.0
 11
-1.0
 21
0.25
 12
-1.0
 22
-0.25
 13
-1.0
 23
-0.25
  0
ENDBLK
  5
216
100
AcDbEntity
  8
0
  6
BYBLOCK
 62
0
100
AcDbBlockEnd
  0
ENDSEC
  0
SECTION
  2
ENTITIES
  0
LINE
  5
217
100
AcDbEntity
  8
0
100
AcDbLine
 62
7
  6
CONTINUOUS
 10
134.8534320135
 20
22.9791366906
 11
139.4534320135
 21
22.9791366906
  0
LINE
  5
218
100
AcDbEntity
  8
0
100
AcDbLine
 62
7
  6
CONTINUOUS
 10
133.3534320135
 20
23.4791366906
 11
134.8534320135
 21
23.4791366906
  0
LINE
  5
219
100
AcDbEntity
  8
0
100
AcDbLine
 62
7
  6
CONTINUOUS
 10
139.8534320135
 20
25.7791366906
 11
139.9534320135
 21
25.7791366906
  0
LINE
  5
21A
100
AcDbEntity
  8
0
100
AcDbLine
 62
7
  6
CONTINUOUS
 10
134.8534320135
 20
30.9791366906
 11
139.8534320271
 21
30.9791366569
  0
LINE
  5
21B
100
AcDbEntity
  8
0
100
AcDbLine
 62
7
  6
CONTINUOUS
 10
139.9534320135
 20
31.1791366906
 11
139.8534320135
 21
31.1791366906
  0
LINE
  5
21C
100
AcDbEntity
  8
0
100
AcDbLine
 62
7
  6
CONTINUOUS
 10
134.8534320135
 20
31.4791366979
 11
133.0534320135
 21
31.4791366906
  0
LINE
  5
21D
100
AcDbEntity
  8
0
100
AcDbLine
 62
7
  6
CONTINUOUS
 10
117.3403461973
 20
38.230283452
 11
117.0534320135
 21
38.230283452
  0
LINE
  5
21E
100
AcDbEntity
  8
0
100
AcDbLine
 62
7
  6
CONTINUOUS
 10
117.0534320135
 20
38.2636886339
 11
116.5752417071
 21
38.2636886339
  0
LINE
  5
21F
100
AcDbEntity
  8
0
100
AcDbLine
 62
7
  6
CONTINUOUS
 10
93.1403461973
 20
39.2868782683
 11
92.8534320135
 21
39.2868782683
  0
LINE
  5
220
100
AcDbEntity
  8
0
100
AcDbLine
 62
7
  6
CONTINUOUS
 10
133.0534320135
 20
32.5489941993
 11
93.1403461973
 21
34.2916371604
  0
LINE
  5
221
100
AcDbEntity
  8
0
100
AcDbLine
 62
7
  6
CONTINUOUS
 10
93.1403461973
 20
39.2868782772
 11
116.5752417071
 21
38.2636886439
  0
LINE
  5
222
100
AcDbEntity
  8
0
100
AcDbLine
 62
7
  6
CONTINUOUS
 10
117.3403461973
 20
38.2302834517
 11
133.0534320135
 21
37.5442353073
  0
LINE
  5
223
100
AcDbEntity
  8
0
100
AcDbLine
 62
7
  6
CONTINUOUS
 10
122.0680257734
 20
41.4593222825
 11
120.2285924576
 21
41.4036653613
  0
LINE
  5
224
100
AcDbEntity
  8
0
100
AcDbLine
 62
7
  6
CONTINUOUS
 10
119.2958150272
 20
41.6795692198
 11
121.9180257734
 21
41.7589111429
  0
LINE
  5
225
100
AcDbEntity
  8
0
100
AcDbLine
 62
7
  6
CONTINUOUS
 10
120.2373163354
 20
41.2039394543
 11
123.5298193106
 21
41.2114732709
  0
LINE
  5
226
100
AcDbEntity
  8
0
100
AcDbLine
 62
7
  6
CONTINUOUS
 10
120.2285924576
 20
41.4036653613
 11
123.3215975071
 21
41.410971197
  0
LINE
  5
227
100
AcDbEntity
  8
0
100
AcDbLine
 62
7
  6
CONTINUOUS
 10
122.4180257734
 20
41.4642372002
 11
123.2683315039
 21
41.4642372002
  0
LINE
  5
228
100
AcDbEntity
  8
0
100
AcDbLine
 62
7
  6
CONTINUOUS
 10
119.2958150272
 20
41.6795692291
 11
119.2045389038
 21
41.6795692291
  0
LINE
  5
229
100
AcDbEntity
  8
0
100
AcDbLine
 62
7
  6
CONTINUOUS
 10
123.2534320135
 20
41.7638260606
 11
122.4180257734
 21
41.7638260606
  0
LINE
  5
22A
100
AcDbEntity
  8
0
100
AcDbLine
 62
7
  6
CONTINUOUS
 10
122.4180257734
 20
43.1944473206
 11
123.2534320135
 21
43.1944473206
  0
LINE
  5
22B
100
AcDbEntity
  8
0
100
AcDbLine
 62
7
  6
CONTINUOUS
 10
119.2045389038
 20
43.2787042408
 11
119.2958150272
 21
43.2787042408
  0
LINE
  5
22C
100
AcDbEntity
  8
0
100
AcDbLine
 62
7
  6
CONTINUOUS
 10
123.2683315039
 20
43.4940361811
 11
122.4180257734
 21
43.4940361811
  0
LINE
  5
22D
100
AcDbEntity
  8
0
100
AcDbLine
 62
7
  6
CONTINUOUS
 10
117.0534320135
 20
47.1290329215
 11
117.3403461973
 21
47.1290329215
  0
LINE
  5
22E
100
AcDbEntity
  8
0
100
AcDbLine
 62
7
  6
CONTINUOUS
 10
113.8403461973
 20
49.4532400487
 11
113.5534320135
 21
49.4532400487
  0
LINE
  5
22F
100
AcDbEntity
  8
0
100
AcDbLine
 62
7
  6
CONTINUOUS
 10
123.5298193106
 20
43.7468001103
 11
120.237316335
 21
43.7543339269
  0
LINE
  5
230
100
AcDbEntity
  8
0
100
AcDbLine
 62
7
  6
CONTINUOUS
 10
123.3215975071
 20
43.5473021843
 11
120.2285924576
 21
43.55460802
  0
LINE
  5
231
100
AcDbEntity
  8
0
100
AcDbLine
 62
7
  6
CONTINUOUS
 10
121.9180257734
 20
43.1993622384
 11
119.2958150272
 21
43.2787041827
  0
LINE
  5
232
100
AcDbEntity
  8
0
100
AcDbLine
 62
7
  6
CONTINUOUS
 10
120.2285924576
 20
43.55460802
 11
122.0680257734
 21
43.4989510988
  0
LINE
  5
233
100
AcDbEntity
  8
0
100
AcDbLine
 62
7
  6
CONTINUOUS
 10
114.2114118698
 20
270.4447259532
 11
116.7244420851
 21
271.3593941494
  0
LINE
  5
234
100
AcDbEntity
  8
0
100
AcDbLine
 62
7
  6
CONTINUOUS
 10
116.8138902254
 20
271.0774601258
 11
114.3008430062
 21
270.1627857407
  0
LINE
  5
235
100
AcDbEntity
  8
0
100
AcDbLine
 62
7
  6
CONTINUOUS
 10
116.7244420864
 20
47.5988792315
 11
114.2114118706
 21
48.5135474278
  0
LINE
  5
236
100
AcDbEntity
  8
0
100
AcDbLine
 62
7
  6
CONTINUOUS
 10
114.3009709722
 20
48.7954410648
 11
116.8149720954
 21
47.880419487
  0
LINE
  5
237
100
AcDbEntity
  8
0
100
AcDbLine
 62
7
  6
CONTINUOUS
 10
113.5534320135
 20
69.5050333325
 11
113.8403461973
 21
69.5050333325
  0
LINE
  5
238
100
AcDbEntity
  8
0
100
AcDbLine
 62
7
  6
CONTINUOUS
 10
117.3403461973
 20
71.8292404597
 11
117.0534320135
 21
71.8292404597
  0
LINE
  5
239
100
AcDbEntity
  8
0
100
AcDbLine
 62
7
  6
CONTINUOUS
 10
103.5534320135
 20
76.2791366906
 11
112.9534320135
 21
76.2791366906
  0
LINE
  5
23A
100
AcDbEntity
  8
0
100
AcDbLine
 62
7
  6
CONTINUOUS
 10
123.2683315039
 20
277.4940361811
 11
123.3215975071
 21
277.5473021843
  0
LINE
  5
23B
100
AcDbEntity
  8
0
100
AcDbLine
 62
7
  6
CONTINUOUS
 10
101.3534320135
 20
80.9791366906
 11
103.1534320135
 21
80.9791366906
  0
LINE
  5
23C
100
AcDbEntity
  8
0
100
AcDbLine
 62
7
  6
CONTINUOUS
 10
103.1534320135
 20
83.5791366906
 11
101.3534320135
 21
83.5791366906
  0
LINE
  5
23D
100
AcDbEntity
  8
0
100
AcDbLine
 62
7
  6
CONTINUOUS
 10
123.3215975071
 20
41.410971197
 11
123.2683315039
 21
41.4642372002
  0
LINE
  5
23E
100
AcDbEntity
  8
0
100
AcDbLine
 62
7
  6
CONTINUOUS
 10
101.3534320135
 20
87.9791366906
 11
103.1534320135
 21
87.9791366906
  0
LINE
  5
23F
100
AcDbEntity
  8
0
100
AcDbLine
 62
7
  6
CONTINUOUS
 10
103.1534320135
 20
90.5791366906
 11
101.3534320135
 21
90.5791366906
  0
LINE
  5
240
100
AcDbEntity
  8
0
100
AcDbLine
 62
7
  6
CONTINUOUS
 10
112.9534320135
 20
95.2791366906
 11
103.5534320135
 21
95.2791366906
  0
LINE
  5
241
100
AcDbEntity
  8
0
100
AcDbLine
 62
7
  6
CONTINUOUS
 10
112.0090148423
 20
217.4902249724
 11
112.7622825872
 21
218.2449434278
  0
LINE
  5
242
100
AcDbEntity
  8
0
100
AcDbLine
 62
7
  6
CONTINUOUS
 10
95.1534320135
 20
176.1407584541
 11
95.1842039149
 21
174.377837402
  0
LINE
  5
243
100
AcDbEntity
  8
0
100
AcDbLine
 62
7
  6
CONTINUOUS
 10
92.8534320135
 20
34.5913516269
 11
92.8534320135
 21
284.3669217543
  0
LINE
  5
244
100
AcDbEntity
  8
0
100
AcDbLine
 62
7
  6
CONTINUOUS
 10
93.1403461973
 20
39.2868782772
 11
93.1403461973
 21
279.6713950996
  0
LINE
  5
245
100
AcDbEntity
  8
0
100
AcDbLine
 62
7
  6
CONTINUOUS
 10
95.1534320135
 20
176.1407584541
 11
95.1534320135
 21
174.377837402
  0
LINE
  5
246
100
AcDbEntity
  8
0
100
AcDbLine
 62
7
  6
CONTINUOUS
 10
98.4534320135
 20
178.5291366906
 11
98.4534320135
 21
211.4291366906
  0
LINE
  5
247
100
AcDbEntity
  8
0
100
AcDbLine
 62
7
  6
CONTINUOUS
 10
101.1534320135
 20
81.1791366906
 11
101.1534320135
 21
83.3791366906
  0
LINE
  5
248
100
AcDbEntity
  8
0
100
AcDbLine
 62
7
  6
CONTINUOUS
 10
101.1534320135
 20
88.1791366906
 11
101.1534320135
 21
90.3791366906
  0
LINE
  5
249
100
AcDbEntity
  8
0
100
AcDbLine
 62
7
  6
CONTINUOUS
 10
103.3534320135
 20
76.4791366906
 11
103.3534320135
 21
80.7791366906
  0
LINE
  5
24A
100
AcDbEntity
  8
0
100
AcDbLine
 62
7
  6
CONTINUOUS
 10
103.3534320135
 20
83.7791366906
 11
103.3534320135
 21
87.7791366906
  0
LINE
  5
24B
100
AcDbEntity
  8
0
100
AcDbLine
 62
7
  6
CONTINUOUS
 10
103.3534320135
 20
90.7791366906
 11
103.3534320135
 21
95.0791366906
  0
LINE
  5
24C
100
AcDbEntity
  8
0
100
AcDbLine
 62
7
  6
CONTINUOUS
 10
104.4534320135
 20
216.9520989998
 11
104.4534320135
 21
240.8061741338
  0
LINE
  5
24D
100
AcDbEntity
  8
0
100
AcDbLine
 62
7
  6
CONTINUOUS
 10
106.3841827121
 20
241.3791366906
 11
106.3841827121
 21
216.3791366906
  0
LINE
  5
24E
100
AcDbEntity
  8
0
100
AcDbLine
 62
7
  6
CONTINUOUS
 10
107.6390691712
 20
241.3791366906
 11
107.6390691712
 21
216.3791366906
  0
LINE
  5
24F
100
AcDbEntity
  8
0
100
AcDbLine
 62
7
  6
CONTINUOUS
 10
108.5118439854
 20
240.2879306563
 11
108.5118439854
 21
217.4902249724
  0
LINE
  5
250
100
AcDbEntity
  8
0
100
AcDbLine
 62
7
  6
CONTINUOUS
 10
111.9534320135
 20
241.4193039045
 11
111.9534320135
 21
241.3865899399
  0
LINE
  5
251
100
AcDbEntity
  8
0
100
AcDbLine
 62
7
  6
CONTINUOUS
 10
112.7622825872
 20
240.5791366906
 11
112.7622825872
 21
239.533212201
  0
LINE
  5
252
100
AcDbEntity
  8
0
100
AcDbLine
 62
7
  6
CONTINUOUS
 10
112.7622825872
 20
218.2449434278
 11
112.7622825872
 21
217.1791366906
  0
LINE
  5
253
100
AcDbEntity
  8
0
100
AcDbLine
 62
7
  6
CONTINUOUS
 10
112.7945608916
 20
240.5791366906
 11
112.7945608916
 21
217.1791366907
  0
LINE
  5
254
100
AcDbEntity
  8
0
100
AcDbLine
 62
7
  6
CONTINUOUS
 10
113.1534320135
 20
211.4291365419
 11
113.1534320135
 21
178.5291366906
  0
LINE
  5
255
100
AcDbEntity
  8
0
100
AcDbLine
 62
7
  6
CONTINUOUS
 10
113.1534320135
 20
95.0791365419
 11
113.1534320135
 21
76.4791366906
  0
LINE
  5
256
100
AcDbEntity
  8
0
100
AcDbLine
 62
7
  6
CONTINUOUS
 10
113.5534320135
 20
269.5050333338
 11
113.5534320135
 21
249.4532400481
  0
LINE
  5
257
100
AcDbEntity
  8
0
100
AcDbLine
 62
7
  6
CONTINUOUS
 10
113.5534320135
 20
69.5050333338
 11
113.5534320135
 21
49.453240048
  0
LINE
  5
258
100
AcDbEntity
  8
0
100
AcDbLine
 62
7
  6
CONTINUOUS
 10
113.8403461973
 20
49.4530282206
 11
113.8403461973
 21
69.5050251751
  0
LINE
  5
259
100
AcDbEntity
  8
0
100
AcDbLine
 62
7
  6
CONTINUOUS
 10
113.8403461975
 20
249.4530282203
 11
113.8403461973
 21
269.5050251751
  0
LINE
  5
25A
100
AcDbEntity
  8
0
100
AcDbLine
 62
7
  6
CONTINUOUS
 10
116.5752417071
 20
280.6945847346
 11
116.5752417071
 21
271.3050896528
  0
LINE
  5
25B
100
AcDbEntity
  8
0
100
AcDbLine
 62
7
  6
CONTINUOUS
 10
116.5752417071
 20
247.6531837285
 11
116.5752417071
 21
71.3050896528
  0
LINE
  5
25C
100
AcDbEntity
  8
0
100
AcDbLine
 62
7
  6
CONTINUOUS
 10
116.5752417071
 20
47.6531837285
 11
116.5752417071
 21
38.2636886439
  0
LINE
  5
25D
100
AcDbEntity
  8
0
100
AcDbLine
 62
7
  6
CONTINUOUS
 10
117.0534320135
 20
247.1290329215
 11
117.0534320135
 21
71.8292404597
  0
LINE
  5
25E
100
AcDbEntity
  8
0
100
AcDbLine
 62
7
  6
CONTINUOUS
 10
117.0534320135
 20
33.5347568085
 11
117.0534320135
 21
47.1290329215
  0
LINE
  5
25F
100
AcDbEntity
  8
0
100
AcDbLine
 62
7
  6
CONTINUOUS
 10
117.0534320135
 20
271.8292404597
 11
117.0534320135
 21
285.4235165728
  0
LINE
  5
260
100
AcDbEntity
  8
0
100
AcDbLine
 62
7
  6
CONTINUOUS
 10
117.3403461973
 20
38.2302834517
 11
117.3403461973
 21
47.1284496644
  0
LINE
  5
261
100
AcDbEntity
  8
0
100
AcDbLine
 62
7
  6
CONTINUOUS
 10
117.3403461973
 20
71.8289621819
 11
117.3403461973
 21
247.1284496643
  0
LINE
  5
262
100
AcDbEntity
  8
0
100
AcDbLine
 62
7
  6
CONTINUOUS
 10
117.3403461973
 20
271.8289621818
 11
117.3403461973
 21
280.7279899371
  0
LINE
  5
263
100
AcDbEntity
  8
0
100
AcDbLine
 62
7
  6
CONTINUOUS
 10
119.2045389016
 20
43.2787042441
 11
119.204538906
 21
41.6795692409
  0
LINE
  5
264
100
AcDbEntity
  8
0
100
AcDbLine
 62
7
  6
CONTINUOUS
 10
119.2045389016
 20
277.2787042441
 11
119.204538906
 21
275.6795692409
  0
LINE
  5
265
100
AcDbEntity
  8
0
100
AcDbLine
 62
7
  6
CONTINUOUS
 10
119.2958150272
 20
41.6795692198
 11
119.2958150272
 21
43.2787041827
  0
LINE
  5
266
100
AcDbEntity
  8
0
100
AcDbLine
 62
7
  6
CONTINUOUS
 10
119.2958150272
 20
275.6795692198
 11
119.2958150272
 21
277.2787041827
  0
LINE
  5
267
100
AcDbEntity
  8
0
100
AcDbLine
 62
7
  6
CONTINUOUS
 10
121.9180257734
 20
277.1993622384
 11
121.9180257734
 21
275.7589111429
  0
LINE
  5
268
100
AcDbEntity
  8
0
100
AcDbLine
 62
7
  6
CONTINUOUS
 10
121.9180257734
 20
43.1993622384
 11
121.9180257734
 21
41.7589111429
  0
LINE
  5
269
100
AcDbEntity
  8
0
100
AcDbLine
 62
7
  6
CONTINUOUS
 10
122.4180257734
 20
41.4642372002
 11
122.4180257734
 21
43.4940361811
  0
LINE
  5
26A
100
AcDbEntity
  8
0
100
AcDbLine
 62
7
  6
CONTINUOUS
 10
122.4180257734
 20
275.4642372002
 11
122.4180257734
 21
277.4940361811
  0
LINE
  5
26B
100
AcDbEntity
  8
0
100
AcDbLine
 62
7
  6
CONTINUOUS
 10
123.2534320135
 20
41.7638260606
 11
123.2534320135
 21
43.1944473206
  0
LINE
  5
26C
100
AcDbEntity
  8
0
100
AcDbLine
 62
7
  6
CONTINUOUS
 10
123.2534320135
 20
275.7638260606
 11
123.2534320135
 21
277.1944473206
  0
LINE
  5
26D
100
AcDbEntity
  8
0
100
AcDbLine
 62
7
  6
CONTINUOUS
 10
123.3215974668
 20
277.547302144
 11
123.3215974668
 21
275.4109712373
  0
LINE
  5
26E
100
AcDbEntity
  8
0
100
AcDbLine
 62
7
  6
CONTINUOUS
 10
123.3215974668
 20
43.547302144
 11
123.3215974668
 21
41.4109712373
  0
LINE
  5
26F
100
AcDbEntity
  8
0
100
AcDbLine
 62
7
  6
CONTINUOUS
 10
123.5298193106
 20
41.2114732709
 11
123.5298193106
 21
43.7468001103
  0
LINE
  5
270
100
AcDbEntity
  8
0
100
AcDbLine
 62
7
  6
CONTINUOUS
 10
123.5298193106
 20
275.2114732709
 11
123.5298193106
 21
277.7468001103
  0
LINE
  5
271
100
AcDbEntity
  8
0
100
AcDbLine
 62
7
  6
CONTINUOUS
 10
133.0534320135
 20
23.7791366906
 11
133.0534320135
 21
295.1791366906
  0
LINE
  5
272
100
AcDbEntity
  8
0
100
AcDbLine
 62
7
  6
CONTINUOUS
 10
133.3534320135
 20
23.4791366906
 11
133.3534320135
 21
295.4791366906
  0
LINE
  5
273
100
AcDbEntity
  8
0
100
AcDbLine
 62
7
  6
CONTINUOUS
 10
134.8534320135
 20
22.9791366906
 11
134.8534320135
 21
295.9791366906
  0
LINE
  5
274
100
AcDbEntity
  8
0
100
AcDbLine
 62
7
  6
CONTINUOUS
 10
98.6534320135
 20
178.3291366906
 11
112.9534320135
 21
178.3291366906
  0
LINE
  5
275
100
AcDbEntity
  8
0
100
AcDbLine
 62
7
  6
CONTINUOUS
 10
95.1842039149
 20
174.377837402
 11
95.1534320135
 21
174.3786431926
  0
LINE
  5
276
100
AcDbEntity
  8
0
100
AcDbLine
 62
7
  6
CONTINUOUS
 10
139.4534320135
 20
295.9791366906
 11
139.4534320135
 21
22.9791366906
  0
LINE
  5
277
100
AcDbEntity
  8
0
100
AcDbLine
 62
7
  6
CONTINUOUS
 10
139.8534320135
 20
294.9791366906
 11
139.8534320135
 21
23.9791367043
  0
LINE
  5
278
100
AcDbEntity
  8
0
100
AcDbLine
 62
7
  6
CONTINUOUS
 10
139.9534320135
 20
293.1791366906
 11
139.9534320135
 21
25.7791366906
  0
LINE
  5
279
100
AcDbEntity
  8
0
100
AcDbLine
 62
7
  6
CONTINUOUS
 10
112.9534307156
 20
211.6291366906
 11
98.6534320135
 21
211.6291366906
  0
LINE
  5
27A
100
AcDbEntity
  8
0
100
AcDbLine
 62
7
  6
CONTINUOUS
 10
112.0090148423
 20
240.2879306563
 11
112.7622825872
 21
239.533212201
  0
LINE
  5
27B
100
AcDbEntity
  8
0
100
AcDbLine
 62
7
  6
CONTINUOUS
 10
108.5118439854
 20
217.4902249724
 11
112.0090148423
 21
217.4902249724
  0
LINE
  5
27C
100
AcDbEntity
  8
0
100
AcDbLine
 62
7
  6
CONTINUOUS
 10
105.2534320135
 20
216.3466296004
 11
111.9534320135
 21
216.3389694768
  0
LINE
  5
27D
100
AcDbEntity
  8
0
100
AcDbLine
 62
7
  6
CONTINUOUS
 10
111.9534320135
 20
216.3716834414
 11
106.3841827121
 21
216.3791366906
  0
LINE
  5
27E
100
AcDbEntity
  8
0
100
AcDbLine
 62
7
  6
CONTINUOUS
 10
133.1412999791
 20
23.991268725
 11
133.0534320135
 21
23.7791366906
  0
LINE
  5
27F
100
AcDbEntity
  8
0
100
AcDbLine
 62
7
  6
CONTINUOUS
 10
133.0534320135
 20
295.1791366906
 11
133.1412999791
 21
294.9670046563
  0
LINE
  5
280
100
AcDbEntity
  8
0
100
AcDbLine
 62
7
  6
CONTINUOUS
 10
114.2114118698
 20
70.4447259532
 11
116.7244420851
 21
71.3593941494
  0
LINE
  5
281
100
AcDbEntity
  8
0
100
AcDbLine
 62
7
  6
CONTINUOUS
 10
116.8138902255
 20
71.0774601258
 11
114.300843006
 21
70.1627857406
  0
LINE
  5
282
100
AcDbEntity
  8
0
100
AcDbLine
 62
7
  6
CONTINUOUS
 10
111.9534320135
 20
241.4193039045
 11
105.2534320135
 21
241.4116437809
  0
LINE
  5
283
100
AcDbEntity
  8
0
100
AcDbLine
 62
7
  6
CONTINUOUS
 10
112.0090148423
 20
240.2879306563
 11
108.5118439854
 21
240.2879306563
  0
LINE
  5
284
100
AcDbEntity
  8
0
100
AcDbLine
 62
7
  6
CONTINUOUS
 10
112.7622825872
 20
240.5791366906
 11
112.7945608916
 21
240.5791366906
  0
LINE
  5
285
100
AcDbEntity
  8
0
100
AcDbLine
 62
7
  6
CONTINUOUS
 10
106.3841827121
 20
241.3791366906
 11
111.9534320135
 21
241.3865899399
  0
LINE
  5
286
100
AcDbEntity
  8
0
100
AcDbLine
 62
7
  6
CONTINUOUS
 10
116.7244420864
 20
247.5988792315
 11
114.2114118706
 21
248.5135474278
  0
LINE
  5
287
100
AcDbEntity
  8
0
100
AcDbLine
 62
7
  6
CONTINUOUS
 10
114.3009709726
 20
248.7954410649
 11
116.8149720953
 21
247.8804194871
  0
LINE
  5
288
100
AcDbEntity
  8
0
100
AcDbLine
 62
7
  6
CONTINUOUS
 10
123.2683315039
 20
43.4940361811
 11
123.3215975071
 21
43.5473021843
  0
LINE
  5
289
100
AcDbEntity
  8
0
100
AcDbLine
 62
7
  6
CONTINUOUS
 10
117.0534320135
 20
247.1290329215
 11
117.3403461973
 21
247.1290329215
  0
LINE
  5
28A
100
AcDbEntity
  8
0
100
AcDbLine
 62
7
  6
CONTINUOUS
 10
113.8403461974
 20
249.4532400488
 11
113.5534320135
 21
249.4532400488
  0
LINE
  5
28B
100
AcDbEntity
  8
0
100
AcDbLine
 62
7
  6
CONTINUOUS
 10
123.2683315039
 20
275.4642372002
 11
123.3215974668
 21
275.4109712373
  0
LINE
  5
28C
100
AcDbEntity
  8
0
100
AcDbLine
 62
7
  6
CONTINUOUS
 10
113.5534320135
 20
269.5050333325
 11
113.8403461974
 21
269.5050333325
  0
LINE
  5
28D
100
AcDbEntity
  8
0
100
AcDbLine
 62
7
  6
CONTINUOUS
 10
139.4534320135
 20
23.5791366906
 11
139.8534320271
 21
23.9791367043
  0
LINE
  5
28E
100
AcDbEntity
  8
0
100
AcDbLine
 62
7
  6
CONTINUOUS
 10
133.0534320135
 20
281.4140380748
 11
117.3403461973
 21
280.7279899371
  0
LINE
  5
28F
100
AcDbEntity
  8
0
100
AcDbLine
 62
7
  6
CONTINUOUS
 10
116.5752417071
 20
280.6945847346
 11
93.1403461973
 21
279.6713950996
  0
LINE
  5
290
100
AcDbEntity
  8
0
100
AcDbLine
 62
7
  6
CONTINUOUS
 10
122.0680257734
 20
275.4593222825
 11
120.2285924576
 21
275.4036653613
  0
LINE
  5
291
100
AcDbEntity
  8
0
100
AcDbLine
 62
7
  6
CONTINUOUS
 10
119.2958150272
 20
275.6795692198
 11
121.9180257734
 21
275.7589111429
  0
LINE
  5
292
100
AcDbEntity
  8
0
100
AcDbLine
 62
7
  6
CONTINUOUS
 10
120.2373163355
 20
275.2039394543
 11
123.5298193106
 21
275.2114732709
  0
LINE
  5
293
100
AcDbEntity
  8
0
100
AcDbLine
 62
7
  6
CONTINUOUS
 10
120.2285924576
 20
275.4036653613
 11
123.3215975071
 21
275.410971197
  0
LINE
  5
294
100
AcDbEntity
  8
0
100
AcDbLine
 62
7
  6
CONTINUOUS
 10
117.3403461973
 20
271.8292404597
 11
117.0534320135
 21
271.8292404597
  0
LINE
  5
295
100
AcDbEntity
  8
0
100
AcDbLine
 62
7
  6
CONTINUOUS
 10
122.4180288984
 20
275.4642372002
 11
123.2683315039
 21
275.4642372002
  0
LINE
  5
296
100
AcDbEntity
  8
0
100
AcDbLine
 62
7
  6
CONTINUOUS
 10
119.2958150272
 20
275.6795692291
 11
119.2045389038
 21
275.6795692291
  0
LINE
  5
297
100
AcDbEntity
  8
0
100
AcDbLine
 62
7
  6
CONTINUOUS
 10
123.2534320135
 20
275.7638260606
 11
122.4180257734
 21
275.7638260606
  0
LINE
  5
298
100
AcDbEntity
  8
0
100
AcDbLine
 62
7
  6
CONTINUOUS
 10
122.4180257734
 20
277.1944473206
 11
123.2534320135
 21
277.1944473206
  0
LINE
  5
299
100
AcDbEntity
  8
0
100
AcDbLine
 62
7
  6
CONTINUOUS
 10
119.2045389038
 20
277.2787042408
 11
119.2958150272
 21
277.2787042408
  0
LINE
  5
29A
100
AcDbEntity
  8
0
100
AcDbLine
 62
7
  6
CONTINUOUS
 10
123.2683315039
 20
277.4940361811
 11
122.4180257734
 21
277.4940361811
  0
LINE
  5
29B
100
AcDbEntity
  8
0
100
AcDbLine
 62
7
  6
CONTINUOUS
 10
92.8534320135
 20
279.671395113
 11
93.1403461973
 21
279.671395113
  0
LINE
  5
29C
100
AcDbEntity
  8
0
100
AcDbLine
 62
7
  6
CONTINUOUS
 10
116.5752417071
 20
280.6945847476
 11
117.0534320135
 21
280.6945847476
  0
LINE
  5
29D
100
AcDbEntity
  8
0
100
AcDbLine
 62
7
  6
CONTINUOUS
 10
117.0534320135
 20
280.7279899313
 11
117.3403461973
 21
280.7279899313
  0
LINE
  5
29E
100
AcDbEntity
  8
0
100
AcDbLine
 62
7
  6
CONTINUOUS
 10
123.5298193106
 20
277.7468001103
 11
120.237316335
 21
277.7543339269
  0
LINE
  5
29F
100
AcDbEntity
  8
0
100
AcDbLine
 62
7
  6
CONTINUOUS
 10
123.3215975071
 20
277.5473021843
 11
120.2285924576
 21
277.55460802
  0
LINE
  5
2A0
100
AcDbEntity
  8
0
100
AcDbLine
 62
7
  6
CONTINUOUS
 10
121.9180257734
 20
277.1993622384
 11
119.2958150272
 21
277.2787041827
  0
LINE
  5
2A1
100
AcDbEntity
  8
0
100
AcDbLine
 62
7
  6
CONTINUOUS
 10
120.2285924576
 20
277.55460802
 11
122.0680257734
 21
277.4989510988
  0
LINE
  5
2A2
100
AcDbEntity
  8
0
100
AcDbLine
 62
7
  6
CONTINUOUS
 10
139.8534320135
 20
294.9791366906
 11
139.4534320135
 21
295.3791366906
  0
LINE
  5
2A3
100
AcDbEntity
  8
0
100
AcDbLine
 62
7
  6
CONTINUOUS
 10
93.1403461973
 20
284.6666362209
 11
133.0534320135
 21
286.409279182
  0
LINE
  5
2A4
100
AcDbEntity
  8
0
100
AcDbLine
 62
7
  6
CONTINUOUS
 10
133.0534320135
 20
287.4791366906
 11
134.8534320135
 21
287.4791366906
  0
LINE
  5
2A5
100
AcDbEntity
  8
0
100
AcDbLine
 62
7
  6
CONTINUOUS
 10
139.8534320135
 20
287.7791366906
 11
139.9534320135
 21
287.7791366906
  0
LINE
  5
2A6
100
AcDbEntity
  8
0
100
AcDbLine
 62
7
  6
CONTINUOUS
 10
134.8534320135
 20
287.9791366906
 11
139.8534320271
 21
287.9791366906
  0
LINE
  5
2A7
100
AcDbEntity
  8
0
100
AcDbLine
 62
7
  6
CONTINUOUS
 10
139.9534320135
 20
293.1791366906
 11
139.8534320135
 21
293.1791366906
  0
LINE
  5
2A8
100
AcDbEntity
  8
0
100
AcDbLine
 62
7
  6
CONTINUOUS
 10
134.8534320135
 20
295.4791366906
 11
133.3534320135
 21
295.4791366906
  0
LINE
  5
2A9
100
AcDbEntity
  8
0
100
AcDbLine
 62
7
  6
CONTINUOUS
 10
139.4534320135
 20
295.9791366906
 11
134.8534320135
 21
295.9791366906
  0
ARC
  5
2AA
100
AcDbEntity
  8
0
100
AcDbCircle
 62
7
  6
CONTINUOUS
 10
122.3424788289
 20
22.6020132678
 40
19.1619617172
100
AcDbArc
 50
89.7741080818
 51
90.2931700055
  0
ARC
  5
2AB
100
AcDbEntity
  8
0
100
AcDbCircle
 62
7
  6
CONTINUOUS
 10
122.3434071908
 20
61.8792560877
 40
18.6849577627
100
AcDbArc
 50
269.1799641737
 51
270.2288119283
  0
ARC
  5
2AC
100
AcDbEntity
  8
0
100
AcDbCircle
 62
7
  6
CONTINUOUS
 10
122.3107372031
 20
26.1966084071
 40
15.5672569423
100
AcDbArc
 50
90.2440403095
 51
91.4455401352
  0
ARC
  5
2AD
100
AcDbEntity
  8
0
100
AcDbCircle
 62
7
  6
CONTINUOUS
 10
122.2756272322
 20
57.1689649842
 40
13.9741790341
100
AcDbArc
 50
268.5336318378
 51
269.1814406275
  0
ARC
  5
2AE
100
AcDbEntity
  8
0
100
AcDbCircle
 62
7
  6
CONTINUOUS
 10
114.5534320135
 20
49.4532400487
 40
1.0
100
AcDbArc
 50
180.0
 51
250.0000000278
  0
ARC
  5
2AF
100
AcDbEntity
  8
0
100
AcDbCircle
 62
7
  6
CONTINUOUS
 10
114.5534320135
 20
69.5050333325
 40
1.0
100
AcDbArc
 50
110.0000000197
 51
179.9999999232
  0
ARC
  5
2B0
100
AcDbEntity
  8
0
100
AcDbCircle
 62
7
  6
CONTINUOUS
 10
116.5043689506
 20
47.0621751385
 40
0.8752131898
100
AcDbArc
 50
64.6121442085
 51
69.2133856269
  0
ARC
  5
2B1
100
AcDbEntity
  8
0
100
AcDbCircle
 62
7
  6
CONTINUOUS
 10
116.5298385591
 20
71.8316176951
 40
0.8106229396
100
AcDbArc
 50
336.8379041193
 51
355.7653034643
  0
ARC
  5
2B2
100
AcDbEntity
  8
0
100
AcDbCircle
 62
7
  6
CONTINUOUS
 10
116.5432302795
 20
71.8205299232
 40
0.7908283822
100
AcDbArc
 50
290.0139333113
 51
295.1948082056
  0
ARC
  5
2B3
100
AcDbEntity
  8
0
100
AcDbCircle
 62
7
  6
CONTINUOUS
 10
116.5547761317
 20
71.8291309881
 40
0.7855700837
100
AcDbArc
 50
355.8118708109
 51
359.9876880731
  0
ARC
  5
2B4
100
AcDbEntity
  8
0
100
AcDbCircle
 62
7
  6
CONTINUOUS
 10
114.5399814312
 20
69.5054314343
 40
0.6995011583
100
AcDbArc
 50
109.9908424686
 51
156.619993858
  0
ARC
  5
2B5
100
AcDbEntity
  8
0
100
AcDbCircle
 62
7
  6
CONTINUOUS
 10
116.5534320135
 20
47.1290329215
 40
0.5
100
AcDbArc
 50
0.0
 51
69.9999998453
  0
ARC
  5
2B6
100
AcDbEntity
  8
0
100
AcDbCircle
 62
7
  6
CONTINUOUS
 10
116.5534320135
 20
71.8292404597
 40
0.5
100
AcDbArc
 50
289.9999999998
 51
360.0
  0
ARC
  5
2B7
100
AcDbEntity
  8
0
100
AcDbCircle
 62
7
  6
CONTINUOUS
 10
133.3534320135
 20
23.7791366906
 40
0.3
100
AcDbArc
 50
180.0000000001
 51
270.0000000003
  0
ARC
  5
2B8
100
AcDbEntity
  8
0
100
AcDbCircle
 62
7
  6
CONTINUOUS
 10
117.3534320135
 20
33.5347568085
 40
0.3
100
AcDbArc
 50
180.0
 51
267.4999998666
  0
ARC
  5
2B9
100
AcDbEntity
  8
0
100
AcDbCircle
 62
7
  6
CONTINUOUS
 10
93.1534320135
 20
34.5913516269
 40
0.3
100
AcDbArc
 50
180.0
 51
267.500000004
  0
ARC
  5
2BA
100
AcDbEntity
  8
0
100
AcDbCircle
 62
7
  6
CONTINUOUS
 10
103.1534320135
 20
80.7791366906
 40
0.2
100
AcDbArc
 50
0.0
 51
90.0
  0
ARC
  5
2BB
100
AcDbEntity
  8
0
100
AcDbCircle
 62
7
  6
CONTINUOUS
 10
103.5534320135
 20
76.4791366906
 40
0.2
100
AcDbArc
 50
180.0
 51
270.0
  0
ARC
  5
2BC
100
AcDbEntity
  8
0
100
AcDbCircle
 62
7
  6
CONTINUOUS
 10
112.9534320135
 20
76.4791366906
 40
0.2
100
AcDbArc
 50
270.0
 51
360.0
  0
ARC
  5
2BD
100
AcDbEntity
  8
0
100
AcDbCircle
 62
7
  6
CONTINUOUS
 10
112.9534320135
 20
95.0791366906
 40
0.2
100
AcDbArc
 50
0.0
 51
90.0
  0
ARC
  5
2BE
100
AcDbEntity
  8
0
100
AcDbCircle
 62
7
  6
CONTINUOUS
 10
103.5534320135
 20
95.0791366906
 40
0.2
100
AcDbArc
 50
90.0
 51
180.0
  0
ARC
  5
2BF
100
AcDbEntity
  8
0
100
AcDbCircle
 62
7
  6
CONTINUOUS
 10
103.1534320135
 20
90.7791366906
 40
0.2
100
AcDbArc
 50
270.0
 51
360.0
  0
ARC
  5
2C0
100
AcDbEntity
  8
0
100
AcDbCircle
 62
7
  6
CONTINUOUS
 10
103.1534320135
 20
87.7791366906
 40
0.2
100
AcDbArc
 50
0.0
 51
90.0
  0
ARC
  5
2C1
100
AcDbEntity
  8
0
100
AcDbCircle
 62
7
  6
CONTINUOUS
 10
103.1534320135
 20
83.7791366906
 40
0.2
100
AcDbArc
 50
270.0
 51
360.0
  0
ARC
  5
2C2
100
AcDbEntity
  8
0
100
AcDbCircle
 62
7
  6
CONTINUOUS
 10
101.3534320135
 20
81.1791366906
 40
0.2
100
AcDbArc
 50
180.0
 51
270.0
  0
ARC
  5
2C3
100
AcDbEntity
  8
0
100
AcDbCircle
 62
7
  6
CONTINUOUS
 10
101.3534320135
 20
83.3791366906
 40
0.2
100
AcDbArc
 50
90.0
 51
180.0
  0
ARC
  5
2C4
100
AcDbEntity
  8
0
100
AcDbCircle
 62
7
  6
CONTINUOUS
 10
101.3534320135
 20
88.1791366906
 40
0.2
100
AcDbArc
 50
180.0
 51
270.0
  0
ARC
  5
2C5
100
AcDbEntity
  8
0
100
AcDbCircle
 62
7
  6
CONTINUOUS
 10
101.3534320135
 20
90.3791366906
 40
0.2
100
AcDbArc
 50
90.0
 51
180.0
  0
ARC
  5
2C6
100
AcDbEntity
  8
0
100
AcDbCircle
 62
7
  6
CONTINUOUS
 10
122.4170966577
 20
249.5870745915
 40
26.1767514856
100
AcDbArc
 50
89.9979663479
 51
90.776223668
  0
ARC
  5
2C7
100
AcDbEntity
  8
0
100
AcDbCircle
 62
7
  6
CONTINUOUS
 10
122.3364119838
 20
255.8606182098
 40
19.9026909907
100
AcDbArc
 50
90.7886369155
 51
91.2045371139
  0
ARC
  5
2C8
100
AcDbEntity
  8
0
100
AcDbCircle
 62
7
  6
CONTINUOUS
 10
122.3434071905
 20
295.8792560927
 40
18.6849577677
100
AcDbArc
 50
269.1799641751
 51
270.2288119294
  0
ARC
  5
2C9
100
AcDbEntity
  8
0
100
AcDbCircle
 62
7
  6
CONTINUOUS
 10
122.2756272309
 20
291.1689648826
 40
13.9741789326
100
AcDbArc
 50
268.5336318327
 51
269.181440627
  0
ARC
  5
2CA
100
AcDbEntity
  8
0
100
AcDbCircle
 62
7
  6
CONTINUOUS
 10
114.5534320135
 20
249.4532400488
 40
1.0
100
AcDbArc
 50
180.0
 51
250.000000029
  0
ARC
  5
2CB
100
AcDbEntity
  8
0
100
AcDbCircle
 62
7
  6
CONTINUOUS
 10
114.5534320135
 20
269.5050333325
 40
1.0
100
AcDbArc
 50
110.0000000211
 51
179.9999999255
  0
ARC
  5
2CC
100
AcDbEntity
  8
0
100
AcDbCircle
 62
7
  6
CONTINUOUS
 10
116.5043689606
 20
247.0621751572
 40
0.8752131687
100
AcDbArc
 50
64.6121443015
 51
69.2133858138
  0
ARC
  5
2CD
100
AcDbEntity
  8
0
100
AcDbCircle
 62
7
  6
CONTINUOUS
 10
105.254264172
 20
217.1789793841
 40
0.8323501996
100
AcDbArc
 50
195.8177328925
 51
269.9427174081
  0
ARC
  5
2CE
100
AcDbEntity
  8
0
100
AcDbCircle
 62
7
  6
CONTINUOUS
 10
116.5298385593
 20
271.8316176951
 40
0.8106229394
100
AcDbArc
 50
336.8379042292
 51
355.7653034862
  0
ARC
  5
2CF
100
AcDbEntity
  8
0
100
AcDbCircle
 62
7
  6
CONTINUOUS
 10
116.5432302744
 20
271.8205299328
 40
0.790828393
100
AcDbArc
 50
290.0139334154
 51
295.194808288
  0
ARC
  5
2D0
100
AcDbEntity
  8
0
100
AcDbCircle
 62
7
  6
CONTINUOUS
 10
116.5547761331
 20
271.8291309879
 40
0.7855700823
100
AcDbArc
 50
355.8118708371
 51
359.9876880779
  0
ARC
  5
2D1
100
AcDbEntity
  8
0
100
AcDbCircle
 62
7
  6
CONTINUOUS
 10
114.5399814311
 20
269.5054314343
 40
0.6995011582
100
AcDbArc
 50
109.9908424467
 51
156.619993852
  0
ARC
  5
2D2
100
AcDbEntity
  8
0
100
AcDbCircle
 62
7
  6
CONTINUOUS
 10
116.5534320135
 20
247.1290329215
 40
0.5
100
AcDbArc
 50
0.0
 51
69.9999998465
  0
ARC
  5
2D3
100
AcDbEntity
  8
0
100
AcDbCircle
 62
7
  6
CONTINUOUS
 10
116.5534320135
 20
271.8292404597
 40
0.5
100
AcDbArc
 50
289.9999999994
 51
360.0
  0
ARC
  5
2D4
100
AcDbEntity
  8
0
100
AcDbCircle
 62
7
  6
CONTINUOUS
 10
133.3534320135
 20
295.1791366906
 40
0.3
100
AcDbArc
 50
90.0
 51
180.0
  0
ARC
  5
2D5
100
AcDbEntity
  8
0
100
AcDbCircle
 62
7
  6
CONTINUOUS
 10
117.3534320135
 20
285.4235165727
 40
0.3
100
AcDbArc
 50
92.4999999999
 51
180.00000005
  0
ARC
  5
2D6
100
AcDbEntity
  8
0
100
AcDbCircle
 62
7
  6
CONTINUOUS
 10
93.1534320135
 20
284.3669217543
 40
0.3
100
AcDbArc
 50
92.499999996
 51
180.0
  0
ARC
  5
2D7
100
AcDbEntity
  8
0
100
AcDbCircle
 62
7
  6
CONTINUOUS
 10
112.9534320135
 20
211.4291366906
 40
0.2
100
AcDbArc
 50
0.0
 51
90.000371818
  0
ARC
  5
2D8
100
AcDbEntity
  8
0
100
AcDbCircle
 62
7
  6
CONTINUOUS
 10
98.6534320135
 20
211.4291366906
 40
0.2
100
AcDbArc
 50
90.0
 51
180.0
  0
ARC
  5
2D9
100
AcDbEntity
  8
0
100
AcDbCircle
 62
7
  6
CONTINUOUS
 10
98.6534320135
 20
178.5291366906
 40
0.2
100
AcDbArc
 50
180.0
 51
270.0
  0
ARC
  5
2DA
100
AcDbEntity
  8
0
100
AcDbCircle
 62
7
  6
CONTINUOUS
 10
112.9534320135
 20
178.5291366906
 40
0.2
100
AcDbArc
 50
270.0
 51
360.0
  0
ARC
  5
2DB
100
AcDbEntity
  8
0
100
AcDbCircle
 62
7
  6
CONTINUOUS
 10
1462.985969964
 20
35.6822560523
 40
1369.850372841
100
AcDbArc
 50
179.8492317855
 51
180.0301718743
  0
ARC
  5
2DC
100
AcDbEntity
  8
0
100
AcDbCircle
 62
7
  6
CONTINUOUS
 10
1035.1501090694
 20
35.0272713193
 40
917.8153530408
100
AcDbArc
 50
179.800047524
 51
180.0702114705
  0
ARC
  5
2DD
100
AcDbEntity
  8
0
100
AcDbCircle
 62
7
  6
CONTINUOUS
 10
1404.2416282803
 20
284.3138141094
 40
1286.9063666578
100
AcDbArc
 50
179.9670165941
 51
180.1596488172
  0
SPLINE
  5
2DE
100
AcDbEntity
  8
0
100
AcDbSpline
 62
7
  6
CONTINUOUS
 70
0
 71
3
 72
9
 73
5
 74
0
 42
0.0000001
 43
0.0000001
 44
0.0000000001
 40
0.0
 40
0.0
 40
0.0
 40
0.0
 40
0.2344112326
 40
1.0
 40
1.0
 40
1.0
 40
1.0
 10
122.0680257734
 20
275.4593222825
 30
0.0
 10
122.0953647782
 20
275.4601494881
 30
0.0
 10
122.212008669
 20
275.4631625904
 30
0.0
 10
122.3286986492
 20
275.4642370319
 30
0.0
 10
122.4180288984
 20
275.4642372002
 30
0.0
  0
SPLINE
  5
2DF
100
AcDbEntity
  8
0
100
AcDbSpline
 62
7
  6
CONTINUOUS
 70
0
 71
3
 72
9
 73
5
 74
0
 42
0.0000001
 43
0.0000001
 44
0.0000000001
 40
0.0
 40
0.0
 40
0.0
 40
0.0
 40
0.2611516985
 40
1.0
 40
1.0
 40
1.0
 40
1.0
 10
122.4180257734
 20
277.4940361811
 30
0.0
 10
122.3875544505
 20
277.4940361214
 30
0.0
 10
122.2708748056
 20
277.4944111274
 30
0.0
 10
122.1541955746
 20
277.4963442626
 30
0.0
 10
122.0680257734
 20
277.4989510988
 30
0.0
  0
SPLINE
  5
2E0
100
AcDbEntity
  8
0
100
AcDbSpline
 62
7
  6
CONTINUOUS
 70
0
 71
3
 72
9
 73
5
 74
0
 42
0.0000001
 43
0.0000001
 44
0.0000000001
 40
0.0
 40
0.0
 40
0.0
 40
0.0
 40
0.2344112767
 40
1.0
 40
1.0
 40
1.0
 40
1.0
 10
122.0680257734
 20
41.4593222825
 30
0.0
 10
122.0953645393
 20
41.4601494809
 30
0.0
 10
122.2120073886
 20
41.4631625578
 30
0.0
 10
122.3286963268
 20
41.4642370371
 30
0.0
 10
122.4180257734
 20
41.4642372002
 30
0.0
  0
SPLINE
  5
2E1
100
AcDbEntity
  8
0
100
AcDbSpline
 62
7
  6
CONTINUOUS
 70
0
 71
3
 72
9
 73
5
 74
0
 42
0.0000001
 43
0.0000001
 44
0.0000000001
 40
0.0
 40
0.0
 40
0.0
 40
0.0
 40
0.2611516985
 40
1.0
 40
1.0
 40
1.0
 40
1.0
 10
122.4180257734
 20
43.4940361811
 30
0.0
 10
122.3875544505
 20
43.4940361214
 30
0.0
 10
122.2708748056
 20
43.4944111274
 30
0.0
 10
122.1541955746
 20
43.4963442626
 30
0.0
 10
122.0680257734
 20
43.4989510988
 30
0.0
  0
SPLINE
  5
2E2
100
AcDbEntity
  8
0
100
AcDbSpline
 62
7
  6
CONTINUOUS
 70
0
 71
3
 72
11
 73
7
 74
0
 42
0.0000001
 43
0.0000001
 44
0.0000000001
 40
0.0
 40
0.0
 40
0.0
 40
0.0
 40
0.0899660605
 40
0.3119084954
 40
0.640964975
 40
1.0
 40
1.0
 40
1.0
 40
1.0
 10
120.2285924576
 20
277.55460802
 30
0.0
 10
120.2324401438
 20
277.559213884
 30
0.0
 10
120.2305182095
 20
277.5824698033
 30
0.0
 10
120.2364337097
 20
277.6230333892
 30
0.0
 10
120.2362903375
 20
277.6847578466
 30
0.0
 10
120.2372616356
 20
277.7303830824
 30
0.0
 10
120.237316335
 20
277.7543339269
 30
0.0
  0
SPLINE
  5
2E3
100
AcDbEntity
  8
0
100
AcDbSpline
 62
7
  6
CONTINUOUS
 70
0
 71
3
 72
14
 73
10
 74
0
 42
0.0000001
 43
0.0000001
 44
0.0000000001
 40
0.0
 40
0.0
 40
0.0
 40
0.0
 40
0.2499892102
 40
0.3750497737
 40
0.5000866185
 40
0.6251440052
 40
0.7500855144
 40
0.8752860479
 40
1.0
 40
1.0
 40
1.0
 40
1.0
 10
120.237316335
 20
277.7543339269
 30
0.0
 10
120.1352780925
 20
277.7527247736
 30
0.0
 10
119.9818188188
 20
277.7453781604
 30
0.0
 10
119.7805516674
 20
277.7097078343
 30
0.0
 10
119.6323929533
 20
277.6701582791
 30
0.0
 10
119.4891694286
 20
277.6147990562
 30
0.0
 10
119.3559768897
 20
277.5377374339
 30
0.0
 10
119.2418956669
 20
277.4323707937
 30
0.0
 10
119.2042402122
 20
277.3296142644
 30
0.0
 10
119.2045389016
 20
277.2787042441
 30
0.0
  0
SPLINE
  5
2E4
100
AcDbEntity
  8
0
100
AcDbSpline
 62
7
  6
CONTINUOUS
 70
0
 71
3
 72
10
 73
6
 74
0
 42
0.0000001
 43
0.0000001
 44
0.0000000001
 40
0.0
 40
0.0
 40
0.0
 40
0.0
 40
0.2112736664
 40
0.4675191981
 40
1.0
 40
1.0
 40
1.0
 40
1.0
 10
119.2958146395
 20
277.2787041539
 30
0.0
 10
119.2947337889
 20
277.3500276679
 30
0.0
 10
119.4644554156
 20
277.4600924496
 30
0.0
 10
119.7728089628
 20
277.5344716835
 30
0.0
 10
120.0488250716
 20
277.5567226041
 30
0.0
 10
120.2285925542
 20
277.5546080425
 30
0.0
  0
SPLINE
  5
2E5
100
AcDbEntity
  8
0
100
AcDbSpline
 62
7
  6
CONTINUOUS
 70
0
 71
3
 72
10
 73
6
 74
0
 42
0.0000001
 43
0.0000001
 44
0.0000000001
 40
0.0
 40
0.0
 40
0.0
 40
0.0
 40
0.3184715491
 40
0.6056339066
 40
1.0
 40
1.0
 40
1.0
 40
1.0
 10
121.9180257734
 20
275.7589111429
 30
0.0
 10
121.9188745667
 20
275.721508219
 30
0.0
 10
121.9277752148
 20
275.6495290662
 30
0.0
 10
121.9610127836
 20
275.5405804269
 30
0.0
 10
122.0218861456
 20
275.4634990402
 30
0.0
 10
122.0680257734
 20
275.4593222825
 30
0.0
  0
SPLINE
  5
2E6
100
AcDbEntity
  8
0
100
AcDbSpline
 62
7
  6
CONTINUOUS
 70
0
 71
3
 72
8
 73
4
 74
0
 42
0.0000001
 43
0.0000001
 44
0.0000000001
 40
0.0
 40
0.0
 40
0.0
 40
0.0
 40
1.0
 40
1.0
 40
1.0
 40
1.0
 10
117.0534229503
 20
33.5347567774
 30
0.0
 10
117.0534137428
 20
33.6086404765
 30
0.0
 10
117.0291636145
 20
33.6849735689
 30
0.0
 10
116.9885740483
 20
33.7467092004
 30
0.0
  0
SPLINE
  5
2E7
100
AcDbEntity
  8
0
100
AcDbSpline
 62
7
  6
CONTINUOUS
 70
0
 71
3
 72
9
 73
5
 74
0
 42
0.0000001
 43
0.0000001
 44
0.0000000001
 40
0.0
 40
0.0
 40
0.0
 40
0.0
 40
0.4630318536
 40
1.0
 40
1.0
 40
1.0
 40
1.0
 10
116.9885740483
 20
33.7467092004
 30
0.0
 10
116.9484955648
 20
33.8076674889
 30
0.0
 10
116.8259527139
 20
33.9171201913
 30
0.0
 10
116.6677729
 20
33.9599439325
 30
0.0
 10
116.5832826678
 20
33.964300816
 30
0.0
  0
SPLINE
  5
2E8
100
AcDbEntity
  8
0
100
AcDbSpline
 62
7
  6
CONTINUOUS
 70
0
 71
3
 72
9
 73
5
 74
0
 42
0.0000001
 43
0.0000001
 44
0.0000000001
 40
0.0
 40
0.0
 40
0.0
 40
0.0
 40
0.5285499325
 40
1.0
 40
1.0
 40
1.0
 40
1.0
 10
116.5832875084
 20
33.9642912711
 30
0.0
 10
116.5952274921
 20
33.8259456211
 30
0.0
 10
116.6652840837
 20
33.5561440966
 30
0.0
 10
116.8823509526
 20
33.3823641856
 30
0.0
 10
116.992564177
 20
33.3258484208
 30
0.0
  0
SPLINE
  5
2E9
100
AcDbEntity
  8
0
100
AcDbSpline
 62
7
  6
CONTINUOUS
 70
0
 71
3
 72
9
 73
5
 74
0
 42
0.0000001
 43
0.0000001
 44
0.0000000001
 40
0.0
 40
0.0
 40
0.0
 40
0.0
 40
0.74516807
 40
1.0
 40
1.0
 40
1.0
 40
1.0
 10
116.992564177
 20
33.3258484208
 30
0.0
 10
117.0723606552
 20
33.2849299283
 30
0.0
 10
117.1898015339
 20
33.2474562912
 30
0.0
 10
117.3097080346
 20
33.2363800331
 30
0.0
 10
117.3403461973
 20
33.2350423421
 30
0.0
  0
SPLINE
  5
2EA
100
AcDbEntity
  8
0
100
AcDbSpline
 62
7
  6
CONTINUOUS
 70
0
 71
3
 72
17
 73
13
 74
0
 42
0.0000001
 43
0.0000001
 44
0.0000000001
 40
0.0
 40
0.0
 40
0.0
 40
0.0
 40
0.0040539437
 40
0.0160827592
 40
0.0360780688
 40
0.0640084335
 40
0.1435374434
 40
0.2543916722
 40
0.396204259
 40
0.5682694799
 40
0.769797912
 40
1.0
 40
1.0
 40
1.0
 40
1.0
 10
117.3402573414
 20
33.2350462216
 30
0.0
 10
117.3393553721
 20
33.2350303279
 30
0.0
 10
117.340563727
 20
33.2407514276
 30
0.0
 10
117.3387793928
 20
33.246708064
 30
0.0
 10
117.3392282742
 20
33.2612095381
 30
0.0
 10
117.3381870443
 20
33.2888607101
 30
0.0
 10
117.3379644943
 20
33.3379611316
 30
0.0
 10
117.3371727012
 20
33.4116298619
 30
0.0
 10
117.3366883597
 20
33.5062396139
 30
0.0
 10
117.3361741593
 20
33.6208951998
 30
0.0
 10
117.3357632395
 20
33.7552671104
 30
0.0
 10
117.3355442111
 20
33.8513351535
 30
0.0
 10
117.3354451506
 20
33.9025610883
 30
0.0
  0
SPLINE
  5
2EB
100
AcDbEntity
  8
0
100
AcDbSpline
 62
7
  6
CONTINUOUS
 70
0
 71
3
 72
17
 73
13
 74
0
 42
0.0000001
 43
0.0000001
 44
0.0000000001
 40
0.0
 40
0.0
 40
0.0
 40
0.0
 40
0.2302039197
 40
0.4317400693
 40
0.6038113986
 40
0.7456211158
 40
0.8564616021
 40
0.9359787778
 40
0.9639082035
 40
0.9839076302
 40
0.9959453724
 40
1.0
 40
1.0
 40
1.0
 40
1.0
 10
93.1357870569
 20
34.9608948691
 30
0.0
 10
93.135876252
 20
34.909536284
 30
0.0
 10
93.1360702848
 20
34.8132179441
 30
0.0
 10
93.1364360913
 20
34.678496134
 30
0.0
 10
93.1369239279
 20
34.5635403963
 30
0.0
 10
93.1373986323
 20
34.4686932927
 30
0.0
 10
93.138263076
 20
34.3948293201
 30
0.0
 10
93.1384800393
 20
34.3456332171
 30
0.0
 10
93.1395829918
 20
34.3178795104
 30
0.0
 10
93.1389935404
 20
34.303391288
 30
0.0
 10
93.1409266649
 20
34.2973194469
 30
0.0
 10
93.1394421351
 20
34.2916766326
 30
0.0
 10
93.1403458645
 20
34.291637175
 30
0.0
  0
SPLINE
  5
2EC
100
AcDbEntity
  8
0
100
AcDbSpline
 62
7
  6
CONTINUOUS
 70
0
 71
3
 72
9
 73
5
 74
0
 42
0.0000001
 43
0.0000001
 44
0.0000000001
 40
0.0
 40
0.0
 40
0.0
 40
0.0
 40
0.1850920536
 40
1.0
 40
1.0
 40
1.0
 40
1.0
 10
116.5832428426
 20
33.9642936027
 30
0.0
 10
116.5840390574
 20
34.2295545033
 30
0.0
 10
116.5849944962
 20
35.6626926055
 30
0.0
 10
116.5802797767
 20
37.0958267255
 30
0.0
 10
116.575201318
 20
38.2636896439
 30
0.0
  0
SPLINE
  5
2ED
100
AcDbEntity
  8
0
100
AcDbSpline
 62
7
  6
CONTINUOUS
 70
0
 71
3
 72
8
 73
4
 74
0
 42
0.0000001
 43
0.0000001
 44
0.0000000001
 40
0.0
 40
0.0
 40
0.0
 40
0.0
 40
1.0
 40
1.0
 40
1.0
 40
1.0
 10
113.8403461973
 20
49.4530282206
 30
0.0
 10
113.8403752578
 20
49.3584944752
 30
0.0
 10
113.8604285608
 20
49.2621282834
 30
0.0
 10
113.8978560619
 20
49.1753192284
 30
0.0
  0
SPLINE
  5
2EE
100
AcDbEntity
  8
0
100
AcDbSpline
 62
7
  6
CONTINUOUS
 70
0
 71
3
 72
8
 73
4
 74
0
 42
0.0000001
 43
0.0000001
 44
0.0000000001
 40
0.0
 40
0.0
 40
0.0
 40
0.0
 40
1.0
 40
1.0
 40
1.0
 40
1.0
 10
113.8978560619
 20
49.1753192284
 30
0.0
 10
113.9350501616
 20
49.0890515228
 30
0.0
 10
113.9911625566
 20
49.0089090394
 30
0.0
 10
114.0595099208
 20
48.9444562979
 30
0.0
  0
SPLINE
  5
2EF
100
AcDbEntity
  8
0
100
AcDbSpline
 62
7
  6
CONTINUOUS
 70
0
 71
3
 72
8
 73
4
 74
0
 42
0.0000001
 43
0.0000001
 44
0.0000000001
 40
0.0
 40
0.0
 40
0.0
 40
0.0
 40
1.0
 40
1.0
 40
1.0
 40
1.0
 10
114.0595099208
 20
48.9444562979
 30
0.0
 10
114.1283200814
 20
48.8795671314
 30
0.0
 10
114.2120829209
 20
48.8277575692
 30
0.0
 10
114.3009709722
 20
48.7954410648
 30
0.0
  0
SPLINE
  5
2F0
100
AcDbEntity
  8
0
100
AcDbSpline
 62
7
  6
CONTINUOUS
 70
0
 71
3
 72
8
 73
4
 74
0
 42
0.0000001
 43
0.0000001
 44
0.0000000001
 40
0.0
 40
0.0
 40
0.0
 40
0.0
 40
1.0
 40
1.0
 40
1.0
 40
1.0
 10
113.897914104
 20
69.7830128057
 30
0.0
 10
113.860442513
 20
69.6961194449
 30
0.0
 10
113.8403731334
 20
69.5996537943
 30
0.0
 10
113.8403461973
 20
69.5050251751
 30
0.0
  0
SPLINE
  5
2F1
100
AcDbEntity
  8
0
100
AcDbSpline
 62
7
  6
CONTINUOUS
 70
0
 71
3
 72
8
 73
4
 74
0
 42
0.0000001
 43
0.0000001
 44
0.0000000001
 40
0.0
 40
0.0
 40
0.0
 40
0.0
 40
1.0
 40
1.0
 40
1.0
 40
1.0
 10
113.8403461975
 20
249.4530282203
 30
0.0
 10
113.8403747148
 20
249.3584944748
 30
0.0
 10
113.8604284399
 20
249.2621282312
 30
0.0
 10
113.8978560619
 20
249.1753192284
 30
0.0
  0
SPLINE
  5
2F2
100
AcDbEntity
  8
0
100
AcDbSpline
 62
7
  6
CONTINUOUS
 70
0
 71
3
 72
8
 73
4
 74
0
 42
0.0000001
 43
0.0000001
 44
0.0000000001
 40
0.0
 40
0.0
 40
0.0
 40
0.0
 40
1.0
 40
1.0
 40
1.0
 40
1.0
 10
113.8978560619
 20
249.1753192284
 30
0.0
 10
113.9350502817
 20
249.0890515745
 30
0.0
 10
113.9911625734
 20
249.0089090572
 30
0.0
 10
114.0595099208
 20
248.9444562979
 30
0.0
  0
SPLINE
  5
2F3
100
AcDbEntity
  8
0
100
AcDbSpline
 62
7
  6
CONTINUOUS
 70
0
 71
3
 72
8
 73
4
 74
0
 42
0.0000001
 43
0.0000001
 44
0.0000000001
 40
0.0
 40
0.0
 40
0.0
 40
0.0
 40
1.0
 40
1.0
 40
1.0
 40
1.0
 10
114.0595099208
 20
248.9444562979
 30
0.0
 10
114.1283200646
 20
248.8795671135
 30
0.0
 10
114.2120829212
 20
248.8277575693
 30
0.0
 10
114.3009709726
 20
248.7954410649
 30
0.0
  0
SPLINE
  5
2F4
100
AcDbEntity
  8
0
100
AcDbSpline
 62
7
  6
CONTINUOUS
 70
0
 71
3
 72
8
 73
4
 74
0
 42
0.0000001
 43
0.0000001
 44
0.0000000001
 40
0.0
 40
0.0
 40
0.0
 40
0.0
 40
1.0
 40
1.0
 40
1.0
 40
1.0
 10
113.897914104
 20
269.7830128058
 30
0.0
 10
113.860442513
 20
269.6961194449
 30
0.0
 10
113.8403731334
 20
269.5996537943
 30
0.0
 10
113.8403461973
 20
269.5050251751
 30
0.0
  0
SPLINE
  5
2F5
100
AcDbEntity
  8
0
100
AcDbSpline
 62
7
  6
CONTINUOUS
 70
0
 71
3
 72
14
 73
10
 74
0
 42
0.0000001
 43
0.0000001
 44
0.0000000001
 40
0.0
 40
0.0
 40
0.0
 40
0.0
 40
0.3706207975
 40
0.5489795816
 40
0.7063038703
 40
0.832186806
 40
0.9236864583
 40
0.9797730746
 40
1.0
 40
1.0
 40
1.0
 40
1.0
 10
116.8139623125
 20
47.8807870182
 30
0.0
 10
116.8014641917
 20
47.8463825547
 30
0.0
 10
116.7833364456
 20
47.7952263537
 30
0.0
 10
116.7609433617
 20
47.7292929026
 30
0.0
 10
116.7465117842
 20
47.6857275045
 30
0.0
 10
116.736154972
 20
47.6510487473
 30
0.0
 10
116.7275378362
 20
47.6234540692
 30
0.0
 10
116.7261230733
 20
47.6101802989
 30
0.0
 10
116.7225648654
 20
47.5995625131
 30
0.0
 10
116.724442085
 20
47.598879232
 30
0.0
  0
SPLINE
  5
2F6
100
AcDbEntity
  8
0
100
AcDbSpline
 62
7
  6
CONTINUOUS
 70
0
 71
3
 72
8
 73
4
 74
0
 42
0.0000001
 43
0.0000001
 44
0.0000000001
 40
0.0
 40
0.0
 40
0.0
 40
0.0
 40
1.0
 40
1.0
 40
1.0
 40
1.0
 10
117.3403461973
 20
47.1284496644
 30
0.0
 10
117.3387146815
 20
47.2365130206
 30
0.0
 10
117.3172070476
 20
47.3465276524
 30
0.0
 10
117.2750108942
 20
47.4460255692
 30
0.0
  0
SPLINE
  5
2F7
100
AcDbEntity
  8
0
100
AcDbSpline
 62
7
  6
CONTINUOUS
 70
0
 71
3
 72
8
 73
4
 74
0
 42
0.0000001
 43
0.0000001
 44
0.0000000001
 40
0.0
 40
0.0
 40
0.0
 40
0.0
 40
1.0
 40
1.0
 40
1.0
 40
1.0
 10
117.2750108942
 20
47.4460255692
 30
0.0
 10
117.2328731666
 20
47.5453857191
 30
0.0
 10
117.1682958343
 20
47.6376812019
 30
0.0
 10
117.0893838739
 20
47.7113081669
 30
0.0
  0
SPLINE
  5
2F8
100
AcDbEntity
  8
0
100
AcDbSpline
 62
7
  6
CONTINUOUS
 70
0
 71
3
 72
8
 73
4
 74
0
 42
0.0000001
 43
0.0000001
 44
0.0000000001
 40
0.0
 40
0.0
 40
0.0
 40
0.0
 40
1.0
 40
1.0
 40
1.0
 40
1.0
 10
117.0893838739
 20
47.7113081669
 30
0.0
 10
117.0277056646
 20
47.7688555821
 30
0.0
 10
116.9558183009
 20
47.8166943685
 30
0.0
 10
116.8796110534
 20
47.8528656543
 30
0.0
  0
SPLINE
  5
2F9
100
AcDbEntity
  8
0
100
AcDbSpline
 62
7
  6
CONTINUOUS
 70
0
 71
3
 72
10
 73
6
 74
0
 42
0.0000001
 43
0.0000001
 44
0.0000000001
 40
0.0
 40
0.0
 40
0.0
 40
0.0
 40
0.3939366866
 40
0.6812997967
 40
1.0
 40
1.0
 40
1.0
 40
1.0
 10
122.0680257734
 20
277.4989510988
 30
0.0
 10
122.0219355485
 20
277.4947788133
 30
0.0
 10
121.9610408236
 20
277.4177797408
 30
0.0
 10
121.9278187531
 20
277.3088178198
 30
0.0
 10
121.9188751915
 20
277.2367926959
 30
0.0
 10
121.9180257734
 20
277.1993622384
 30
0.0
  0
SPLINE
  5
2FA
100
AcDbEntity
  8
0
100
AcDbSpline
 62
7
  6
CONTINUOUS
 70
0
 71
3
 72
13
 73
9
 74
0
 42
0.0000001
 43
0.0000001
 44
0.0000000001
 40
0.0
 40
0.0
 40
0.0
 40
0.0
 40
0.0208416827
 40
0.0778025367
 40
0.1696682007
 40
0.2933979423
 40
0.6175504849
 40
1.0
 40
1.0
 40
1.0
 40
1.0
 10
114.2114118701
 20
48.513547428
 30
0.0
 10
114.2094774026
 20
48.5142515166
 30
0.0
 10
114.2129507714
 20
48.5250791826
 30
0.0
 10
114.2145579955
 20
48.538506437
 30
0.0
 10
114.2231395806
 20
48.5659665947
 30
0.0
 10
114.2382545953
 20
48.616013782
 30
0.0
 10
114.2648618136
 20
48.6943501661
 30
0.0
 10
114.2880336284
 20
48.7599494079
 30
0.0
 10
114.3009320969
 20
48.7954552143
 30
0.0
  0
SPLINE
  5
2FB
100
AcDbEntity
  8
0
100
AcDbSpline
 62
7
  6
CONTINUOUS
 70
0
 71
3
 72
13
 73
9
 74
0
 42
0.0000001
 43
0.0000001
 44
0.0000000001
 40
0.0
 40
0.0
 40
0.0
 40
0.0
 40
0.3821601655
 40
0.7060839785
 40
0.82996356
 40
0.9219451818
 40
0.9790739705
 40
1.0
 40
1.0
 40
1.0
 40
1.0
 10
114.3009320969
 20
70.1628181671
 30
0.0
 10
114.2880434635
 20
70.1982969001
 30
0.0
 10
114.2648854793
 20
70.2638464491
 30
0.0
 10
114.2382914968
 20
70.3421482275
 30
0.0
 10
114.2231732569
 20
70.3921967282
 30
0.0
 10
114.2145740395
 20
70.4197008148
 30
0.0
 10
114.2129752344
 20
70.4331547007
 30
0.0
 10
114.2094695853
 20
70.4440190194
 30
0.0
 10
114.2114118701
 20
70.4447259533
 30
0.0
  0
SPLINE
  5
2FC
100
AcDbEntity
  8
0
100
AcDbSpline
 62
7
  6
CONTINUOUS
 70
0
 71
3
 72
9
 73
5
 74
0
 42
0.0000001
 43
0.0000001
 44
0.0000000001
 40
0.0
 40
0.0
 40
0.0
 40
0.0
 40
0.5002243748
 40
1.0
 40
1.0
 40
1.0
 40
1.0
 10
116.8798837865
 20
71.1049365007
 30
0.0
 10
116.9670149914
 20
71.1459078389
 30
0.0
 10
117.1279342938
 20
71.2599874798
 30
0.0
 10
117.2371662144
 20
71.4243797756
 30
0.0
 10
117.2751218455
 20
71.5127723199
 30
0.0
  0
SPLINE
  5
2FD
100
AcDbEntity
  8
0
100
AcDbSpline
 62
7
  6
CONTINUOUS
 70
0
 71
3
 72
14
 73
10
 74
0
 42
0.0000001
 43
0.0000001
 44
0.0000000001
 40
0.0
 40
0.0
 40
0.0
 40
0.0
 40
0.020223032
 40
0.076302146
 40
0.1677983766
 40
0.2936895305
 40
0.4510272193
 40
0.6293922988
 40
1.0
 40
1.0
 40
1.0
 40
1.0
 10
116.7244420851
 20
71.3593941494
 30
0.0
 10
116.7225652265
 20
71.3587109984
 30
0.0
 10
116.7261218509
 20
71.3480948698
 30
0.0
 10
116.7275369814
 20
71.3348221212
 30
0.0
 10
116.7361537018
 20
71.3072277008
 30
0.0
 10
116.7465113841
 20
71.2725473632
 30
0.0
 10
116.760943862
 20
71.2289793176
 30
0.0
 10
116.7833369803
 20
71.1630451655
 30
0.0
 10
116.8014643874
 20
71.1118895356
 30
0.0
 10
116.8139623119
 20
71.0774863631
 30
0.0
  0
SPLINE
  5
2FE
100
AcDbEntity
  8
0
100
AcDbSpline
 62
7
  6
CONTINUOUS
 70
0
 71
3
 72
12
 73
8
 74
0
 42
0.0000001
 43
0.0000001
 44
0.0000000001
 40
0.0
 40
0.0
 40
0.0
 40
0.0
 40
0.3224544906
 40
0.6268408051
 40
0.8781924406
 40
0.9612800603
 40
1.0
 40
1.0
 40
1.0
 40
1.0
 10
123.5298193106
 20
275.2114732709
 30
0.0
 10
123.5078844927
 20
275.2333788526
 30
0.0
 10
123.4653768301
 20
275.2761508486
 30
0.0
 10
123.4047470878
 20
275.3346938573
 30
0.0
 10
123.3604990099
 20
275.3777944822
 30
0.0
 10
123.3333644655
 20
275.400659282
 30
0.0
 10
123.325057699
 20
275.4095092136
 30
0.0
 10
123.3216144966
 20
275.4109237093
 30
0.0
  0
SPLINE
  5
2FF
100
AcDbEntity
  8
0
100
AcDbSpline
 62
7
  6
CONTINUOUS
 70
0
 71
3
 72
12
 73
8
 74
0
 42
0.0000001
 43
0.0000001
 44
0.0000000001
 40
0.0
 40
0.0
 40
0.0
 40
0.0
 40
0.3214525389
 40
0.6268567819
 40
0.8769465995
 40
0.9607239135
 40
1.0
 40
1.0
 40
1.0
 40
1.0
 10
123.5298193106
 20
277.7468001103
 30
0.0
 10
123.5079514863
 20
277.724961433
 30
0.0
 10
123.4651227444
 20
277.6825063527
 30
0.0
 10
123.4047159179
 20
277.6239014246
 30
0.0
 10
123.3609652987
 20
277.5802281712
 30
0.0
 10
123.3336938344
 20
277.557480282
 30
0.0
 10
123.3251376248
 20
277.5487541304
 30
0.0
 10
123.3216447807
 20
277.5473192415
 30
0.0
  0
SPLINE
  5
300
100
AcDbEntity
  8
0
100
AcDbSpline
 62
7
  6
CONTINUOUS
 70
0
 71
3
 72
14
 73
10
 74
0
 42
0.0000001
 43
0.0000001
 44
0.0000000001
 40
0.0
 40
0.0
 40
0.0
 40
0.0
 40
0.3706207975
 40
0.5489795816
 40
0.7063038703
 40
0.832186806
 40
0.9236864583
 40
0.9797730746
 40
1.0
 40
1.0
 40
1.0
 40
1.0
 10
116.8139623126
 20
247.8807870183
 30
0.0
 10
116.8014641917
 20
247.8463825548
 30
0.0
 10
116.7833364456
 20
247.7952263538
 30
0.0
 10
116.7609433618
 20
247.7292929027
 30
0.0
 10
116.7465117842
 20
247.6857275045
 30
0.0
 10
116.736154972
 20
247.6510487473
 30
0.0
 10
116.7275378362
 20
247.6234540692
 30
0.0
 10
116.7261230733
 20
247.6101802989
 30
0.0
 10
116.7225648654
 20
247.5995625131
 30
0.0
 10
116.724442085
 20
247.598879232
 30
0.0
  0
SPLINE
  5
301
100
AcDbEntity
  8
0
100
AcDbSpline
 62
7
  6
CONTINUOUS
 70
0
 71
3
 72
8
 73
4
 74
0
 42
0.0000001
 43
0.0000001
 44
0.0000000001
 40
0.0
 40
0.0
 40
0.0
 40
0.0
 40
1.0
 40
1.0
 40
1.0
 40
1.0
 10
117.3403461973
 20
247.1284496643
 30
0.0
 10
117.3387146815
 20
247.2365130209
 30
0.0
 10
117.3172070474
 20
247.3465276532
 30
0.0
 10
117.2750108938
 20
247.4460255702
 30
0.0
  0
SPLINE
  5
302
100
AcDbEntity
  8
0
100
AcDbSpline
 62
7
  6
CONTINUOUS
 70
0
 71
3
 72
8
 73
4
 74
0
 42
0.0000001
 43
0.0000001
 44
0.0000000001
 40
0.0
 40
0.0
 40
0.0
 40
0.0
 40
1.0
 40
1.0
 40
1.0
 40
1.0
 10
117.2750108938
 20
247.4460255702
 30
0.0
 10
117.2328731659
 20
247.5453857203
 30
0.0
 10
117.1682958332
 20
247.6376812032
 30
0.0
 10
117.0893838724
 20
247.7113081682
 30
0.0
  0
SPLINE
  5
303
100
AcDbEntity
  8
0
100
AcDbSpline
 62
7
  6
CONTINUOUS
 70
0
 71
3
 72
8
 73
4
 74
0
 42
0.0000001
 43
0.0000001
 44
0.0000000001
 40
0.0
 40
0.0
 40
0.0
 40
0.0
 40
1.0
 40
1.0
 40
1.0
 40
1.0
 10
117.0893838724
 20
247.7113081682
 30
0.0
 10
117.0277056635
 20
247.768855583
 30
0.0
 10
116.9558183002
 20
247.8166943691
 30
0.0
 10
116.8796110531
 20
247.8528656546
 30
0.0
  0
SPLINE
  5
304
100
AcDbEntity
  8
0
100
AcDbSpline
 62
7
  6
CONTINUOUS
 70
0
 71
3
 72
13
 73
9
 74
0
 42
0.0000001
 43
0.0000001
 44
0.0000000001
 40
0.0
 40
0.0
 40
0.0
 40
0.0
 40
0.0208416827
 40
0.0778025367
 40
0.1696682007
 40
0.2933979423
 40
0.6175504849
 40
1.0
 40
1.0
 40
1.0
 40
1.0
 10
114.2114118701
 20
248.513547428
 30
0.0
 10
114.2094774026
 20
248.5142515166
 30
0.0
 10
114.2129507714
 20
248.5250791826
 30
0.0
 10
114.2145579955
 20
248.538506437
 30
0.0
 10
114.2231395806
 20
248.5659665947
 30
0.0
 10
114.2382545954
 20
248.6160137821
 30
0.0
 10
114.2648618137
 20
248.6943501662
 30
0.0
 10
114.2880336284
 20
248.759949408
 30
0.0
 10
114.300932097
 20
248.7954552143
 30
0.0
  0
SPLINE
  5
305
100
AcDbEntity
  8
0
100
AcDbSpline
 62
7
  6
CONTINUOUS
 70
0
 71
3
 72
13
 73
9
 74
0
 42
0.0000001
 43
0.0000001
 44
0.0000000001
 40
0.0
 40
0.0
 40
0.0
 40
0.0
 40
0.1250225885
 40
0.2501414271
 40
0.3752003397
 40
0.5001856442
 40
0.7500431223
 40
1.0
 40
1.0
 40
1.0
 40
1.0
 10
119.204538906
 20
41.6795692409
 30
0.0
 10
119.2079044731
 20
41.6286670397
 30
0.0
 10
119.2412044416
 20
41.5261148361
 30
0.0
 10
119.3565681243
 20
41.4200170759
 30
0.0
 10
119.4897011695
 20
41.3437702664
 30
0.0
 10
119.6802023427
 20
41.2691630741
 30
0.0
 10
119.9311971397
 20
41.2157687412
 30
0.0
 10
120.1353381339
 20
41.2055333104
 30
0.0
 10
120.2373163354
 20
41.2039394543
 30
0.0
  0
SPLINE
  5
306
100
AcDbEntity
  8
0
100
AcDbSpline
 62
7
  6
CONTINUOUS
 70
0
 71
3
 72
13
 73
9
 74
0
 42
0.0000001
 43
0.0000001
 44
0.0000000001
 40
0.0
 40
0.0
 40
0.0
 40
0.0
 40
0.3821601655
 40
0.7060839785
 40
0.82996356
 40
0.9219451818
 40
0.9790739705
 40
1.0
 40
1.0
 40
1.0
 40
1.0
 10
114.3009320972
 20
270.1628181671
 30
0.0
 10
114.2880434637
 20
270.1982969002
 30
0.0
 10
114.2648854795
 20
270.2638464492
 30
0.0
 10
114.238291497
 20
270.3421482276
 30
0.0
 10
114.2231732572
 20
270.3921967283
 30
0.0
 10
114.2145740397
 20
270.4197008149
 30
0.0
 10
114.2129752347
 20
270.4331547008
 30
0.0
 10
114.2094695855
 20
270.4440190195
 30
0.0
 10
114.2114118704
 20
270.4447259534
 30
0.0
  0
SPLINE
  5
307
100
AcDbEntity
  8
0
100
AcDbSpline
 62
7
  6
CONTINUOUS
 70
0
 71
3
 72
11
 73
7
 74
0
 42
0.0000001
 43
0.0000001
 44
0.0000000001
 40
0.0
 40
0.0
 40
0.0
 40
0.0
 40
0.3590366514
 40
0.6880933791
 40
0.9100347742
 40
1.0
 40
1.0
 40
1.0
 40
1.0
 10
120.2373163355
 20
41.2039394543
 30
0.0
 10
120.2372616359
 20
41.2278904074
 30
0.0
 10
120.2362903318
 20
41.2735157667
 30
0.0
 10
120.2364336953
 20
41.3352402818
 30
0.0
 10
120.2305182193
 20
41.3758037679
 30
0.0
 10
120.2324401085
 20
41.3990595401
 30
0.0
 10
120.228592458
 20
41.4036653613
 30
0.0
  0
SPLINE
  5
308
100
AcDbEntity
  8
0
100
AcDbSpline
 62
7
  6
CONTINUOUS
 70
0
 71
3
 72
10
 73
6
 74
0
 42
0.0000001
 43
0.0000001
 44
0.0000000001
 40
0.0
 40
0.0
 40
0.0
 40
0.0
 40
0.5324957237
 40
0.7887725367
 40
1.0
 40
1.0
 40
1.0
 40
1.0
 10
120.228592097
 20
41.4036654453
 30
0.0
 10
120.0488193035
 20
41.4015512915
 30
0.0
 10
119.7727920126
 20
41.4238068999
 30
0.0
 10
119.4644263488
 20
41.4981838796
 30
0.0
 10
119.2947409786
 20
41.6082610907
 30
0.0
 10
119.2958164734
 20
41.6795691908
 30
0.0
  0
SPLINE
  5
309
100
AcDbEntity
  8
0
100
AcDbSpline
 62
7
  6
CONTINUOUS
 70
0
 71
3
 72
11
 73
7
 74
0
 42
0.0000001
 43
0.0000001
 44
0.0000000001
 40
0.0
 40
0.0
 40
0.0
 40
0.0
 40
0.0899660605
 40
0.3119084954
 40
0.640964975
 40
1.0
 40
1.0
 40
1.0
 40
1.0
 10
120.2285924576
 20
43.55460802
 30
0.0
 10
120.2324401438
 20
43.559213884
 30
0.0
 10
120.2305182095
 20
43.5824698033
 30
0.0
 10
120.2364337097
 20
43.6230333892
 30
0.0
 10
120.2362903375
 20
43.6847578466
 30
0.0
 10
120.2372616356
 20
43.7303830824
 30
0.0
 10
120.237316335
 20
43.7543339269
 30
0.0
  0
SPLINE
  5
30A
100
AcDbEntity
  8
0
100
AcDbSpline
 62
7
  6
CONTINUOUS
 70
0
 71
3
 72
14
 73
10
 74
0
 42
0.0000001
 43
0.0000001
 44
0.0000000001
 40
0.0
 40
0.0
 40
0.0
 40
0.0
 40
0.2499892102
 40
0.3750497737
 40
0.5000866185
 40
0.6251440052
 40
0.7500855144
 40
0.8752860479
 40
1.0
 40
1.0
 40
1.0
 40
1.0
 10
120.237316335
 20
43.7543339269
 30
0.0
 10
120.1352780925
 20
43.7527247736
 30
0.0
 10
119.9818188188
 20
43.7453781604
 30
0.0
 10
119.7805516674
 20
43.7097078343
 30
0.0
 10
119.6323929533
 20
43.6701582791
 30
0.0
 10
119.4891694286
 20
43.6147990562
 30
0.0
 10
119.3559768897
 20
43.5377374339
 30
0.0
 10
119.2418956669
 20
43.4323707937
 30
0.0
 10
119.2042402122
 20
43.3296142644
 30
0.0
 10
119.2045389016
 20
43.2787042441
 30
0.0
  0
SPLINE
  5
30B
100
AcDbEntity
  8
0
100
AcDbSpline
 62
7
  6
CONTINUOUS
 70
0
 71
3
 72
10
 73
6
 74
0
 42
0.0000001
 43
0.0000001
 44
0.0000000001
 40
0.0
 40
0.0
 40
0.0
 40
0.0
 40
0.2112736664
 40
0.4675191981
 40
1.0
 40
1.0
 40
1.0
 40
1.0
 10
119.2958146395
 20
43.2787041539
 30
0.0
 10
119.2947337889
 20
43.3500276679
 30
0.0
 10
119.4644554156
 20
43.4600924496
 30
0.0
 10
119.7728089628
 20
43.5344716835
 30
0.0
 10
120.0488250716
 20
43.5567226041
 30
0.0
 10
120.2285925542
 20
43.5546080425
 30
0.0
  0
SPLINE
  5
30C
100
AcDbEntity
  8
0
100
AcDbSpline
 62
7
  6
CONTINUOUS
 70
0
 71
3
 72
10
 73
6
 74
0
 42
0.0000001
 43
0.0000001
 44
0.0000000001
 40
0.0
 40
0.0
 40
0.0
 40
0.0
 40
0.3184715491
 40
0.6056339066
 40
1.0
 40
1.0
 40
1.0
 40
1.0
 10
121.9180257734
 20
41.7589111429
 30
0.0
 10
121.9188745667
 20
41.721508219
 30
0.0
 10
121.9277752148
 20
41.6495290662
 30
0.0
 10
121.9610127836
 20
41.5405804269
 30
0.0
 10
122.0218861456
 20
41.4634990402
 30
0.0
 10
122.0680257734
 20
41.4593222825
 30
0.0
  0
SPLINE
  5
30D
100
AcDbEntity
  8
0
100
AcDbSpline
 62
7
  6
CONTINUOUS
 70
0
 71
3
 72
9
 73
5
 74
0
 42
0.0000001
 43
0.0000001
 44
0.0000000001
 40
0.0
 40
0.0
 40
0.0
 40
0.0
 40
0.5002243748
 40
1.0
 40
1.0
 40
1.0
 40
1.0
 10
116.879883787
 20
271.104936501
 30
0.0
 10
116.9670149919
 20
271.1459078394
 30
0.0
 10
117.1279342947
 20
271.2599874805
 30
0.0
 10
117.2371662152
 20
271.4243797769
 30
0.0
 10
117.2751218461
 20
271.5127723214
 30
0.0
  0
SPLINE
  5
30E
100
AcDbEntity
  8
0
100
AcDbSpline
 62
7
  6
CONTINUOUS
 70
0
 71
3
 72
14
 73
10
 74
0
 42
0.0000001
 43
0.0000001
 44
0.0000000001
 40
0.0
 40
0.0
 40
0.0
 40
0.0
 40
0.0202230321
 40
0.0763021461
 40
0.1677983767
 40
0.2936895306
 40
0.4510272193
 40
0.6293922988
 40
1.0
 40
1.0
 40
1.0
 40
1.0
 10
116.7244420851
 20
271.3593941494
 30
0.0
 10
116.7225652265
 20
271.3587109984
 30
0.0
 10
116.7261218509
 20
271.3480948698
 30
0.0
 10
116.7275369814
 20
271.3348221212
 30
0.0
 10
116.7361537018
 20
271.3072277008
 30
0.0
 10
116.7465113842
 20
271.2725473632
 30
0.0
 10
116.760943862
 20
271.2289793176
 30
0.0
 10
116.7833369803
 20
271.1630451655
 30
0.0
 10
116.8014643874
 20
271.1118895356
 30
0.0
 10
116.8139623119
 20
271.0774863631
 30
0.0
  0
SPLINE
  5
30F
100
AcDbEntity
  8
0
100
AcDbSpline
 62
7
  6
CONTINUOUS
 70
0
 71
3
 72
10
 73
6
 74
0
 42
0.0000001
 43
0.0000001
 44
0.0000000001
 40
0.0
 40
0.0
 40
0.0
 40
0.0
 40
0.3939366866
 40
0.6812997967
 40
1.0
 40
1.0
 40
1.0
 40
1.0
 10
122.0680257734
 20
43.4989510988
 30
0.0
 10
122.0219355485
 20
43.4947788133
 30
0.0
 10
121.9610408236
 20
43.4177797408
 30
0.0
 10
121.9278187531
 20
43.3088178198
 30
0.0
 10
121.9188751915
 20
43.2367926959
 30
0.0
 10
121.9180257734
 20
43.1993622384
 30
0.0
  0
SPLINE
  5
310
100
AcDbEntity
  8
0
100
AcDbSpline
 62
7
  6
CONTINUOUS
 70
0
 71
3
 72
17
 73
13
 74
0
 42
0.0000001
 43
0.0000001
 44
0.0000000001
 40
0.0
 40
0.0
 40
0.0
 40
0.0
 40
0.0040546443
 40
0.0160923943
 40
0.0360918264
 40
0.0640212558
 40
0.143538435
 40
0.25437892
 40
0.3961886313
 40
0.5682599519
 40
0.769796091
 40
1.0
 40
1.0
 40
1.0
 40
1.0
 10
93.1403406179
 20
284.6666359773
 30
0.0
 10
93.1394368855
 20
284.6665965194
 30
0.0
 10
93.1409212555
 20
284.6609537191
 30
0.0
 10
93.1389882008
 20
284.6548818624
 30
0.0
 10
93.1395775537
 20
284.6403936588
 30
0.0
 10
93.1384746093
 20
284.6126399674
 30
0.0
 10
93.1382576278
 20
284.5634439087
 30
0.0
 10
93.1373932652
 20
284.4895799965
 30
0.0
 10
93.1369186841
 20
284.3947329766
 30
0.0
 10
93.1364310363
 20
284.2797773405
 30
0.0
 10
93.1360654724
 20
284.1450556502
 30
0.0
 10
93.1358716255
 20
284.048737396
 30
0.0
 10
93.1357825315
 20
283.9973788565
 30
0.0
  0
SPLINE
  5
311
100
AcDbEntity
  8
0
100
AcDbSpline
 62
7
  6
CONTINUOUS
 70
0
 71
3
 72
9
 73
5
 74
0
 42
0.0000001
 43
0.0000001
 44
0.0000000001
 40
0.0
 40
0.0
 40
0.0
 40
0.0
 40
0.1834942202
 40
1.0
 40
1.0
 40
1.0
 40
1.0
 10
93.1357825315
 20
283.9973788565
 30
0.0
 10
93.1353235222
 20
283.7327813355
 30
0.0
 10
93.1345138546
 20
282.2907846365
 30
0.0
 10
93.1382727571
 20
280.8487912528
 30
0.0
 10
93.1403453702
 20
279.6713950635
 30
0.0
  0
SPLINE
  5
312
100
AcDbEntity
  8
0
100
AcDbSpline
 62
7
  6
CONTINUOUS
 70
0
 71
3
 72
9
 73
5
 74
0
 42
0.0000001
 43
0.0000001
 44
0.0000000001
 40
0.0
 40
0.0
 40
0.0
 40
0.0
 40
0.5294658348
 40
1.0
 40
1.0
 40
1.0
 40
1.0
 10
116.5834438325
 20
284.9940760342
 30
0.0
 10
116.5830519985
 20
285.1332468574
 30
0.0
 10
116.6717263111
 20
285.4021296875
 30
0.0
 10
116.8830692843
 20
285.5766363594
 30
0.0
 10
116.993325866
 20
285.6326764039
 30
0.0
  0
SPLINE
  5
313
100
AcDbEntity
  8
0
100
AcDbSpline
 62
7
  6
CONTINUOUS
 70
0
 71
3
 72
8
 73
4
 74
0
 42
0.0000001
 43
0.0000001
 44
0.0000000001
 40
0.0
 40
0.0
 40
0.0
 40
0.0
 40
1.0
 40
1.0
 40
1.0
 40
1.0
 10
116.993325866
 20
285.6326764039
 30
0.0
 10
117.0999405403
 20
285.6868653783
 30
0.0
 10
117.2210132873
 20
285.7180101027
 30
0.0
 10
117.3404944994
 20
285.7232420907
 30
0.0
  0
SPLINE
  5
314
100
AcDbEntity
  8
0
100
AcDbSpline
 62
7
  6
CONTINUOUS
 70
0
 71
3
 72
9
 73
5
 74
0
 42
0.0000001
 43
0.0000001
 44
0.0000000001
 40
0.0
 40
0.0
 40
0.0
 40
0.0
 40
0.2975572279
 40
1.0
 40
1.0
 40
1.0
 40
1.0
 10
116.5752455401
 20
280.6945845902
 30
0.0
 10
116.5770999312
 20
281.1210286819
 30
0.0
 10
116.5822806181
 20
282.554180332
 30
0.0
 10
116.5863086673
 20
283.9873531771
 30
0.0
 10
116.5832867785
 20
284.9940639018
 30
0.0
  0
SPLINE
  5
315
100
AcDbEntity
  8
0
100
AcDbSpline
 62
7
  6
CONTINUOUS
 70
0
 71
3
 72
9
 73
5
 74
0
 42
0.0000001
 43
0.0000001
 44
0.0000000001
 40
0.0
 40
0.0
 40
0.0
 40
0.0
 40
0.235425161
 40
1.0
 40
1.0
 40
1.0
 40
1.0
 10
117.0534319857
 20
285.4233731131
 30
0.0
 10
117.0534254935
 20
285.4066130231
 30
0.0
 10
117.0476249464
 20
285.3354767911
 30
0.0
 10
117.0211338533
 20
285.2665887745
 30
0.0
 10
116.9927387823
 20
285.2201515547
 30
0.0
  0
SPLINE
  5
316
100
AcDbEntity
  8
0
100
AcDbSpline
 62
7
  6
CONTINUOUS
 70
0
 71
3
 72
9
 73
5
 74
0
 42
0.0000001
 43
0.0000001
 44
0.0000000001
 40
0.0
 40
0.0
 40
0.0
 40
0.0
 40
0.4961015757
 40
1.0
 40
1.0
 40
1.0
 40
1.0
 10
116.9927387823
 20
285.2201515547
 30
0.0
 10
116.9512409155
 20
285.152286059
 30
0.0
 10
116.8238407994
 20
285.0413236636
 30
0.0
 10
116.6639968268
 20
284.998122639
 30
0.0
 10
116.5833061721
 20
284.9939659608
 30
0.0
  0
SPLINE
  5
317
100
AcDbEntity
  8
0
100
AcDbSpline
 62
7
  6
CONTINUOUS
 70
0
 71
3
 72
9
 73
5
 74
0
 42
0.0000001
 43
0.0000001
 44
0.0000000001
 40
0.0
 40
0.0
 40
0.0
 40
0.0
 40
0.3170180855
 40
1.0
 40
1.0
 40
1.0
 40
1.0
 10
117.3354748595
 20
285.0546462094
 30
0.0
 10
117.3355855092
 20
285.1107082103
 30
0.0
 10
117.3360216599
 20
285.2875494019
 30
0.0
 10
117.3365937222
 20
285.4643919845
 30
0.0
 10
117.3376184816
 20
285.5851675202
 30
0.0
  0
SPLINE
  5
318
100
AcDbEntity
  8
0
100
AcDbSpline
 62
7
  6
CONTINUOUS
 70
0
 71
3
 72
13
 73
9
 74
0
 42
0.0000001
 43
0.0000001
 44
0.0000000001
 40
0.0
 40
0.0
 40
0.0
 40
0.0
 40
0.4359007586
 40
0.7484904997
 40
0.858235989
 40
0.9367886132
 40
0.984041824
 40
1.0
 40
1.0
 40
1.0
 40
1.0
 10
117.3376184816
 20
285.5851675202
 30
0.0
 10
117.3377887623
 20
285.6052363821
 30
0.0
 10
117.3382281559
 20
285.6395412939
 30
0.0
 10
117.3384874821
 20
285.6794855812
 30
0.0
 10
117.3393753285
 20
285.7019713459
 30
0.0
 10
117.3390798813
 20
285.7137517283
 30
0.0
 10
117.3405075267
 20
285.718605116
 30
0.0
 10
117.3396103495
 20
285.7232442986
 30
0.0
 10
117.3403449694
 20
285.7232309856
 30
0.0
  0
SPLINE
  5
319
100
AcDbEntity
  8
0
100
AcDbSpline
 62
7
  6
CONTINUOUS
 70
0
 71
3
 72
13
 73
9
 74
0
 42
0.0000001
 43
0.0000001
 44
0.0000000001
 40
0.0
 40
0.0
 40
0.0
 40
0.0
 40
0.1250225885
 40
0.2501414271
 40
0.3752003397
 40
0.5001856442
 40
0.7500431223
 40
1.0
 40
1.0
 40
1.0
 40
1.0
 10
119.204538906
 20
275.6795692409
 30
0.0
 10
119.2079044731
 20
275.6286670397
 30
0.0
 10
119.2412044416
 20
275.5261148361
 30
0.0
 10
119.3565681243
 20
275.4200170759
 30
0.0
 10
119.4897011695
 20
275.3437702664
 30
0.0
 10
119.6802023427
 20
275.2691630741
 30
0.0
 10
119.9311971397
 20
275.2157687412
 30
0.0
 10
120.135338134
 20
275.2055333104
 30
0.0
 10
120.2373163355
 20
275.2039394543
 30
0.0
  0
SPLINE
  5
31A
100
AcDbEntity
  8
0
100
AcDbSpline
 62
7
  6
CONTINUOUS
 70
0
 71
3
 72
13
 73
9
 74
0
 42
0.0000001
 43
0.0000001
 44
0.0000000001
 40
0.0
 40
0.0
 40
0.0
 40
0.0
 40
0.3225998474
 40
0.6268044414
 40
0.7631724074
 40
0.8788100817
 40
0.9616378785
 40
1.0
 40
1.0
 40
1.0
 40
1.0
 10
123.5298193106
 20
41.2114732709
 30
0.0
 10
123.507875233
 20
41.2333880999
 30
0.0
 10
123.4651259228
 20
41.275836833
 30
0.0
 10
123.4130213332
 20
41.3275532962
 30
0.0
 10
123.3739810017
 20
41.3640013166
 30
0.0
 10
123.3503911044
 20
41.3861107118
 30
0.0
 10
123.3331333223
 20
41.400515165
 30
0.0
 10
123.325025782
 20
41.4095223254
 30
0.0
 10
123.3216144966
 20
41.4109237093
 30
0.0
  0
SPLINE
  5
31B
100
AcDbEntity
  8
0
100
AcDbSpline
 62
7
  6
CONTINUOUS
 70
0
 71
3
 72
11
 73
7
 74
0
 42
0.0000001
 43
0.0000001
 44
0.0000000001
 40
0.0
 40
0.0
 40
0.0
 40
0.0
 40
0.3590366514
 40
0.6880933791
 40
0.9100347742
 40
1.0
 40
1.0
 40
1.0
 40
1.0
 10
120.2373163355
 20
275.2039394543
 30
0.0
 10
120.2372616359
 20
275.2278904074
 30
0.0
 10
120.2362903319
 20
275.2735157667
 30
0.0
 10
120.2364336953
 20
275.3352402818
 30
0.0
 10
120.2305182193
 20
275.3758037679
 30
0.0
 10
120.2324401086
 20
275.3990595401
 30
0.0
 10
120.228592458
 20
275.4036653613
 30
0.0
  0
SPLINE
  5
31C
100
AcDbEntity
  8
0
100
AcDbSpline
 62
7
  6
CONTINUOUS
 70
0
 71
3
 72
12
 73
8
 74
0
 42
0.0000001
 43
0.0000001
 44
0.0000000001
 40
0.0
 40
0.0
 40
0.0
 40
0.0
 40
0.3214525389
 40
0.6268567819
 40
0.8769465995
 40
0.9607239135
 40
1.0
 40
1.0
 40
1.0
 40
1.0
 10
123.5298193106
 20
43.7468001103
 30
0.0
 10
123.5079514863
 20
43.724961433
 30
0.0
 10
123.4651227444
 20
43.6825063527
 30
0.0
 10
123.4047159179
 20
43.6239014246
 30
0.0
 10
123.3609652987
 20
43.5802281712
 30
0.0
 10
123.3336938344
 20
43.557480282
 30
0.0
 10
123.3251376248
 20
43.5487541304
 30
0.0
 10
123.3216447807
 20
43.5473192415
 30
0.0
  0
SPLINE
  5
31D
100
AcDbEntity
  8
0
100
AcDbSpline
 62
7
  6
CONTINUOUS
 70
0
 71
3
 72
10
 73
6
 74
0
 42
0.0000001
 43
0.0000001
 44
0.0000000001
 40
0.0
 40
0.0
 40
0.0
 40
0.0
 40
0.5324957237
 40
0.7887725367
 40
1.0
 40
1.0
 40
1.0
 40
1.0
 10
120.228592097
 20
275.4036654453
 30
0.0
 10
120.0488193035
 20
275.4015512915
 30
0.0
 10
119.7727920126
 20
275.4238068999
 30
0.0
 10
119.4644263488
 20
275.4981838796
 30
0.0
 10
119.2947409786
 20
275.6082610907
 30
0.0
 10
119.2958164734
 20
275.6795691908
 30
0.0
  0
ELLIPSE
  5
31E
100
AcDbEntity
  8
0
100
AcDbEllipse
 62
7
  6
CONTINUOUS
 10
123.2691543473
 20
275.7638260606
 30
0.0
 11
0.0
 21
0.3
 31
0.0
 40
0.0524077793
 41
-4.7123889804
 42
-3.1939525312
  0
ELLIPSE
  5
31F
100
AcDbEntity
  8
0
100
AcDbEllipse
 62
7
  6
CONTINUOUS
 10
123.2691543473
 20
277.1944473206
 30
0.0
 11
-0.0
 21
0.3
 31
0.0
 40
0.0524077793
 41
0.0523598777
 42
1.5707963268
  0
ELLIPSE
  5
320
100
AcDbEntity
  8
0
100
AcDbEllipse
 62
7
  6
CONTINUOUS
 10
111.9548269282
 20
217.1791366906
 30
0.0
 11
0.807455659
 21
-0.0
 31
0.0
 40
0.9999985078
 41
-1.5725238711
 42
-0.0
  0
ELLIPSE
  5
321
100
AcDbEntity
  8
0
100
AcDbEllipse
 62
7
  6
CONTINUOUS
 10
123.2691543473
 20
41.7638260606
 30
0.0
 11
-0.0
 21
0.3
 31
0.0
 40
0.0524077793
 41
-4.7123889804
 42
-3.1939525313
  0
ELLIPSE
  5
322
100
AcDbEntity
  8
0
100
AcDbEllipse
 62
7
  6
CONTINUOUS
 10
123.2691543473
 20
43.1944473206
 30
0.0
 11
-0.0
 21
0.3
 31
0.0
 40
0.0524077793
 41
0.0523598777
 42
1.5707963268
  0
ELLIPSE
  5
323
100
AcDbEntity
  8
0
100
AcDbEllipse
 62
7
  6
CONTINUOUS
 10
111.9543925796
 20
217.1791366906
 30
0.0
 11
0.840168312
 21
-0.0
 31
0.0
 40
0.9999993464
 41
-1.5719396291
 42
0.0
  0
ELLIPSE
  5
324
100
AcDbEntity
  8
0
100
AcDbEllipse
 62
7
  6
CONTINUOUS
 10
111.9543925796
 20
240.5791366906
 30
0.0
 11
0.840168312
 21
-0.0
 31
0.0
 40
0.9999993464
 41
-0.0
 42
1.5719396291
  0
ELLIPSE
  5
325
100
AcDbEntity
  8
0
100
AcDbEllipse
 62
7
  6
CONTINUOUS
 10
105.2543838218
 20
240.5791366906
 30
0.0
 11
0.8325081784
 21
0.0
 31
0.0
 40
0.9999993464
 41
1.5719396291
 42
2.8653786247
  0
ELLIPSE
  5
326
100
AcDbEntity
  8
0
100
AcDbEllipse
 62
7
  6
CONTINUOUS
 10
111.9548269282
 20
240.5791366906
 30
0.0
 11
0.807455659
 21
0.0
 31
0.0
 40
0.9999985078
 41
0.0
 42
1.5725238711
  0
ENDSEC
  0
SECTION
  2
OBJECTS
  0
DICTIONARY
  5
C
100
AcDbDictionary
280
0
281
1
  3
ACAD_GROUP
350
D
  3
ACAD_MLINESTYLE
350
17
  3
ACAD_LAYOUT
350
1A
  3
ACAD_PLOTSETTINGS
350
19
  3
ACAD_PLOTSTYLENAME
350
E
  0
DICTIONARY
  5
D
102
{ACAD_REACTORS
330
C
102
}
100
AcDbDictionary
280
0
281
1
  0
ACDBDICTIONARYWDFLT
  5
E
102
{ACAD_REACTORS
330
C
102
}
100
AcDbDictionary
281
1
  3
Normal
350
F
100
AcDbDictionaryWithDefault
340
F
  0
DICTIONARY
  5
17
102
{ACAD_REACTORS
330
C
102
}
100
AcDbDictionary
280
0
281
1
  3
Standard
350
18
  0
DICTIONARY
  5
19
102
{ACAD_REACTORS
330
C
102
}
100
AcDbDictionary
281
1
  0
DICTIONARY
  5
1A
102
{ACAD_REACTORS
330
C
102
}
100
AcDbDictionary
281
1
  3
Model
350
327
  3
Layout1
350
328
  0
ACDBPLACEHOLDER
  5
F
102
{ACAD_REACTORS
330
E
102
}
  0
MLINESTYLE
  5
18
102
{ACAD_REACTORS
330
17
102
}
100
AcDbMlineStyle
  2
STANDARD
 70
0
  3

 62
256
 51
90.0
 52
90.0
 71
2
 49
0.5
 62
256
  6
BYLAYER
 49
-0.5
 62
256
  6
BYLAYER
  0
LAYOUT
  5
327
102
{ACAD_REACTORS
330
1A
102
}
100
AcDbPlotSettings
  1

  2
none_device
  4

  6

 40
0.0
 41
0.0
 42
0.0
 43
0.0
 44
210.0
 45
297.0
 46
0.0
 47
0.0
 48
0.0
 49
0.0
140
0.0
141
0.0
142
1.0
143
1.0
 70
1024
 72
1
 73
0
 74
0
  7

 75
0
147
1.0
148
0.0
149
0.0
100
AcDbLayout
  1
Model
 70
0
 71
0
 10
0.0
 20
0.0
 11
210.0
 21
297.0
 12
0.0
 22
0.0
 32
0.0
 14
0.0
 24
0.0
 34
0.0
 15
0.0
 25
0.0
 35
0.0
146
0.0
 13
0.0
 23
0.0
 33
0.0
 16
1.0
 26
0.0
 36
0.0
 17
0.0
 27
1.0
 37
0.0
 76
0
330
210
345
0
346
0
  0
LAYOUT
  5
328
102
{ACAD_REACTORS
330
1A
102
}
100
AcDbPlotSettings
  1

  2
none_device
  4

  6

 40
0.0
 41
0.0
 42
0.0
 43
0.0
 44
210.0
 45
297.0
 46
0.0
 47
0.0
 48
0.0
 49
0.0
140
0.0
141
0.0
142
1.0
143
1.0
 70
0
 72
1
 73
0
 74
0
  7

 75
0
147
1.0
148
0.0
149
0.0
100
AcDbLayout
  1
Layout1
 70
0
 71
1
 10
0.0
 20
0.0
 11
210.0
 21
297.0
 12
0.0
 22
0.0
 32
0.0
 14
0.0
 24
0.0
 34
0.0
 15
0.0
 25
0.0
 35
0.0
146
0.0
 13
0.0
 23
0.0
 33
0.0
 16
1.0
 26
0.0
 36
0.0
 17
0.0
 27
1.0
 37
0.0
 76
0
330
211
345
0
346
0
  0
ENDSEC
  0
EOF
