999
DXF file: C:\Users\sesa63760\Dev\_Creo\CAD\MCADID0000937_3D-CAD\drw0001_3.dxf
999
Pro/ENGINEER 2019471 by Parametric Technology Corporation
  0
SECTION
  2
HEADER
  9
$ACADVER
  1
AC1024
  9
$DWGCODEPAGE
  3
ANSI_1252
  9
$EXTMAX
 10
193.9403235251
 20
274.2870289855
 30
0.0
  9
$EXTMIN
 10
0.0
 20
0.0
 30
0.0
  9
$LIMMIN
 10
0.0
 20
0.0
  9
$LIMMAX
 10
193.9403235251
 20
274.2870289855
  9
$VIEWCTR
 10
96.9701617626
 20
137.1435144928
  9
$VIEWSIZE
 40
274.2870289855
  9
$CLAYER
  8
0
  9
$LTSCALE
 40
17.8794507783
  9
$CELTYPE
  6
BYLAYER
  9
$DIMSCALE
 40
1.0
  9
$DIMASZ
 40
2.3088133753
  9
$DIMEXO
 40
1.0
  9
$DIMDLI
 40
12.3530750832
  9
$DIMEXE
 40
1.0
  9
$DIMCEN
 40
2.9257283092
  9
$DIMLFAC
 40
1.0
  9
$DIMBLK
  1
_FILLED
  9
$DIMALT
 70
0
  9
$DIMALTF
 40
0.0393700787
  9
$DIMTXT
 40
3.2323387254
  9
$DIMTOL
 70
1
  9
$DIMLIM
 70
0
  9
$DIMTFAC
 40
1.0
  9
$DIMTP
 40
0.01
  9
$DIMTM
 40
0.01
  9
$DIMGAP
 40
0.625
  9
$DIMDSEP
 70
46
  9
$AUNITS
 70
0
  9
$PDMODE
 70
3
  9
$PDSIZE
 40
0.3125
  9
$HANDSEED
  5
459
  9
$TILEMODE
 70
1
  9
$MEASUREMENT
 70
1
  9
$INSUNITS
 70
4
  0
ENDSEC
  0
SECTION
  2
CLASSES
  0
CLASS
  1
ACDBDICTIONARYWDFLT
  2
AcDbDictionaryWithDefault
  3
AutoCAD 2000
 90
0
 91
1
280
0
281
0
  0
CLASS
  1
ACDBPLACEHOLDER
  2
AcDbPlaceHolder
  3
AutoCAD 2000
 90
0
 91
1
280
0
281
0
  0
CLASS
  1
LAYOUT
  2
AcDbLayout
  3
AutoCAD 2000
 90
0
 91
0
280
0
281
0
  0
ENDSEC
  0
SECTION
  2
TABLES
  0
TABLE
  2
VPORT
  5
8
100
AcDbSymbolTable
 70
2
  0
VPORT
  5
1F4
100
AcDbSymbolTableRecord
100
AcDbViewportTableRecord
  2
*ACTIVE
 70
0
 10
0.0
 20
0.0
 11
1.0
 21
1.0
 12
96.9701617626
 22
137.1435144928
 13
0.0
 23
0.0
 14
1.0
 24
1.0
 15
0.0
 25
0.0
 16
0.0
 26
0.0
 36
1.0
 17
0.0
 27
0.0
 37
0.0
 40
274.2870289855
 41
0.7070707071
 42
50.0
 43
0.0
 44
0.0
 50
0.0
 51
0.0
 71
0
 72
100
 73
1
 74
1
 75
0
 76
0
 77
0
 78
0
  0
ENDTAB
  0
TABLE
  2
LTYPE
  5
5
100
AcDbSymbolTable
 70
6
  0
LTYPE
  5
14
100
AcDbSymbolTableRecord
100
AcDbLinetypeTableRecord
  2
BYBLOCK
 70
0
  3

 72
65
 73
0
 40
0.0
  0
LTYPE
  5
15
100
AcDbSymbolTableRecord
100
AcDbLinetypeTableRecord
  2
BYLAYER
 70
0
  3

 72
65
 73
0
 40
0.0
  0
LTYPE
  5
16
100
AcDbSymbolTableRecord
100
AcDbLinetypeTableRecord
  2
CONTINUOUS
 70
64
  3
Solid line
 72
65
 73
0
 40
0.0
  0
LTYPE
  5
1F5
100
AcDbSymbolTableRecord
100
AcDbLinetypeTableRecord
  2
CENTER
 70
64
  3
____ _ ____ _ ____ _ ____ _ ____ _ ____ _ ____
 72
65
 73
4
 40
0.6
 49
0.375
 74
0
 49
-0.075
 74
0
 49
0.075
 74
0
 49
-0.075
 74
0
  0
LTYPE
  5
1F6
100
AcDbSymbolTableRecord
100
AcDbLinetypeTableRecord
  2
HIDDEN
 70
64
  3
- - - - - - - - - - - - - - - - - - - -
 72
65
 73
2
 40
0.2
 49
0.1
 74
0
 49
-0.1
 74
0
  0
LTYPE
  5
1F7
100
AcDbSymbolTableRecord
100
AcDbLinetypeTableRecord
  2
PHANTOM
 70
64
  3
_____ _ _ _____ _ _ _____ _ _ _____
 72
65
 73
6
 40
0.8
 49
0.45
 74
0
 49
-0.05
 74
0
 49
0.1
 74
0
 49
-0.05
 74
0
 49
0.1
 74
0
 49
-0.05
 74
0
  0
LTYPE
  5
1F8
100
AcDbSymbolTableRecord
100
AcDbLinetypeTableRecord
  2
DOT
 70
64
  3
. . . . . . . . . . . . . . . . . . . .
 72
65
 73
2
 40
0.2
 49
0.1
 74
0
 49
-0.1
 74
0
  0
LTYPE
  5
1F9
100
AcDbSymbolTableRecord
100
AcDbLinetypeTableRecord
  2
DASHED
 70
64
  3
- - - - - - - - - - - - - - - - - - - -
 72
65
 73
2
 40
0.2
 49
0.1
 74
0
 49
-0.1
 74
0
  0
ENDTAB
  0
TABLE
  2
LAYER
  5
2
100
AcDbSymbolTable
 70
36
  0
LAYER
  5
10
100
AcDbSymbolTableRecord
100
AcDbLayerTableRecord
  2
0
 70
0
 62
7
  6
CONTINUOUS
370
-3
390
F
  0
LAYER
  5
1FA
100
AcDbSymbolTableRecord
100
AcDbLayerTableRecord
  2
DEFAULT_1
 70
0
 62
7
  6
CENTER
370
-3
390
F
  0
LAYER
  5
1FB
100
AcDbSymbolTableRecord
100
AcDbLayerTableRecord
  2
DEFAULT_2
 70
0
 62
8
  6
HIDDEN
370
-3
390
F
  0
LAYER
  5
1FC
100
AcDbSymbolTableRecord
100
AcDbLayerTableRecord
  2
DEFAULT_3
 70
0
 62
7
  6
PHANTOM
370
-3
390
F
  0
LAYER
  5
1FD
100
AcDbSymbolTableRecord
100
AcDbLayerTableRecord
  2
00_COMPONENTS
 70
0
 62
7
  6
CONTINUOUS
370
-3
390
F
  0
LAYER
  5
1FE
100
AcDbSymbolTableRecord
100
AcDbLayerTableRecord
  2
01_1_DEFAULT_DATUMS
 70
0
 62
7
  6
CONTINUOUS
370
-3
390
F
  0
LAYER
  5
1FF
100
AcDbSymbolTableRecord
100
AcDbLayerTableRecord
  2
01_PLANES
 70
0
 62
7
  6
CONTINUOUS
370
-3
390
F
  0
LAYER
  5
200
100
AcDbSymbolTableRecord
100
AcDbLayerTableRecord
  2
02_COORD_SYS
 70
0
 62
7
  6
CONTINUOUS
370
-3
390
F
  0
LAYER
  5
201
100
AcDbSymbolTableRecord
100
AcDbLayerTableRecord
  2
03_AXES
 70
0
 62
7
  6
CONTINUOUS
370
-3
390
F
  0
LAYER
  5
202
100
AcDbSymbolTableRecord
100
AcDbLayerTableRecord
  2
04_POINTS
 70
0
 62
7
  6
CONTINUOUS
370
-3
390
F
  0
LAYER
  5
203
100
AcDbSymbolTableRecord
100
AcDbLayerTableRecord
  2
05_CURVES
 70
0
 62
7
  6
CONTINUOUS
370
-3
390
F
  0
LAYER
  5
204
100
AcDbSymbolTableRecord
100
AcDbLayerTableRecord
  2
06_SURFS
 70
0
 62
7
  6
CONTINUOUS
370
-3
390
F
  0
LAYER
  5
205
100
AcDbSymbolTableRecord
100
AcDbLayerTableRecord
  2
07_COSMETICS
 70
0
 62
7
  6
CONTINUOUS
370
-3
390
F
  0
LAYER
  5
206
100
AcDbSymbolTableRecord
100
AcDbLayerTableRecord
  2
10_NOTES
 70
0
 62
7
  6
CONTINUOUS
370
-3
390
F
  0
LAYER
  5
207
100
AcDbSymbolTableRecord
100
AcDbLayerTableRecord
  2
11_NOTES_PUB
 70
0
 62
7
  6
CONTINUOUS
370
-3
390
F
  0
LAYER
  5
208
100
AcDbSymbolTableRecord
100
AcDbLayerTableRecord
  2
13_REF_GTOL
 70
0
 62
7
  6
CONTINUOUS
370
-3
390
F
  0
LAYER
  5
209
100
AcDbSymbolTableRecord
100
AcDbLayerTableRecord
  2
16_MISC
 70
0
 62
7
  6
CONTINUOUS
370
-3
390
F
  0
LAYER
  5
20A
100
AcDbSymbolTableRecord
100
AcDbLayerTableRecord
  2
17_NO_PRINT
 70
0
 62
7
  6
CONTINUOUS
370
-3
390
F
  0
LAYER
  5
20B
100
AcDbSymbolTableRecord
100
AcDbLayerTableRecord
  2
18_DATUM_CAMS_JOINTS
 70
0
 62
7
  6
CONTINUOUS
370
-3
390
F
  0
LAYER
  5
20C
100
AcDbSymbolTableRecord
100
AcDbLayerTableRecord
  2
19_DATUM_FUNCTIONAL
 70
0
 62
7
  6
CONTINUOUS
370
-3
390
F
  0
LAYER
  5
20D
100
AcDbSymbolTableRecord
100
AcDbLayerTableRecord
  2
20_DATUM_KINEMATIC_SCHEME
 70
0
 62
7
  6
CONTINUOUS
370
-3
390
F
  0
ENDTAB
  0
TABLE
  2
STYLE
  5
3
100
AcDbSymbolTable
 70
1
  0
STYLE
  5
11
100
AcDbSymbolTableRecord
100
AcDbTextStyleTableRecord
  2
STANDARD
 70
0
 40
0.0
 41
0.8
 50
0.0
 71
0
 42
0.2
  3
txt
  4

  0
STYLE
  5
20E
100
AcDbSymbolTableRecord
100
AcDbTextStyleTableRecord
  2
TEXTSTYLE_1
 70
0
 40
0.0
 41
0.8
 50
0.0
 71
0
 42
0.2
  3
gdt
  4

  0
ENDTAB
  0
TABLE
  2
VIEW
  5
6
100
AcDbSymbolTable
 70
0
  0
ENDTAB
  0
TABLE
  2
UCS
  5
7
100
AcDbSymbolTable
 70
0
  0
ENDTAB
  0
TABLE
  2
APPID
  5
9
100
AcDbSymbolTable
 70
1
  0
APPID
  5
20F
100
AcDbSymbolTableRecord
100
AcDbRegAppTableRecord
  2
ACAD
 70
0
  0
ENDTAB
  0
TABLE
  2
BLOCK_RECORD
  5
1
100
AcDbSymbolTable
 70
0
  0
BLOCK_RECORD
  5
210
100
AcDbSymbolTableRecord
100
AcDbBlockTableRecord
  2
*Model_Space
  0
BLOCK_RECORD
  5
211
100
AcDbSymbolTableRecord
100
AcDbBlockTableRecord
  2
*Paper_Space
  0
BLOCK_RECORD
  5
212
100
AcDbSymbolTableRecord
100
AcDbBlockTableRecord
  2
_FILLED
  0
ENDTAB
  0
TABLE
  2
DIMSTYLE
  5
A
100
AcDbSymbolTable
 70
1
100
AcDbDimStyleTable
 71
0
  0
DIMSTYLE
105
213
100
AcDbSymbolTableRecord
100
AcDbDimStyleTableRecord
  2
STANDARD
 70
0
  3

  4

 40
1.0
 41
2.3088133753
 42
1.0
 43
0.38
 44
1.0
 45
0.0
 46
0.0
 47
0.01
 48
0.01
140
3.2323387254
141
0.09
142
0.0
143
25.4
144
1.0
145
0.0
146
1.0
147
0.625
 71
1
 72
0
 73
0
 74
0
 75
0
 76
0
 77
1
 78
8
 79
2
170
0
171
1
172
0
173
0
174
0
175
0
176
0
177
0
178
0
270
2
179
2
271
2
272
2
273
2
274
2
275
0
280
0
281
0
282
0
283
1
284
8
285
0
286
0
287
3
288
0
340
11
278
46
341
212
342
212
343
212
344
212
  0
ENDTAB
  0
ENDSEC
  0
SECTION
  2
BLOCKS
  0
BLOCK
  5
20
100
AcDbEntity
  8
0
100
AcDbBlockBegin
  2
*Model_Space
 70
0
 10
0.0
 20
0.0
 30
0.0
  3
*Model_Space
  1

  0
ENDBLK
  5
21
100
AcDbEntity
  8
0
100
AcDbBlockEnd
  0
BLOCK
  5
1C
100
AcDbEntity
  8
0
100
AcDbBlockBegin
  2
*Paper_Space
 70
0
 10
0.0
 20
0.0
 30
0.0
  3
*Paper_Space
  1

  0
ENDBLK
  5
1D
100
AcDbEntity
  8
0
100
AcDbBlockEnd
  0
BLOCK
  5
214
100
AcDbEntity
  8
0
100
AcDbBlockBegin
  2
_FILLED
 70
64
 10
0.0
 20
0.0
  3
_FILLED
  1

  0
SOLID
  5
215
100
AcDbEntity
  8
0
  6
BYBLOCK
 62
0
100
AcDbTrace
 10
0.0
 20
0.0
 11
-1.0
 21
0.25
 12
-1.0
 22
-0.25
 13
-1.0
 23
-0.25
  0
ENDBLK
  5
216
100
AcDbEntity
  8
0
  6
BYBLOCK
 62
0
100
AcDbBlockEnd
  0
ENDSEC
  0
SECTION
  2
ENTITIES
  0
LINE
  5
217
100
AcDbEntity
  8
0
100
AcDbLine
 62
7
  6
CONTINUOUS
 10
129.6559585287
 20
21.9899637681
 11
117.9105335875
 21
21.9899637681
  0
LINE
  5
218
100
AcDbEntity
  8
0
100
AcDbLine
 62
7
  6
CONTINUOUS
 10
117.9068875956
 20
21.9899637681
 11
75.9105403634
 21
21.9899637681
  0
LINE
  5
219
100
AcDbEntity
  8
0
100
AcDbLine
 62
7
  6
CONTINUOUS
 10
75.9059594973
 20
21.9899637681
 11
69.6559598698
 21
21.9899637681
  0
LINE
  5
21A
100
AcDbEntity
  8
0
100
AcDbLine
 62
7
  6
CONTINUOUS
 10
72.3559585287
 20
26.3899637681
 11
75.9059594973
 21
26.3899637681
  0
LINE
  5
21B
100
AcDbEntity
  8
0
100
AcDbLine
 62
7
  6
CONTINUOUS
 10
75.910540364
 20
26.3899637681
 11
117.9068875956
 21
26.3899637681
  0
LINE
  5
21C
100
AcDbEntity
  8
0
100
AcDbLine
 62
7
  6
CONTINUOUS
 10
117.9105335875
 20
26.3899637681
 11
126.9559585287
 21
26.3899637681
  0
LINE
  5
21D
100
AcDbEntity
  8
0
100
AcDbLine
 62
7
  6
CONTINUOUS
 10
129.6559585287
 20
30.9899637681
 11
129.1559500418
 21
30.9899637681
  0
LINE
  5
21E
100
AcDbEntity
  8
0
100
AcDbLine
 62
7
  6
CONTINUOUS
 10
70.1070114366
 20
30.9899637681
 11
69.6559598698
 21
30.9899637681
  0
LINE
  5
21F
100
AcDbEntity
  8
0
100
AcDbLine
 62
7
  6
CONTINUOUS
 10
126.9559585287
 20
33.2131439876
 11
129.6559585287
 21
33.2131439876
  0
LINE
  5
220
100
AcDbEntity
  8
0
100
AcDbLine
 62
7
  6
CONTINUOUS
 10
126.9559585287
 20
36.6199637681
 11
108.8951738634
 21
36.6199637681
  0
LINE
  5
221
100
AcDbEntity
  8
0
100
AcDbLine
 62
7
  6
CONTINUOUS
 10
90.4167431941
 20
36.6199637681
 11
72.3559585287
 21
36.6199637681
  0
LINE
  5
222
100
AcDbEntity
  8
0
100
AcDbLine
 62
7
  6
CONTINUOUS
 10
129.6559585287
 20
38.7667844129
 11
126.9559585287
 21
38.7667844129
  0
LINE
  5
223
100
AcDbEntity
  8
0
100
AcDbLine
 62
7
  6
CONTINUOUS
 10
129.6559585287
 20
39.9899629933
 11
126.9559585287
 21
39.9899629933
  0
LINE
  5
224
100
AcDbEntity
  8
0
100
AcDbLine
 62
7
  6
CONTINUOUS
 10
72.3559585287
 20
39.9899629933
 11
69.6559598698
 21
39.9899629933
  0
LINE
  5
225
100
AcDbEntity
  8
0
100
AcDbLine
 62
7
  6
CONTINUOUS
 10
126.9559585287
 20
45.4899637681
 11
121.0276688019
 21
45.4899637681
  0
LINE
  5
226
100
AcDbEntity
  8
0
100
AcDbLine
 62
7
  6
CONTINUOUS
 10
78.2842482556
 20
45.4899637681
 11
72.3559585287
 21
45.4899637681
  0
LINE
  5
227
100
AcDbEntity
  8
0
100
AcDbLine
 62
7
  6
CONTINUOUS
 10
88.3124268346
 20
247.446034685
 11
91.6789756059
 21
250.8125834563
  0
LINE
  5
228
100
AcDbEntity
  8
0
100
AcDbLine
 62
7
  6
CONTINUOUS
 10
86.4501871628
 20
200.410085773
 11
89.1559585026
 21
201.5147172399
  0
LINE
  5
229
100
AcDbEntity
  8
0
100
AcDbLine
 62
7
  6
CONTINUOUS
 10
89.1559585026
 20
193.0294358657
 11
86.4501871628
 21
191.9248043988
  0
LINE
  5
22A
100
AcDbEntity
  8
0
100
AcDbLine
 62
7
  6
CONTINUOUS
 10
88.5579962312
 20
82.2913346869
 11
86.2480694457
 21
82.28996378
  0
LINE
  5
22B
100
AcDbEntity
  8
0
100
AcDbLine
 62
7
  6
CONTINUOUS
 10
113.0638489529
 20
82.28996378
 11
110.7539221673
 21
82.2913346869
  0
LINE
  5
22C
100
AcDbEntity
  8
0
100
AcDbLine
 62
7
  6
CONTINUOUS
 10
106.5969410381
 20
53.6370499116
 11
108.0450661509
 21
52.2085873467
  0
LINE
  5
22D
100
AcDbEntity
  8
0
100
AcDbLine
 62
7
  6
CONTINUOUS
 10
86.9501871628
 20
191.3124319631
 11
89.6559585846
 21
192.4170577453
  0
LINE
  5
22E
100
AcDbEntity
  8
0
100
AcDbLine
 62
7
  6
CONTINUOUS
 10
129.6559585287
 20
87.1070100051
 11
126.9559585287
 21
87.1070100051
  0
LINE
  5
22F
100
AcDbEntity
  8
0
100
AcDbLine
 62
7
  6
CONTINUOUS
 10
72.3559585287
 20
87.1070100051
 11
69.6559598698
 21
87.1070100051
  0
LINE
  5
230
100
AcDbEntity
  8
0
100
AcDbLine
 62
7
  6
CONTINUOUS
 10
102.3634643323
 20
88.7256039363
 11
96.9484540663
 21
88.7256039363
  0
LINE
  5
231
100
AcDbEntity
  8
0
100
AcDbLine
 62
7
  6
CONTINUOUS
 10
102.4434472463
 20
86.3322539312
 11
104.6155889428
 21
85.9841145879
  0
LINE
  5
232
100
AcDbEntity
  8
0
100
AcDbLine
 62
7
  6
CONTINUOUS
 10
104.6155889428
 20
85.9841145879
 11
106.7477491713
 21
85.4425502998
  0
LINE
  5
233
100
AcDbEntity
  8
0
100
AcDbLine
 62
7
  6
CONTINUOUS
 10
110.5289248778
 20
49.7022418362
 11
111.6007989301
 21
48.6323086601
  0
LINE
  5
234
100
AcDbEntity
  8
0
100
AcDbLine
 62
7
  6
CONTINUOUS
 10
113.0132604419
 20
50.0468758923
 11
111.9416145637
 21
51.1165818256
  0
LINE
  5
235
100
AcDbEntity
  8
0
100
AcDbLine
 62
7
  6
CONTINUOUS
 10
109.4471490039
 20
53.6129882616
 11
108.0090118601
 21
55.0491845292
  0
LINE
  5
236
100
AcDbEntity
  8
0
100
AcDbLine
 62
7
  6
CONTINUOUS
 10
114.0849314659
 20
46.1487172228
 11
115.5086545302
 21
44.7249950898
  0
LINE
  5
237
100
AcDbEntity
  8
0
100
AcDbLine
 62
7
  6
CONTINUOUS
 10
116.9208487525
 20
46.1393015516
 11
115.4990637704
 21
47.561084671
  0
LINE
  5
238
100
AcDbEntity
  8
0
100
AcDbLine
 62
7
  6
CONTINUOUS
 10
126.9559585287
 20
91.1545770662
 11
72.3559585287
 21
91.1545770662
  0
LINE
  5
239
100
AcDbEntity
  8
0
100
AcDbLine
 62
7
  6
CONTINUOUS
 10
74.4059585287
 20
93.3181406523
 11
87.9059585287
 21
93.3181406523
  0
LINE
  5
23A
100
AcDbEntity
  8
0
100
AcDbLine
 62
7
  6
CONTINUOUS
 10
129.6559585287
 20
94.8129070979
 11
87.9059585287
 21
94.8129070979
  0
LINE
  5
23B
100
AcDbEntity
  8
0
100
AcDbLine
 62
7
  6
CONTINUOUS
 10
107.6559595793
 20
95.5182163101
 11
97.6559591043
 21
95.5182163101
  0
LINE
  5
23C
100
AcDbEntity
  8
0
100
AcDbLine
 62
7
  6
CONTINUOUS
 10
129.6559585287
 20
96.3360441905
 11
107.6559595793
 21
96.3360441905
  0
LINE
  5
23D
100
AcDbEntity
  8
0
100
AcDbLine
 62
7
  6
CONTINUOUS
 10
97.6559591043
 20
96.3360441905
 11
87.9059585287
 21
96.3360441905
  0
LINE
  5
23E
100
AcDbEntity
  8
0
100
AcDbLine
 62
7
  6
CONTINUOUS
 10
107.6559595793
 20
100.5182115418
 11
97.6559591043
 21
100.5182115418
  0
LINE
  5
23F
100
AcDbEntity
  8
0
100
AcDbLine
 62
7
  6
CONTINUOUS
 10
87.9059585287
 20
106.0617868839
 11
74.4059585287
 21
106.0617868839
  0
LINE
  5
240
100
AcDbEntity
  8
0
100
AcDbLine
 62
7
  6
CONTINUOUS
 10
89.4640175655
 20
81.7094219905
 11
89.7879529773
 21
81.010024814
  0
LINE
  5
241
100
AcDbEntity
  8
0
100
AcDbLine
 62
7
  6
CONTINUOUS
 10
91.2579618423
 20
77.8180545252
 11
91.8931266322
 21
76.443549065
  0
LINE
  5
242
100
AcDbEntity
  8
0
100
AcDbLine
 62
7
  6
CONTINUOUS
 10
93.3693641826
 20
73.2380671483
 11
94.2197958036
 21
71.3933369201
  0
LINE
  5
243
100
AcDbEntity
  8
0
100
AcDbLine
 62
7
  6
CONTINUOUS
 10
71.1456365138
 20
200.8660321456
 11
71.1504634271
 21
195.5399637681
  0
LINE
  5
244
100
AcDbEntity
  8
0
100
AcDbLine
 62
7
  6
CONTINUOUS
 10
73.6559585287
 20
186.1800721763
 11
73.6710595842
 21
167.2971795891
  0
LINE
  5
245
100
AcDbEntity
  8
0
100
AcDbLine
 62
7
  6
CONTINUOUS
 10
73.6710595842
 20
167.2971795891
 11
73.6802681709
 21
154.8969049314
  0
LINE
  5
246
100
AcDbEntity
  8
0
100
AcDbLine
 62
7
  6
CONTINUOUS
 10
69.6559598698
 20
21.9899637681
 11
69.6559598698
 21
207.489961794
  0
LINE
  5
247
100
AcDbEntity
  8
0
100
AcDbLine
 62
7
  6
CONTINUOUS
 10
70.1070114366
 20
21.9899637681
 11
70.1070114366
 21
30.9899637681
  0
LINE
  5
248
100
AcDbEntity
  8
0
100
AcDbLine
 62
7
  6
CONTINUOUS
 10
72.1559589758
 20
139.348604124
 11
72.1559585287
 21
200.0290425717
  0
LINE
  5
249
100
AcDbEntity
  8
0
100
AcDbLine
 62
7
  6
CONTINUOUS
 10
72.3559585287
 20
91.1545770662
 11
72.3559585287
 21
26.3899637681
  0
LINE
  5
24A
100
AcDbEntity
  8
0
100
AcDbLine
 62
7
  6
CONTINUOUS
 10
72.6559581264
 20
191.1229589508
 11
72.6559581264
 21
200.3153525778
  0
LINE
  5
24B
100
AcDbEntity
  8
0
100
AcDbLine
 62
7
  6
CONTINUOUS
 10
74.4059585287
 20
93.3181406523
 11
74.4059585287
 21
106.0617868839
  0
LINE
  5
24C
100
AcDbEntity
  8
0
100
AcDbLine
 62
7
  6
CONTINUOUS
 10
74.6559584542
 20
191.093297468
 11
74.6559584542
 21
191.1229664014
  0
LINE
  5
24D
100
AcDbEntity
  8
0
100
AcDbLine
 62
7
  6
CONTINUOUS
 10
75.1559585287
 20
188.2943259341
 11
75.1559585287
 21
191.1229677541
  0
LINE
  5
24E
100
AcDbEntity
  8
0
100
AcDbLine
 62
7
  6
CONTINUOUS
 10
75.1559585287
 20
200.3153523615
 11
75.1559585287
 21
202.4364592296
  0
LINE
  5
24F
100
AcDbEntity
  8
0
100
AcDbLine
 62
7
  6
CONTINUOUS
 10
75.9059594973
 20
26.3899637681
 11
75.9059594973
 21
21.9899637681
  0
LINE
  5
250
100
AcDbEntity
  8
0
100
AcDbLine
 62
7
  6
CONTINUOUS
 10
74.1678299411
 20
174.2800061923
 11
74.1659579827
 21
168.1399678212
  0
LINE
  5
251
100
AcDbEntity
  8
0
100
AcDbLine
 62
7
  6
CONTINUOUS
 10
73.6802681709
 20
154.8969049314
 11
73.6805060907
 21
155.177479694
  0
LINE
  5
252
100
AcDbEntity
  8
0
100
AcDbLine
 62
7
  6
CONTINUOUS
 10
75.164647876
 20
167.6399593574
 11
75.1640695171
 21
174.3399667692
  0
LINE
  5
253
100
AcDbEntity
  8
0
100
AcDbLine
 62
7
  6
CONTINUOUS
 10
77.9191944777
 20
160.1577188351
 11
77.7066817547
 21
159.86177479
  0
LINE
  5
254
100
AcDbEntity
  8
0
100
AcDbLine
 62
7
  6
CONTINUOUS
 10
77.9191944777
 20
153.0866510232
 11
77.7066817547
 21
152.7907069781
  0
LINE
  5
255
100
AcDbEntity
  8
0
100
AcDbLine
 62
7
  6
CONTINUOUS
 10
102.3634643323
 20
86.4692999107
 11
102.4434472463
 21
86.3322539312
  0
LINE
  5
256
100
AcDbEntity
  8
0
100
AcDbLine
 62
7
  6
CONTINUOUS
 10
96.0360822762
 20
72.2306592446
 11
95.1837351575
 21
74.0762686413
  0
LINE
  5
257
100
AcDbEntity
  8
0
100
AcDbLine
 62
7
  6
CONTINUOUS
 10
93.7069220497
 20
77.2797202748
 11
93.0742480821
 21
78.6553731245
  0
LINE
  5
258
100
AcDbEntity
  8
0
100
AcDbLine
 62
7
  6
CONTINUOUS
 10
82.8000106431
 20
167.6399593574
 11
82.7859584271
 21
168.1399678212
  0
LINE
  5
259
100
AcDbEntity
  8
0
100
AcDbLine
 62
7
  6
CONTINUOUS
 10
79.6659588843
 20
168.1399678212
 11
79.6640878572
 21
174.2800061923
  0
LINE
  5
25A
100
AcDbEntity
  8
0
100
AcDbLine
 62
7
  6
CONTINUOUS
 10
82.7859584271
 20
168.1399678212
 11
82.7840697049
 21
174.339968465
  0
LINE
  5
25B
100
AcDbEntity
  8
0
100
AcDbLine
 62
7
  6
CONTINUOUS
 10
77.1559586367
 20
198.2009379655
 11
77.1559586367
 21
197.3455057499
  0
LINE
  5
25C
100
AcDbEntity
  8
0
100
AcDbLine
 62
7
  6
CONTINUOUS
 10
77.1559588044
 20
196.7798166928
 11
77.1559588044
 21
196.0656404335
  0
LINE
  5
25D
100
AcDbEntity
  8
0
100
AcDbLine
 62
7
  6
CONTINUOUS
 10
77.7066817547
 20
159.86177479
 11
77.7066817547
 21
152.7907069781
  0
LINE
  5
25E
100
AcDbEntity
  8
0
100
AcDbLine
 62
7
  6
CONTINUOUS
 10
77.9191944777
 20
153.0866510232
 11
77.9191944777
 21
160.1577188351
  0
LINE
  5
25F
100
AcDbEntity
  8
0
100
AcDbLine
 62
7
  6
CONTINUOUS
 10
78.3559585287
 20
153.5614510555
 11
78.3559585287
 21
160.6325188673
  0
LINE
  5
260
100
AcDbEntity
  8
0
100
AcDbLine
 62
7
  6
CONTINUOUS
 10
79.6087887167
 20
138.2950209324
 11
79.6087887167
 21
136.3185922613
  0
LINE
  5
261
100
AcDbEntity
  8
0
100
AcDbLine
 62
7
  6
CONTINUOUS
 10
80.5559585287
 20
196.6596062877
 11
80.5559585287
 21
201.1426740709
  0
LINE
  5
262
100
AcDbEntity
  8
0
100
AcDbLine
 62
7
  6
CONTINUOUS
 10
81.1912687524
 20
138.2950209324
 11
81.1912687524
 21
136.6184185257
  0
LINE
  5
263
100
AcDbEntity
  8
0
100
AcDbLine
 62
7
  6
CONTINUOUS
 10
81.401384811
 20
21.9899637681
 11
81.401384811
 21
26.3899637681
  0
LINE
  5
264
100
AcDbEntity
  8
0
100
AcDbLine
 62
7
  6
CONTINUOUS
 10
81.7559585287
 20
201.1426740709
 11
81.7559585287
 21
196.6596062877
  0
LINE
  5
265
100
AcDbEntity
  8
0
100
AcDbLine
 62
7
  6
CONTINUOUS
 10
83.7139346605
 20
149.9622798534
 11
83.7139346605
 21
141.4769984791
  0
LINE
  5
266
100
AcDbEntity
  8
0
100
AcDbLine
 62
7
  6
CONTINUOUS
 10
84.3828496895
 20
142.7653090478
 11
84.3828496895
 21
151.2505904221
  0
LINE
  5
267
100
AcDbEntity
  8
0
100
AcDbLine
 62
7
  6
CONTINUOUS
 10
84.6559595345
 20
207.9899681789
 11
84.6559595345
 21
250.7209254485
  0
LINE
  5
268
100
AcDbEntity
  8
0
100
AcDbLine
 62
7
  6
CONTINUOUS
 10
78.6678475403
 20
174.3399666906
 11
78.6659587203
 21
167.6399593574
  0
LINE
  5
269
100
AcDbEntity
  8
0
100
AcDbLine
 62
7
  6
CONTINUOUS
 10
81.7878292902
 20
174.2800061923
 11
81.7859582632
 21
168.1399678212
  0
LINE
  5
26A
100
AcDbEntity
  8
0
100
AcDbLine
 62
7
  6
CONTINUOUS
 10
82.1309611815
 20
136.3765753215
 11
83.1260434759
 21
138.2950209324
  0
LINE
  5
26B
100
AcDbEntity
  8
0
100
AcDbLine
 62
7
  6
CONTINUOUS
 10
84.7765096136
 20
141.4769984791
 11
85.2919882944
 21
142.4708035325
  0
LINE
  5
26C
100
AcDbEntity
  8
0
100
AcDbLine
 62
7
  6
CONTINUOUS
 10
83.7139346605
 20
149.9622798534
 11
84.3828496895
 21
151.2505904221
  0
LINE
  5
26D
100
AcDbEntity
  8
0
100
AcDbLine
 62
7
  6
CONTINUOUS
 10
84.3828496895
 20
142.7653090478
 11
83.7139346605
 21
141.4769984791
  0
LINE
  5
26E
100
AcDbEntity
  8
0
100
AcDbLine
 62
7
  6
CONTINUOUS
 10
82.061792192
 20
138.2950209324
 11
81.1912692208
 21
136.6184194277
  0
LINE
  5
26F
100
AcDbEntity
  8
0
100
AcDbLine
 62
7
  6
CONTINUOUS
 10
91.8545875727
 20
84.4866668862
 11
91.8559594109
 21
82.3843849879
  0
LINE
  5
270
100
AcDbEntity
  8
0
100
AcDbLine
 62
7
  6
CONTINUOUS
 10
87.285958699
 20
168.1399678212
 11
87.284087672
 21
174.2800061923
  0
LINE
  5
271
100
AcDbEntity
  8
0
100
AcDbLine
 62
7
  6
CONTINUOUS
 10
84.7988156631
 20
143.3229873886
 11
84.7988156631
 21
151.8082687629
  0
LINE
  5
272
100
AcDbEntity
  8
0
100
AcDbLine
 62
7
  6
CONTINUOUS
 10
85.1559584207
 20
198.2009379655
 11
85.1559584207
 21
197.3455057499
  0
LINE
  5
273
100
AcDbEntity
  8
0
100
AcDbLine
 62
7
  6
CONTINUOUS
 10
85.155958253
 20
196.7798166928
 11
85.155958253
 21
196.0656398639
  0
LINE
  5
274
100
AcDbEntity
  8
0
100
AcDbLine
 62
7
  6
CONTINUOUS
 10
85.9501871628
 20
191.8300700533
 11
85.9501871628
 21
200.3153514275
  0
LINE
  5
275
100
AcDbEntity
  8
0
100
AcDbLine
 62
7
  6
CONTINUOUS
 10
86.1559584766
 20
161.7611657359
 11
86.1559584766
 21
154.690097924
  0
LINE
  5
276
100
AcDbEntity
  8
0
100
AcDbLine
 62
7
  6
CONTINUOUS
 10
86.4501871628
 20
200.410085773
 11
86.4501871628
 21
191.9248043988
  0
LINE
  5
277
100
AcDbEntity
  8
0
100
AcDbLine
 62
7
  6
CONTINUOUS
 10
86.5364216923
 20
251.8027591709
 11
86.5364216923
 21
252.2206991617
  0
LINE
  5
278
100
AcDbEntity
  8
0
100
AcDbLine
 62
7
  6
CONTINUOUS
 10
87.7459584764
 20
202.8399740678
 11
87.7459584764
 21
202.4364577183
  0
LINE
  5
279
100
AcDbEntity
  8
0
100
AcDbLine
 62
7
  6
CONTINUOUS
 10
87.9059585287
 20
106.0617868839
 11
87.9059585287
 21
93.3181406523
  0
LINE
  5
27A
100
AcDbEntity
  8
0
100
AcDbLine
 62
7
  6
CONTINUOUS
 10
88.0409930862
 20
202.4364576829
 11
88.0409930862
 21
202.8399740678
  0
LINE
  5
27B
100
AcDbEntity
  8
0
100
AcDbLine
 62
7
  6
CONTINUOUS
 10
88.6509241565
 20
202.8399740678
 11
88.6509241565
 21
202.4364576097
  0
LINE
  5
27C
100
AcDbEntity
  8
0
100
AcDbLine
 62
7
  6
CONTINUOUS
 10
88.8617299526
 20
154.1029904356
 11
88.8617299526
 21
160.6565426566
  0
LINE
  5
27D
100
AcDbEntity
  8
0
100
AcDbLine
 62
7
  6
CONTINUOUS
 10
88.9459585334
 20
202.4364575743
 11
88.9459585334
 21
202.8399740678
  0
LINE
  5
27E
100
AcDbEntity
  8
0
100
AcDbLine
 62
7
  6
CONTINUOUS
 10
89.0369364089
 20
138.2950209324
 11
89.0369364089
 21
138.1366680374
  0
LINE
  5
27F
100
AcDbEntity
  8
0
100
AcDbLine
 62
7
  6
CONTINUOUS
 10
89.1559585026
 20
193.0294358657
 11
89.1559585026
 21
201.5147172399
  0
LINE
  5
280
100
AcDbEntity
  8
0
100
AcDbLine
 62
7
  6
CONTINUOUS
 10
89.3617298017
 20
154.2724684596
 11
89.3617298017
 21
160.5618085243
  0
LINE
  5
281
100
AcDbEntity
  8
0
100
AcDbLine
 62
7
  6
CONTINUOUS
 10
90.1559586367
 20
159.1615725762
 11
90.1559586367
 21
158.3061403606
  0
LINE
  5
282
100
AcDbEntity
  8
0
100
AcDbLine
 62
7
  6
CONTINUOUS
 10
90.1559588044
 20
157.7404513035
 11
90.1559588044
 21
157.0262746184
  0
LINE
  5
283
100
AcDbEntity
  8
0
100
AcDbLine
 62
7
  6
CONTINUOUS
 10
92.1676613608
 20
222.0595370656
 11
92.1676613608
 21
213.5203904707
  0
LINE
  5
284
100
AcDbEntity
  8
0
100
AcDbLine
 62
7
  6
CONTINUOUS
 10
92.2018321608
 20
145.2975220671
 11
92.2018321608
 21
141.4769984791
  0
LINE
  5
285
100
AcDbEntity
  8
0
100
AcDbLine
 62
7
  6
CONTINUOUS
 10
92.4191942476
 20
141.7729430032
 11
92.4191942476
 21
145.3066144048
  0
LINE
  5
286
100
AcDbEntity
  8
0
100
AcDbLine
 62
7
  6
CONTINUOUS
 10
86.287847723
 20
174.339968465
 11
86.2859585351
 21
167.6399593574
  0
LINE
  5
287
100
AcDbEntity
  8
0
100
AcDbLine
 62
7
  6
CONTINUOUS
 10
89.4078293378
 20
174.2800061923
 11
89.4059585436
 21
168.1399678212
  0
LINE
  5
288
100
AcDbEntity
  8
0
100
AcDbLine
 62
7
  6
CONTINUOUS
 10
88.1211879054
 20
236.4899637681
 11
88.3124268346
 21
247.446034685
  0
LINE
  5
289
100
AcDbEntity
  8
0
100
AcDbLine
 62
7
  6
CONTINUOUS
 10
91.5591091645
 20
138.1946521809
 11
91.6134403999
 21
138.2950209324
  0
LINE
  5
28A
100
AcDbEntity
  8
0
100
AcDbLine
 62
7
  6
CONTINUOUS
 10
93.3358965308
 20
141.4769984791
 11
93.350412311
 21
141.5038141906
  0
LINE
  5
28B
100
AcDbEntity
  8
0
100
AcDbLine
 62
7
  6
CONTINUOUS
 10
92.4191942476
 20
141.7729430032
 11
92.2018321608
 21
141.4769984791
  0
LINE
  5
28C
100
AcDbEntity
  8
0
100
AcDbLine
 62
7
  6
CONTINUOUS
 10
74.7219969978
 20
138.2950209324
 11
78.9660010516
 21
135.7769089749
  0
LINE
  5
28D
100
AcDbEntity
  8
0
100
AcDbLine
 62
7
  6
CONTINUOUS
 10
79.6087887167
 20
136.3185922613
 11
76.2777260089
 21
138.2950209324
  0
LINE
  5
28E
100
AcDbEntity
  8
0
100
AcDbLine
 62
7
  6
CONTINUOUS
 10
94.9059585138
 20
168.1399678212
 11
94.9040877196
 21
174.2800061923
  0
LINE
  5
28F
100
AcDbEntity
  8
0
100
AcDbLine
 62
7
  6
CONTINUOUS
 10
92.8559585287
 20
142.2477425565
 11
92.8559585287
 21
145.2515392817
  0
LINE
  5
290
100
AcDbEntity
  8
0
100
AcDbLine
 62
7
  6
CONTINUOUS
 10
93.5559585287
 20
157.6202408984
 11
93.5559585287
 21
162.1033086816
  0
LINE
  5
291
100
AcDbEntity
  8
0
100
AcDbLine
 62
7
  6
CONTINUOUS
 10
94.7559585287
 20
162.1033086816
 11
94.7559585287
 21
157.6202408984
  0
LINE
  5
292
100
AcDbEntity
  8
0
100
AcDbLine
 62
7
  6
CONTINUOUS
 10
95.6559585287
 20
153.7935257852
 11
95.6559585287
 21
145.308244411
  0
LINE
  5
293
100
AcDbEntity
  8
0
100
AcDbLine
 62
7
  6
CONTINUOUS
 10
96.9484540663
 20
88.7256039363
 11
96.9484540663
 21
86.4692999107
  0
LINE
  5
294
100
AcDbEntity
  8
0
100
AcDbLine
 62
7
  6
CONTINUOUS
 10
97.6103134279
 20
191.1229650588
 11
97.6103134279
 21
199.608246433
  0
LINE
  5
295
100
AcDbEntity
  8
0
100
AcDbLine
 62
7
  6
CONTINUOUS
 10
97.6559591043
 20
94.8146709487
 11
97.6559591043
 21
100.5182115418
  0
LINE
  5
296
100
AcDbEntity
  8
0
100
AcDbLine
 62
7
  6
CONTINUOUS
 10
98.155958253
 20
157.7404513035
 11
98.155958253
 21
157.0262746184
  0
LINE
  5
297
100
AcDbEntity
  8
0
100
AcDbLine
 62
7
  6
CONTINUOUS
 10
98.1559584207
 20
159.1615725762
 11
98.1559584207
 21
158.3061403606
  0
LINE
  5
298
100
AcDbEntity
  8
0
100
AcDbLine
 62
7
  6
CONTINUOUS
 10
99.4970385743
 20
143.7401294335
 11
99.4970385743
 21
152.2254108077
  0
LINE
  5
299
100
AcDbEntity
  8
0
100
AcDbLine
 62
7
  6
CONTINUOUS
 10
100.6559589907
 20
151.8616745246
 11
100.6559589907
 21
143.3763931503
  0
LINE
  5
29A
100
AcDbEntity
  8
0
100
AcDbLine
 62
7
  6
CONTINUOUS
 10
97.0278293855
 20
174.2800061923
 11
97.0259583584
 21
168.1399678212
  0
LINE
  5
29B
100
AcDbEntity
  8
0
100
AcDbLine
 62
7
  6
CONTINUOUS
 10
114.6559585287
 20
138.2950209324
 11
69.6559585287
 21
138.2950209324
  0
LINE
  5
29C
100
AcDbEntity
  8
0
100
AcDbLine
 62
7
  6
CONTINUOUS
 10
87.2143292881
 20
138.2950209324
 11
88.3941487438
 21
137.5949959269
  0
LINE
  5
29D
100
AcDbEntity
  8
0
100
AcDbLine
 62
7
  6
CONTINUOUS
 10
89.0369364089
 20
138.1366680374
 11
88.7700494854
 21
138.2950209324
  0
LINE
  5
29E
100
AcDbEntity
  8
0
100
AcDbLine
 62
7
  6
CONTINUOUS
 10
102.5259587943
 20
168.1399678212
 11
102.5240877672
 21
174.2800061923
  0
LINE
  5
29F
100
AcDbEntity
  8
0
100
AcDbLine
 62
7
  6
CONTINUOUS
 10
101.6314440775
 20
202.8199637681
 11
101.6314440775
 21
202.8399740678
  0
LINE
  5
2A0
100
AcDbEntity
  8
0
100
AcDbLine
 62
7
  6
CONTINUOUS
 10
101.6698884455
 20
202.8399740678
 11
101.6698884455
 21
202.436456047
  0
LINE
  5
2A1
100
AcDbEntity
  8
0
100
AcDbLine
 62
7
  6
CONTINUOUS
 10
102.3634643323
 20
86.4692999107
 11
102.3634643323
 21
88.7256039363
  0
LINE
  5
2A2
100
AcDbEntity
  8
0
100
AcDbLine
 62
7
  6
CONTINUOUS
 10
102.6559583872
 20
160.5618085243
 11
102.6559583872
 21
152.7907069781
  0
LINE
  5
2A3
100
AcDbEntity
  8
0
100
AcDbLine
 62
7
  6
CONTINUOUS
 10
103.1559584691
 20
159.5390181528
 11
103.1559584691
 21
162.3005037596
  0
LINE
  5
2A4
100
AcDbEntity
  8
0
100
AcDbLine
 62
7
  6
CONTINUOUS
 10
103.1559586367
 20
159.5151259668
 11
103.1559584691
 21
151.0229446237
  0
LINE
  5
2A5
100
AcDbEntity
  8
0
100
AcDbLine
 62
7
  6
CONTINUOUS
 10
103.3617298946
 20
142.2717662239
 11
103.3617298946
 21
150.7570475981
  0
LINE
  5
2A6
100
AcDbEntity
  8
0
100
AcDbLine
 62
7
  6
CONTINUOUS
 10
103.8617296173
 20
142.1770284882
 11
103.8617296173
 21
150.6623098624
  0
LINE
  5
2A7
100
AcDbEntity
  8
0
100
AcDbLine
 62
7
  6
CONTINUOUS
 10
104.8393586367
 20
148.5549708584
 11
104.8393586367
 21
147.6995386428
  0
LINE
  5
2A8
100
AcDbEntity
  8
0
100
AcDbLine
 62
7
  6
CONTINUOUS
 10
104.8393588044
 20
147.1338495857
 11
104.8393588044
 21
146.4196698299
  0
LINE
  5
2A9
100
AcDbEntity
  8
0
100
AcDbLine
 62
7
  6
CONTINUOUS
 10
106.5559585287
 20
157.973794289
 11
106.5559585287
 21
162.4568620722
  0
LINE
  5
2AA
100
AcDbEntity
  8
0
100
AcDbLine
 62
7
  6
CONTINUOUS
 10
107.4559589877
 20
82.3843849879
 11
107.4559589877
 21
84.4856461567
  0
LINE
  5
2AB
100
AcDbEntity
  8
0
100
AcDbLine
 62
7
  6
CONTINUOUS
 10
107.6559595793
 20
100.5182115418
 11
107.6559595793
 21
94.8146709487
  0
LINE
  5
2AC
100
AcDbEntity
  8
0
100
AcDbLine
 62
7
  6
CONTINUOUS
 10
107.7559585287
 20
162.4568620722
 11
107.7559585287
 21
157.973794289
  0
LINE
  5
2AD
100
AcDbEntity
  8
0
100
AcDbLine
 62
7
  6
CONTINUOUS
 10
108.2393585287
 20
147.0136391806
 11
108.2393585287
 21
151.4967069638
  0
LINE
  5
2AE
100
AcDbEntity
  8
0
100
AcDbLine
 62
7
  6
CONTINUOUS
 10
108.5059585287
 20
189.7171280776
 11
108.5059585287
 21
201.0207921798
  0
LINE
  5
2AF
100
AcDbEntity
  8
0
100
AcDbLine
 62
7
  6
CONTINUOUS
 10
104.6478292002
 20
174.2800061923
 11
104.6459581732
 21
168.1399678212
  0
LINE
  5
2B0
100
AcDbEntity
  8
0
100
AcDbLine
 62
7
  6
CONTINUOUS
 10
106.8062402112
 20
242.1899637681
 11
106.2559585287
 21
231.6899637681
  0
LINE
  5
2B1
100
AcDbEntity
  8
0
100
AcDbLine
 62
7
  6
CONTINUOUS
 10
69.6559585287
 20
139.348604124
 11
72.1559589758
 21
139.348604124
  0
LINE
  5
2B2
100
AcDbEntity
  8
0
100
AcDbLine
 62
7
  6
CONTINUOUS
 10
111.5693757339
 20
139.3486115746
 11
114.6559585287
 21
139.3486115746
  0
LINE
  5
2B3
100
AcDbEntity
  8
0
100
AcDbLine
 62
7
  6
CONTINUOUS
 10
111.6207054392
 20
139.3556781356
 11
72.1559589757
 21
139.3521411298
  0
LINE
  5
2B4
100
AcDbEntity
  8
0
100
AcDbLine
 62
7
  6
CONTINUOUS
 10
111.5693757339
 20
141.4699318933
 11
117.1559589012
 21
141.4699274113
  0
LINE
  5
2B5
100
AcDbEntity
  8
0
100
AcDbLine
 62
7
  6
CONTINUOUS
 10
83.7139346605
 20
141.4769984791
 11
84.7765096136
 21
141.4769984791
  0
LINE
  5
2B6
100
AcDbEntity
  8
0
100
AcDbLine
 62
7
  6
CONTINUOUS
 10
92.2018321608
 20
141.4769984791
 11
93.3358965308
 21
141.4769984791
  0
LINE
  5
2B7
100
AcDbEntity
  8
0
100
AcDbLine
 62
7
  6
CONTINUOUS
 10
103.3940018213
 20
141.4769984791
 11
111.6207054392
 21
141.4769984791
  0
LINE
  5
2B8
100
AcDbEntity
  8
0
100
AcDbLine
 62
7
  6
CONTINUOUS
 10
117.1559589012
 20
142.1770322135
 11
103.8617296173
 21
142.1770284882
  0
LINE
  5
2B9
100
AcDbEntity
  8
0
100
AcDbLine
 62
7
  6
CONTINUOUS
 10
129.6559585287
 20
146.3899610621
 11
117.1559589012
 21
146.3899610621
  0
LINE
  5
2BA
100
AcDbEntity
  8
0
100
AcDbLine
 62
7
  6
CONTINUOUS
 10
99.092368795
 20
143.0888383772
 11
102.5937804981
 21
141.6593919506
  0
LINE
  5
2BB
100
AcDbEntity
  8
0
100
AcDbLine
 62
7
  6
CONTINUOUS
 10
95.1559585287
 20
144.6958719753
 11
97.0490123242
 21
143.9230357961
  0
LINE
  5
2BC
100
AcDbEntity
  8
0
100
AcDbLine
 62
7
  6
CONTINUOUS
 10
99.4970385743
 20
143.7401294335
 11
95.6559567413
 21
145.3082451407
  0
LINE
  5
2BD
100
AcDbEntity
  8
0
100
AcDbLine
 62
7
  6
CONTINUOUS
 10
103.3617218732
 20
142.2717694986
 11
100.6559589907
 21
143.3763931503
  0
LINE
  5
2BE
100
AcDbEntity
  8
0
100
AcDbLine
 62
7
  6
CONTINUOUS
 10
111.6472309963
 20
242.1899637681
 11
111.6559585287
 21
241.6899637681
  0
LINE
  5
2BF
100
AcDbEntity
  8
0
100
AcDbLine
 62
7
  6
CONTINUOUS
 10
113.2034895475
 20
201.7658374243
 11
113.2025256159
 21
202.8399740678
  0
LINE
  5
2C0
100
AcDbEntity
  8
0
100
AcDbLine
 62
7
  6
CONTINUOUS
 10
110.1459590747
 20
168.1399678212
 11
110.1440871163
 21
174.2800061923
  0
LINE
  5
2C1
100
AcDbEntity
  8
0
100
AcDbLine
 62
7
  6
CONTINUOUS
 10
111.1561032041
 20
167.6630412561
 11
111.1559579178
 21
168.1399678212
  0
LINE
  5
2C2
100
AcDbEntity
  8
0
100
AcDbLine
 62
7
  6
CONTINUOUS
 10
109.4393585287
 20
151.4967069638
 11
109.4393585287
 21
147.0136391806
  0
LINE
  5
2C3
100
AcDbEntity
  8
0
100
AcDbLine
 62
7
  6
CONTINUOUS
 10
110.8059585287
 20
201.0207920518
 11
110.8059585287
 21
189.717127978
  0
LINE
  5
2C4
100
AcDbEntity
  8
0
100
AcDbLine
 62
7
  6
CONTINUOUS
 10
111.1559584207
 20
159.5151259668
 11
111.1559584207
 21
158.6596937512
  0
LINE
  5
2C5
100
AcDbEntity
  8
0
100
AcDbLine
 62
7
  6
CONTINUOUS
 10
111.155958253
 20
158.0940046941
 11
111.155958253
 21
157.3868980873
  0
LINE
  5
2C6
100
AcDbEntity
  8
0
100
AcDbLine
 62
7
  6
CONTINUOUS
 10
111.1559579178
 20
188.2943216128
 11
111.1559579178
 21
202.4364549083
  0
LINE
  5
2C7
100
AcDbEntity
  8
0
100
AcDbLine
 62
7
  6
CONTINUOUS
 10
111.4128625153
 20
162.3005037596
 11
111.4128625153
 21
152.4171007506
  0
LINE
  5
2C8
100
AcDbEntity
  8
0
100
AcDbLine
 62
7
  6
CONTINUOUS
 10
111.6207054392
 20
166.7432534502
 11
111.6207054392
 21
162.3972621379
  0
LINE
  5
2C9
100
AcDbEntity
  8
0
100
AcDbLine
 62
7
  6
CONTINUOUS
 10
111.6207054392
 20
151.0229446237
 11
111.6207054392
 21
150.6960319555
  0
LINE
  5
2CA
100
AcDbEntity
  8
0
100
AcDbLine
 62
7
  6
CONTINUOUS
 10
111.6207054392
 20
141.4769984791
 11
111.6207054392
 21
139.3556781356
  0
LINE
  5
2CB
100
AcDbEntity
  8
0
100
AcDbLine
 62
7
  6
CONTINUOUS
 10
112.8393584207
 20
148.5549708584
 11
112.8393584207
 21
147.6995386428
  0
LINE
  5
2CC
100
AcDbEntity
  8
0
100
AcDbLine
 62
7
  6
CONTINUOUS
 10
112.839358253
 20
147.1338495857
 11
112.839358253
 21
146.419671691
  0
LINE
  5
2CD
100
AcDbEntity
  8
0
100
AcDbLine
 62
7
  6
CONTINUOUS
 10
113.1881652429
 20
201.7766107683
 11
113.1881652429
 21
202.8399740678
  0
LINE
  5
2CE
100
AcDbEntity
  8
0
100
AcDbLine
 62
7
  6
CONTINUOUS
 10
114.1559585287
 20
199.8172510378
 11
114.1559584095
 21
153.6284965817
  0
LINE
  5
2CF
100
AcDbEntity
  8
0
100
AcDbLine
 62
7
  6
CONTINUOUS
 10
114.6559585287
 20
202.8399740678
 11
114.6559585287
 21
150.6623128872
  0
LINE
  5
2D0
100
AcDbEntity
  8
0
100
AcDbLine
 62
7
  6
CONTINUOUS
 10
114.6559585287
 20
141.4699289085
 11
114.6559585287
 21
138.2950209324
  0
LINE
  5
2D1
100
AcDbEntity
  8
0
100
AcDbLine
 62
7
  6
CONTINUOUS
 10
115.1538371451
 20
253.1156441367
 11
115.1538371451
 21
253.4614977545
  0
LINE
  5
2D2
100
AcDbEntity
  8
0
100
AcDbLine
 62
7
  6
CONTINUOUS
 10
112.643692247
 20
153.6388583724
 11
112.655959095
 21
186.1800737922
  0
LINE
  5
2D3
100
AcDbEntity
  8
0
100
AcDbLine
 62
7
  6
CONTINUOUS
 10
114.4559585287
 20
241.6899637681
 11
114.8372020265
 21
248.9645230606
  0
LINE
  5
2D4
100
AcDbEntity
  8
0
100
AcDbLine
 62
7
  6
CONTINUOUS
 10
103.8617296173
 20
150.6623098624
 11
106.0341518577
 21
150.6623104712
  0
LINE
  5
2D5
100
AcDbEntity
  8
0
100
AcDbLine
 62
7
  6
CONTINUOUS
 10
111.6581404717
 20
150.6623120471
 11
117.1559589012
 21
150.6623135877
  0
LINE
  5
2D6
100
AcDbEntity
  8
0
100
AcDbLine
 62
7
  6
CONTINUOUS
 10
103.1559584691
 20
151.0229446237
 11
106.4475676474
 21
151.0229446237
  0
LINE
  5
2D7
100
AcDbEntity
  8
0
100
AcDbLine
 62
7
  6
CONTINUOUS
 10
111.2577748464
 20
151.0229446237
 11
111.6207054392
 21
151.0229446237
  0
LINE
  5
2D8
100
AcDbEntity
  8
0
100
AcDbLine
 62
7
  6
CONTINUOUS
 10
111.4128625153
 20
152.4171007506
 11
103.1559584691
 21
152.4171007506
  0
LINE
  5
2D9
100
AcDbEntity
  8
0
100
AcDbLine
 62
7
  6
CONTINUOUS
 10
77.7066817547
 20
152.7907069781
 11
78.8368521669
 21
152.7907069781
  0
LINE
  5
2DA
100
AcDbEntity
  8
0
100
AcDbLine
 62
7
  6
CONTINUOUS
 10
98.1123519466
 20
152.7907069781
 11
102.6559583872
 21
152.7907069781
  0
LINE
  5
2DB
100
AcDbEntity
  8
0
100
AcDbLine
 62
7
  6
CONTINUOUS
 10
102.6559583872
 20
153.4907407124
 11
96.3976271677
 21
153.4907407124
  0
LINE
  5
2DC
100
AcDbEntity
  8
0
100
AcDbLine
 62
7
  6
CONTINUOUS
 10
114.1559584095
 20
153.6388583724
 11
112.643692247
 21
153.6388583724
  0
LINE
  5
2DD
100
AcDbEntity
  8
0
100
AcDbLine
 62
7
  6
CONTINUOUS
 10
85.5346540949
 20
154.1256717403
 11
87.0754304284
 21
153.4975132253
  0
LINE
  5
2DE
100
AcDbEntity
  8
0
100
AcDbLine
 62
7
  6
CONTINUOUS
 10
88.1691263512
 20
153.868228185
 11
86.1559584766
 21
154.690097924
  0
LINE
  5
2DF
100
AcDbEntity
  8
0
100
AcDbLine
 62
7
  6
CONTINUOUS
 10
95.6559567413
 20
153.7935265149
 11
99.4970385743
 21
152.2254108077
  0
LINE
  5
2E0
100
AcDbEntity
  8
0
100
AcDbLine
 62
7
  6
CONTINUOUS
 10
100.6559589906
 20
151.8616745246
 11
103.3617218732
 21
150.7570508728
  0
LINE
  5
2E1
100
AcDbEntity
  8
0
100
AcDbLine
 62
7
  6
CONTINUOUS
 10
114.8372020265
 20
248.9645230606
 11
114.7959973193
 21
251.3251391566
  0
LINE
  5
2E2
100
AcDbEntity
  8
0
100
AcDbLine
 62
7
  6
CONTINUOUS
 10
117.1559589012
 20
150.6623135877
 11
117.1559589012
 21
141.4699274113
  0
LINE
  5
2E3
100
AcDbEntity
  8
0
100
AcDbLine
 62
7
  6
CONTINUOUS
 10
117.1559585287
 20
166.2154121381
 11
117.1559585287
 21
166.3899643403
  0
LINE
  5
2E4
100
AcDbEntity
  8
0
100
AcDbLine
 62
7
  6
CONTINUOUS
 10
117.9068875956
 20
26.3899637681
 11
117.9068875956
 21
21.9899637681
  0
LINE
  5
2E5
100
AcDbEntity
  8
0
100
AcDbLine
 62
7
  6
CONTINUOUS
 10
122.1442556966
 20
222.0595370656
 11
122.1442556966
 21
213.5203904707
  0
LINE
  5
2E6
100
AcDbEntity
  8
0
100
AcDbLine
 62
7
  6
CONTINUOUS
 10
123.4013861074
 20
21.9899637681
 11
123.4013861074
 21
26.3899637681
  0
LINE
  5
2E7
100
AcDbEntity
  8
0
100
AcDbLine
 62
7
  6
CONTINUOUS
 10
96.8684711522
 20
86.3322539312
 11
96.9484540663
 21
86.4692999107
  0
LINE
  5
2E8
100
AcDbEntity
  8
0
100
AcDbLine
 62
7
  6
CONTINUOUS
 10
72.1559589713
 20
154.8967605929
 11
73.6802682367
 21
154.8967605929
  0
LINE
  5
2E9
100
AcDbEntity
  8
0
100
AcDbLine
 62
7
  6
CONTINUOUS
 10
73.679548504
 20
155.4303376697
 11
72.1559589582
 21
155.4303376697
  0
LINE
  5
2EA
100
AcDbEntity
  8
0
100
AcDbLine
 62
7
  6
CONTINUOUS
 10
129.6559585287
 20
156.3899589759
 11
127.6559600635
 21
156.3899589759
  0
LINE
  5
2EB
100
AcDbEntity
  8
0
100
AcDbLine
 62
7
  6
CONTINUOUS
 10
117.1559585287
 20
156.3899623734
 11
114.6559585287
 21
156.3899623734
  0
LINE
  5
2EC
100
AcDbEntity
  8
0
100
AcDbLine
 62
7
  6
CONTINUOUS
 10
102.6559583872
 20
160.5618085243
 11
97.7365456452
 21
160.5618085243
  0
LINE
  5
2ED
100
AcDbEntity
  8
0
100
AcDbLine
 62
7
  6
CONTINUOUS
 10
90.5829809688
 20
160.5618085243
 11
89.3617298017
 21
160.5618085243
  0
LINE
  5
2EE
100
AcDbEntity
  8
0
100
AcDbLine
 62
7
  6
CONTINUOUS
 10
103.1559584691
 20
162.3005037596
 11
105.6197720125
 21
162.3005037596
  0
LINE
  5
2EF
100
AcDbEntity
  8
0
100
AcDbLine
 62
7
  6
CONTINUOUS
 10
108.6903592545
 20
162.3005037596
 11
111.4128625153
 21
162.3005037596
  0
LINE
  5
2F0
100
AcDbEntity
  8
0
100
AcDbLine
 62
7
  6
CONTINUOUS
 10
88.8617299526
 20
160.6565426566
 11
86.1559584766
 21
161.7611657359
  0
LINE
  5
2F1
100
AcDbEntity
  8
0
100
AcDbLine
 62
7
  6
CONTINUOUS
 10
126.9559585287
 20
26.3899637681
 11
126.9559585287
 21
33.2131439876
  0
LINE
  5
2F2
100
AcDbEntity
  8
0
100
AcDbLine
 62
7
  6
CONTINUOUS
 10
126.9559585287
 20
33.2161908861
 11
126.9559585287
 21
38.763735652
  0
LINE
  5
2F3
100
AcDbEntity
  8
0
100
AcDbLine
 62
7
  6
CONTINUOUS
 10
126.9559585287
 20
38.7667844129
 11
126.9559585287
 21
91.1545770662
  0
LINE
  5
2F4
100
AcDbEntity
  8
0
100
AcDbLine
 62
7
  6
CONTINUOUS
 10
127.6559600635
 20
146.3999643403
 11
127.6559600635
 21
166.2154121381
  0
LINE
  5
2F5
100
AcDbEntity
  8
0
100
AcDbLine
 62
7
  6
CONTINUOUS
 10
129.1559593781
 20
30.9899637681
 11
129.1559593781
 21
21.9899637681
  0
LINE
  5
2F6
100
AcDbEntity
  8
0
100
AcDbLine
 62
7
  6
CONTINUOUS
 10
129.6559585287
 20
38.763735652
 11
129.6559585287
 21
33.2161908861
  0
LINE
  5
2F7
100
AcDbEntity
  8
0
100
AcDbLine
 62
7
  6
CONTINUOUS
 10
129.6559585287
 20
21.9899637681
 11
129.6559585287
 21
33.2131439876
  0
LINE
  5
2F8
100
AcDbEntity
  8
0
100
AcDbLine
 62
7
  6
CONTINUOUS
 10
129.6559585287
 20
38.7667844129
 11
129.6559585287
 21
146.466694263
  0
LINE
  5
2F9
100
AcDbEntity
  8
0
100
AcDbLine
 62
7
  6
CONTINUOUS
 10
129.6559585287
 20
146.5970723015
 11
129.6559585287
 21
250.6926281434
  0
LINE
  5
2FA
100
AcDbEntity
  8
0
100
AcDbLine
 62
7
  6
CONTINUOUS
 10
109.5257340028
 20
81.0105873328
 11
109.8470235272
 21
81.7107928973
  0
LINE
  5
2FB
100
AcDbEntity
  8
0
100
AcDbLine
 62
7
  6
CONTINUOUS
 10
106.2376703164
 20
78.6553731245
 11
105.6049963488
 21
77.2797202748
  0
LINE
  5
2FC
100
AcDbEntity
  8
0
100
AcDbLine
 62
7
  6
CONTINUOUS
 10
107.4205454468
 20
76.4440780562
 11
108.0533530592
 21
77.8200214785
  0
LINE
  5
2FD
100
AcDbEntity
  8
0
100
AcDbLine
 62
7
  6
CONTINUOUS
 10
105.0921225949
 20
71.3933369201
 11
105.9419791243
 21
73.2400974315
  0
LINE
  5
2FE
100
AcDbEntity
  8
0
100
AcDbLine
 62
7
  6
CONTINUOUS
 10
104.1281832411
 20
74.0762686413
 11
103.2766037649
 21
72.2290461939
  0
LINE
  5
2FF
100
AcDbEntity
  8
0
100
AcDbLine
 62
7
  6
CONTINUOUS
 10
111.1035039677
 20
167.6495706063
 11
111.1561032041
 21
167.6630412561
  0
LINE
  5
300
100
AcDbEntity
  8
0
100
AcDbLine
 62
7
  6
CONTINUOUS
 10
110.9059592738
 20
167.6399593574
 11
111.1035039677
 21
167.6495706063
  0
LINE
  5
301
100
AcDbEntity
  8
0
100
AcDbLine
 62
7
  6
CONTINUOUS
 10
92.1559585287
 20
164.8829761781
 11
73.6805060907
 21
164.8829761781
  0
LINE
  5
302
100
AcDbEntity
  8
0
100
AcDbLine
 62
7
  6
CONTINUOUS
 10
114.6559585287
 20
166.2154121381
 11
127.6559600635
 21
166.2154121381
  0
LINE
  5
303
100
AcDbEntity
  8
0
100
AcDbLine
 62
7
  6
CONTINUOUS
 10
117.1559585287
 20
166.3899643403
 11
114.6559585287
 21
166.3899643403
  0
LINE
  5
304
100
AcDbEntity
  8
0
100
AcDbLine
 62
7
  6
CONTINUOUS
 10
73.6798692493
 20
166.7433267968
 11
111.6207054392
 21
166.7432534502
  0
LINE
  5
305
100
AcDbEntity
  8
0
100
AcDbLine
 62
7
  6
CONTINUOUS
 10
111.5693757339
 20
166.884239884
 11
112.6481695787
 21
166.884239884
  0
LINE
  5
306
100
AcDbEntity
  8
0
100
AcDbLine
 62
7
  6
CONTINUOUS
 10
114.1559584531
 20
166.884239884
 11
114.6559585287
 21
166.884239884
  0
LINE
  5
307
100
AcDbEntity
  8
0
100
AcDbLine
 62
7
  6
CONTINUOUS
 10
69.6559585287
 20
166.8843409398
 11
72.1559589758
 21
166.8843409398
  0
LINE
  5
308
100
AcDbEntity
  8
0
100
AcDbLine
 62
7
  6
CONTINUOUS
 10
114.6559585287
 20
167.0819260423
 11
114.1559584537
 21
167.0819260423
  0
LINE
  5
309
100
AcDbEntity
  8
0
100
AcDbLine
 62
7
  6
CONTINUOUS
 10
112.6482364025
 20
167.0819260423
 11
73.6796731647
 21
167.0819260423
  0
LINE
  5
30A
100
AcDbEntity
  8
0
100
AcDbLine
 62
7
  6
CONTINUOUS
 10
72.1559588064
 20
167.0819260423
 11
69.6559585287
 21
167.0819260423
  0
LINE
  5
30B
100
AcDbEntity
  8
0
100
AcDbLine
 62
7
  6
CONTINUOUS
 10
73.679301536
 20
167.6399593574
 11
75.164647876
 21
167.6399593574
  0
LINE
  5
30C
100
AcDbEntity
  8
0
100
AcDbLine
 62
7
  6
CONTINUOUS
 10
78.6659587203
 20
167.6399593574
 11
82.8000106431
 21
167.6399593574
  0
LINE
  5
30D
100
AcDbEntity
  8
0
100
AcDbLine
 62
7
  6
CONTINUOUS
 10
86.2859585351
 20
167.6399593574
 11
110.9059592738
 21
167.6399593574
  0
LINE
  5
30E
100
AcDbEntity
  8
0
100
AcDbLine
 62
7
  6
CONTINUOUS
 10
111.1559579178
 20
168.1399678212
 11
110.1459590747
 21
168.1399678212
  0
LINE
  5
30F
100
AcDbEntity
  8
0
100
AcDbLine
 62
7
  6
CONTINUOUS
 10
104.6459581732
 20
168.1399678212
 11
102.5259587943
 21
168.1399678212
  0
LINE
  5
310
100
AcDbEntity
  8
0
100
AcDbLine
 62
7
  6
CONTINUOUS
 10
97.0259583584
 20
168.1399678212
 11
94.9059585138
 21
168.1399678212
  0
LINE
  5
311
100
AcDbEntity
  8
0
100
AcDbLine
 62
7
  6
CONTINUOUS
 10
89.4059585436
 20
168.1399678212
 11
87.285958699
 21
168.1399678212
  0
LINE
  5
312
100
AcDbEntity
  8
0
100
AcDbLine
 62
7
  6
CONTINUOUS
 10
81.7859582632
 20
168.1399678212
 11
79.6659588843
 21
168.1399678212
  0
LINE
  5
313
100
AcDbEntity
  8
0
100
AcDbLine
 62
7
  6
CONTINUOUS
 10
74.1659579827
 20
168.1399678212
 11
73.6789412765
 21
168.1399678212
  0
LINE
  5
314
100
AcDbEntity
  8
0
100
AcDbLine
 62
7
  6
CONTINUOUS
 10
126.6559585287
 20
168.3599637681
 11
129.6559585287
 21
168.3599637681
  0
LINE
  5
315
100
AcDbEntity
  8
0
100
AcDbLine
 62
7
  6
CONTINUOUS
 10
114.6559585287
 20
168.3899683934
 11
126.6559585287
 21
168.3899683934
  0
LINE
  5
316
100
AcDbEntity
  8
0
100
AcDbLine
 62
7
  6
CONTINUOUS
 10
69.6559585287
 20
177.870985827
 11
72.1559586659
 21
177.870985827
  0
LINE
  5
317
100
AcDbEntity
  8
0
100
AcDbLine
 62
7
  6
CONTINUOUS
 10
73.6719300129
 20
177.870985827
 11
112.6518834246
 21
177.870985827
  0
LINE
  5
318
100
AcDbEntity
  8
0
100
AcDbLine
 62
7
  6
CONTINUOUS
 10
114.1559584891
 20
177.870985827
 11
114.6559585287
 21
177.870985827
  0
LINE
  5
319
100
AcDbEntity
  8
0
100
AcDbLine
 62
7
  6
CONTINUOUS
 10
114.15595849
 20
178.1423576419
 11
112.6519751563
 21
178.1423576419
  0
LINE
  5
31A
100
AcDbEntity
  8
0
100
AcDbLine
 62
7
  6
CONTINUOUS
 10
73.6633015093
 20
178.1423576419
 11
72.1559586623
 21
178.1423576419
  0
LINE
  5
31B
100
AcDbEntity
  8
0
100
AcDbLine
 62
7
  6
CONTINUOUS
 10
114.6559585287
 20
178.8937633258
 11
114.1559584936
 21
178.8937633258
  0
LINE
  5
31C
100
AcDbEntity
  8
0
100
AcDbLine
 62
7
  6
CONTINUOUS
 10
112.6523475947
 20
178.8937633258
 11
73.6711930948
 21
178.8937633258
  0
LINE
  5
31D
100
AcDbEntity
  8
0
100
AcDbLine
 62
7
  6
CONTINUOUS
 10
72.1559586498
 20
178.8937633258
 11
69.6559585287
 21
178.8937633258
  0
LINE
  5
31E
100
AcDbEntity
  8
0
100
AcDbLine
 62
7
  6
CONTINUOUS
 10
91.2787852838
 20
52.1989183557
 11
92.7151403419
 21
53.6352729481
  0
LINE
  5
31F
100
AcDbEntity
  8
0
100
AcDbLine
 62
7
  6
CONTINUOUS
 10
91.3029065384
 20
55.0491845292
 11
89.8647703259
 21
53.6129882616
  0
LINE
  5
320
100
AcDbEntity
  8
0
100
AcDbLine
 62
7
  6
CONTINUOUS
 10
83.8147060974
 20
47.5609989893
 11
82.3910696461
 21
46.1393015516
  0
LINE
  5
321
100
AcDbEntity
  8
0
100
AcDbLine
 62
7
  6
CONTINUOUS
 10
83.8032638683
 20
44.7249950898
 11
85.2270735457
 21
46.1468638909
  0
LINE
  5
322
100
AcDbEntity
  8
0
100
AcDbLine
 62
7
  6
CONTINUOUS
 10
87.3703038349
 20
51.1165818256
 11
86.2986579566
 21
50.0468758923
  0
LINE
  5
323
100
AcDbEntity
  8
0
100
AcDbLine
 62
7
  6
CONTINUOUS
 10
87.7111194684
 20
48.6323086601
 11
88.7829935207
 21
49.7022418362
  0
LINE
  5
324
100
AcDbEntity
  8
0
100
AcDbLine
 62
7
  6
CONTINUOUS
 10
111.1559585287
 20
187.2407323481
 11
75.1559585287
 21
187.2407323481
  0
LINE
  5
325
100
AcDbEntity
  8
0
100
AcDbLine
 62
7
  6
CONTINUOUS
 10
111.1559689614
 20
188.2943216128
 11
75.1559585287
 21
188.2943259341
  0
LINE
  5
326
100
AcDbEntity
  8
0
100
AcDbLine
 62
7
  6
CONTINUOUS
 10
108.5059585287
 20
189.7237999179
 11
110.8059585287
 21
189.7237996418
  0
LINE
  5
327
100
AcDbEntity
  8
0
100
AcDbLine
 62
7
  6
CONTINUOUS
 10
110.8059585287
 20
190.0844297058
 11
108.5059585287
 21
190.0844297058
  0
LINE
  5
328
100
AcDbEntity
  8
0
100
AcDbLine
 62
7
  6
CONTINUOUS
 10
75.1559585287
 20
191.1229677541
 11
85.9544323428
 21
191.1229664579
  0
LINE
  5
329
100
AcDbEntity
  8
0
100
AcDbLine
 62
7
  6
CONTINUOUS
 10
96.4837262915
 20
191.122965194
 11
97.6103134279
 21
191.1229650588
  0
LINE
  5
32A
100
AcDbEntity
  8
0
100
AcDbLine
 62
7
  6
CONTINUOUS
 10
72.6559581264
 20
191.1229589508
 11
74.6559584542
 21
191.1229664014
  0
LINE
  5
32B
100
AcDbEntity
  8
0
100
AcDbLine
 62
7
  6
CONTINUOUS
 10
85.9501871628
 20
191.8300700533
 11
72.6559581264
 21
191.8300712035
  0
LINE
  5
32C
100
AcDbEntity
  8
0
100
AcDbLine
 62
7
  6
CONTINUOUS
 10
129.6559585287
 20
192.489959119
 11
114.6559585287
 21
192.489959119
  0
LINE
  5
32D
100
AcDbEntity
  8
0
100
AcDbLine
 62
7
  6
CONTINUOUS
 10
129.6559585287
 20
193.3899594527
 11
114.6559585287
 21
193.3899594527
  0
LINE
  5
32E
100
AcDbEntity
  8
0
100
AcDbLine
 62
7
  6
CONTINUOUS
 10
108.5059585287
 20
194.0643226129
 11
110.8059585287
 21
194.0643226129
  0
LINE
  5
32F
100
AcDbEntity
  8
0
100
AcDbLine
 62
7
  6
CONTINUOUS
 10
110.8059585287
 20
195.1249888649
 11
108.5059585287
 21
195.1249888649
  0
LINE
  5
330
100
AcDbEntity
  8
0
100
AcDbLine
 62
7
  6
CONTINUOUS
 10
71.1504634271
 20
195.5399637681
 11
72.1559585287
 21
195.5399637681
  0
LINE
  5
331
100
AcDbEntity
  8
0
100
AcDbLine
 62
7
  6
CONTINUOUS
 10
72.1559585287
 20
196.3999637681
 11
71.1359585287
 21
196.3999637681
  0
LINE
  5
332
100
AcDbEntity
  8
0
100
AcDbLine
 62
7
  6
CONTINUOUS
 10
114.6559585287
 20
199.4899637681
 11
129.6559585287
 21
199.4899637681
  0
LINE
  5
333
100
AcDbEntity
  8
0
100
AcDbLine
 62
7
  6
CONTINUOUS
 10
85.9501871628
 20
200.3153514275
 11
83.9668888132
 21
200.3153515991
  0
LINE
  5
334
100
AcDbEntity
  8
0
100
AcDbLine
 62
7
  6
CONTINUOUS
 10
78.3588617732
 20
200.3153520843
 11
72.6559581264
 21
200.3153525778
  0
LINE
  5
335
100
AcDbEntity
  8
0
100
AcDbLine
 62
7
  6
CONTINUOUS
 10
108.5059585287
 20
200.4282956344
 11
110.8059585287
 21
200.4282956344
  0
LINE
  5
336
100
AcDbEntity
  8
0
100
AcDbLine
 62
7
  6
CONTINUOUS
 10
69.6559585287
 20
200.8660321456
 11
71.1456365138
 21
200.8660321456
  0
LINE
  5
337
100
AcDbEntity
  8
0
100
AcDbLine
 62
7
  6
CONTINUOUS
 10
113.9776831141
 20
200.8660321456
 11
114.6559585287
 21
200.8660321456
  0
LINE
  5
338
100
AcDbEntity
  8
0
100
AcDbLine
 62
7
  6
CONTINUOUS
 10
110.8059585287
 20
200.8676265699
 11
108.5059585287
 21
200.8676265699
  0
LINE
  5
339
100
AcDbEntity
  8
0
100
AcDbLine
 62
7
  6
CONTINUOUS
 10
129.6559585287
 20
200.9166932012
 11
114.6559585287
 21
200.9166932012
  0
LINE
  5
33A
100
AcDbEntity
  8
0
100
AcDbLine
 62
7
  6
CONTINUOUS
 10
110.8059585287
 20
201.0069994881
 11
108.5059585287
 21
201.0069997642
  0
LINE
  5
33B
100
AcDbEntity
  8
0
100
AcDbLine
 62
7
  6
CONTINUOUS
 10
71.1359585287
 20
201.9399637681
 11
73.3561101229
 21
201.9399637681
  0
LINE
  5
33C
100
AcDbEntity
  8
0
100
AcDbLine
 62
7
  6
CONTINUOUS
 10
75.1559585287
 20
202.4364592296
 11
111.1559689614
 21
202.4364549083
  0
LINE
  5
33D
100
AcDbEntity
  8
0
100
AcDbLine
 62
7
  6
CONTINUOUS
 10
101.6314440775
 20
202.8199637681
 11
88.9459585287
 21
202.8199637681
  0
LINE
  5
33E
100
AcDbEntity
  8
0
100
AcDbLine
 62
7
  6
CONTINUOUS
 10
87.7459425172
 20
202.8199637681
 11
71.1359585287
 21
202.8199637681
  0
LINE
  5
33F
100
AcDbEntity
  8
0
100
AcDbLine
 62
7
  6
CONTINUOUS
 10
114.6559585287
 20
202.8399740678
 11
113.2025256239
 21
202.8399740678
  0
LINE
  5
340
100
AcDbEntity
  8
0
100
AcDbLine
 62
7
  6
CONTINUOUS
 10
69.6559585287
 20
202.8399740678
 11
113.1881652429
 21
202.8399740678
  0
LINE
  5
341
100
AcDbEntity
  8
0
100
AcDbLine
 62
7
  6
CONTINUOUS
 10
129.6559585287
 20
202.9899580461
 11
69.6559598698
 21
202.9899580461
  0
LINE
  5
342
100
AcDbEntity
  8
0
100
AcDbLine
 62
7
  6
CONTINUOUS
 10
84.6559595345
 20
207.9899681789
 11
70.1559662546
 21
207.9899681789
  0
LINE
  5
343
100
AcDbEntity
  8
0
100
AcDbLine
 62
7
  6
CONTINUOUS
 10
88.1211879054
 20
236.4899637681
 11
94.8831682083
 21
236.4899637681
  0
LINE
  5
344
100
AcDbEntity
  8
0
100
AcDbLine
 62
7
  6
CONTINUOUS
 10
111.6559585287
 20
241.6899637681
 11
114.4559585287
 21
241.6899637681
  0
LINE
  5
345
100
AcDbEntity
  8
0
100
AcDbLine
 62
7
  6
CONTINUOUS
 10
106.8062402112
 20
242.1899637681
 11
111.6472309963
 21
242.1899637681
  0
LINE
  5
346
100
AcDbEntity
  8
0
100
AcDbLine
 62
7
  6
CONTINUOUS
 10
129.6559585287
 20
247.6241959315
 11
114.7669584582
 21
247.6241959315
  0
LINE
  5
347
100
AcDbEntity
  8
0
100
AcDbLine
 62
7
  6
CONTINUOUS
 10
88.4905880812
 20
247.6241959315
 11
84.6559595345
 21
247.6241959315
  0
LINE
  5
348
100
AcDbEntity
  8
0
100
AcDbLine
 62
7
  6
CONTINUOUS
 10
129.6559585287
 20
247.8899581414
 11
114.7808864654
 21
247.8899581414
  0
LINE
  5
349
100
AcDbEntity
  8
0
100
AcDbLine
 62
7
  6
CONTINUOUS
 10
88.7563502911
 20
247.8899581414
 11
84.6559595345
 21
247.8899581414
  0
ARC
  5
34A
100
AcDbEntity
  8
0
100
AcDbCircle
 62
7
  6
CONTINUOUS
 10
86.304903191
 20
81.1099006315
 40
1.1814309582
100
AcDbArc
 50
92.7573265952
 51
122.0288927559
  0
ARC
  5
34B
100
AcDbEntity
  8
0
100
AcDbCircle
 62
7
  6
CONTINUOUS
 10
84.5635923087
 20
43.9893456902
 40
1.057960007
100
AcDbArc
 50
135.9451186982
 51
226.5990567572
  0
ARC
  5
34C
100
AcDbEntity
  8
0
100
AcDbCircle
 62
7
  6
CONTINUOUS
 10
90.5349057963
 20
55.7598278601
 40
1.0463455852
100
AcDbArc
 50
317.221420833
 51
32.468903785
  0
ARC
  5
34D
100
AcDbEntity
  8
0
100
AcDbCircle
 62
7
  6
CONTINUOUS
 10
85.9372030896
 20
45.3787406545
 40
1.0460866482
100
AcDbArc
 50
52.7356013798
 51
132.7533675294
  0
ARC
  5
34E
100
AcDbEntity
  8
0
100
AcDbCircle
 62
7
  6
CONTINUOUS
 10
83.0618321809
 20
48.2682316031
 40
1.032955519
100
AcDbArc
 50
316.7904192109
 51
38.0333110875
  0
ARC
  5
34F
100
AcDbEntity
  8
0
100
AcDbCircle
 62
7
  6
CONTINUOUS
 10
86.6365485678
 20
51.8233253017
 40
1.0187654946
100
AcDbArc
 50
316.0742669998
 51
37.1264114377
  0
ARC
  5
350
100
AcDbEntity
  8
0
100
AcDbCircle
 62
7
  6
CONTINUOUS
 10
88.8617026557
 20
80.5980728636
 40
1.0137278075
100
AcDbArc
 50
300.8536152698
 51
23.9772160739
  0
ARC
  5
351
100
AcDbEntity
  8
0
100
AcDbCircle
 62
7
  6
CONTINUOUS
 10
90.3453748935
 20
77.3814347368
 40
1.0116579357
100
AcDbArc
 50
25.5684037073
 51
120.3061296269
  0
ARC
  5
352
100
AcDbEntity
  8
0
100
AcDbCircle
 62
7
  6
CONTINUOUS
 10
81.6856691089
 20
46.8627270754
 40
1.010412988
100
AcDbArc
 50
220.8442035686
 51
314.2772382095
  0
ARC
  5
353
100
AcDbEntity
  8
0
100
AcDbCircle
 62
7
  6
CONTINUOUS
 10
89.4895618877
 20
48.9890185451
 40
1.0039553378
100
AcDbArc
 50
52.2277062906
 51
134.7314420945
  0
ARC
  5
354
100
AcDbEntity
  8
0
100
AcDbCircle
 62
7
  6
CONTINUOUS
 10
88.5539025408
 20
81.288679999
 40
1.0026630448
100
AcDbArc
 50
24.810883676
 51
89.7660711306
  0
ARC
  5
355
100
AcDbEntity
  8
0
100
AcDbCircle
 62
7
  6
CONTINUOUS
 10
89.1571366149
 20
54.3113634867
 40
0.9942200078
100
AcDbArc
 50
215.9462159267
 51
315.3772838746
  0
ARC
  5
356
100
AcDbEntity
  8
0
100
AcDbCircle
 62
7
  6
CONTINUOUS
 10
88.4097627967
 20
47.926662734
 40
0.9929948002
100
AcDbArc
 50
134.7142924947
 51
231.819773111
  0
ARC
  5
357
100
AcDbEntity
  8
0
100
AcDbCircle
 62
7
  6
CONTINUOUS
 10
85.5900609027
 20
50.7246862476
 40
0.9805797585
100
AcDbArc
 50
217.5165787045
 51
316.2721066179
  0
ARC
  5
358
100
AcDbEntity
  8
0
100
AcDbCircle
 62
7
  6
CONTINUOUS
 10
93.4240841412
 20
52.8985087975
 40
1.0224591553
100
AcDbArc
 50
56.5709480769
 51
133.8975698718
  0
ARC
  5
359
100
AcDbEntity
  8
0
100
AcDbCircle
 62
7
  6
CONTINUOUS
 10
91.9587383462
 20
51.4907566667
 40
0.9817480048
100
AcDbArc
 50
133.8358218773
 51
235.0059752558
  0
ARC
  5
35A
100
AcDbEntity
  8
0
100
AcDbCircle
 62
7
  6
CONTINUOUS
 10
92.9081523035
 20
84.4443281028
 40
1.0544151054
100
AcDbArc
 50
108.9589802521
 51
177.6987374947
  0
ARC
  5
35B
100
AcDbEntity
  8
0
100
AcDbCircle
 62
7
  6
CONTINUOUS
 10
92.8890091173
 20
82.432148044
 40
1.0341532795
100
AcDbArc
 50
182.6471853272
 51
285.7959418668
  0
ARC
  5
35C
100
AcDbEntity
  8
0
100
AcDbCircle
 62
7
  6
CONTINUOUS
 10
94.6261622587
 20
77.7285669367
 40
1.0229691529
100
AcDbArc
 50
206.0253342851
 51
286.6754759329
  0
ARC
  5
35D
100
AcDbEntity
  8
0
100
AcDbCircle
 62
7
  6
CONTINUOUS
 10
90.9697334998
 20
76.0304357696
 40
1.0115915538
100
AcDbArc
 50
302.3505042705
 51
24.1030807344
  0
ARC
  5
35E
100
AcDbEntity
  8
0
100
AcDbCircle
 62
7
  6
CONTINUOUS
 10
93.3033320724
 20
70.976693288
 40
1.0067262224
100
AcDbArc
 50
305.6762543086
 51
24.4475406059
  0
ARC
  5
35F
100
AcDbEntity
  8
0
100
AcDbCircle
 62
7
  6
CONTINUOUS
 10
92.4596169014
 20
72.809933898
 40
1.0054542235
100
AcDbArc
 50
25.2019941367
 51
123.1408018439
  0
ARC
  5
360
100
AcDbEntity
  8
0
100
AcDbCircle
 62
7
  6
CONTINUOUS
 10
93.9762535704
 20
79.0755800287
 40
0.9950817772
100
AcDbArc
 50
108.1466565034
 51
204.9788568838
  0
ARC
  5
361
100
AcDbEntity
  8
0
100
AcDbCircle
 62
7
  6
CONTINUOUS
 10
99.6559585287
 20
61.9899637681
 40
27.0
100
AcDbArc
 50
217.6698855927
 51
322.3301148106
  0
ARC
  5
362
100
AcDbEntity
  8
0
100
AcDbCircle
 62
7
  6
CONTINUOUS
 10
99.6559585287
 20
61.9899637681
 40
26.0
100
AcDbArc
 50
84.0226767896
 51
95.9773202389
  0
ARC
  5
363
100
AcDbEntity
  8
0
100
AcDbCircle
 62
7
  6
CONTINUOUS
 10
99.6207515648
 20
62.0863391003
 40
24.5977787701
100
AcDbArc
 50
230.082245069
 51
310.0431714835
  0
ARC
  5
364
100
AcDbEntity
  8
0
100
AcDbCircle
 62
7
  6
CONTINUOUS
 10
99.6517824008
 20
61.9905173831
 40
24.4971625939
100
AcDbArc
 50
124.7788806965
 51
220.128759112
  0
ARC
  5
365
100
AcDbEntity
  8
0
100
AcDbCircle
 62
7
  6
CONTINUOUS
 10
99.6601734357
 20
61.9905220388
 40
24.4971374149
100
AcDbArc
 50
319.8888811104
 51
55.2211852477
  0
ARC
  5
366
100
AcDbEntity
  8
0
100
AcDbCircle
 62
7
  6
CONTINUOUS
 10
99.6287225252
 20
62.1592513818
 40
24.3300850778
100
AcDbArc
 50
96.5142391261
 51
106.8762045154
  0
ARC
  5
367
100
AcDbEntity
  8
0
100
AcDbCircle
 62
7
  6
CONTINUOUS
 10
99.6579810413
 20
61.9886905223
 40
20.5007437793
100
AcDbArc
 50
120.0840060581
 51
219.6070595197
  0
ARC
  5
368
100
AcDbEntity
  8
0
100
AcDbCircle
 62
7
  6
CONTINUOUS
 10
99.6559591993
 20
61.9899621315
 40
20.5000015525
100
AcDbArc
 50
71.5568862874
 51
108.4431137126
  0
ARC
  5
369
100
AcDbEntity
  8
0
100
AcDbCircle
 62
7
  6
CONTINUOUS
 10
99.6559591993
 20
61.9900867379
 40
20.4987235764
100
AcDbArc
 50
230.3311190138
 51
309.6688809862
  0
ARC
  5
36A
100
AcDbEntity
  8
0
100
AcDbCircle
 62
7
  6
CONTINUOUS
 10
99.6597700447
 20
61.9906441245
 40
20.4961288983
100
AcDbArc
 50
320.3159297959
 51
59.9273620747
  0
ARC
  5
36B
100
AcDbEntity
  8
0
100
AcDbCircle
 62
7
  6
CONTINUOUS
 10
99.6581369497
 20
61.9749925518
 40
19.0148933645
100
AcDbArc
 50
71.6400659249
 51
108.3675144931
  0
ARC
  5
36C
100
AcDbEntity
  8
0
100
AcDbCircle
 62
7
  6
CONTINUOUS
 10
99.657779659
 20
61.9887120375
 40
19.0020121994
100
AcDbArc
 50
121.1272417156
 51
218.6240107555
  0
ARC
  5
36D
100
AcDbEntity
  8
0
100
AcDbCircle
 62
7
  6
CONTINUOUS
 10
99.6570576444
 20
61.9868291034
 40
18.998236894
100
AcDbArc
 50
231.3672321433
 51
308.6324719652
  0
ARC
  5
36E
100
AcDbEntity
  8
0
100
AcDbCircle
 62
7
  6
CONTINUOUS
 10
99.659922673
 20
61.9906716494
 40
18.9973451891
100
AcDbArc
 50
321.3653634206
 51
58.8846357557
  0
ARC
  5
36F
100
AcDbEntity
  8
0
100
AcDbCircle
 62
7
  6
CONTINUOUS
 10
99.6559591993
 20
61.9609935186
 40
15.5275871624
100
AcDbArc
 50
72.2405136096
 51
107.7594863904
  0
ARC
  5
370
100
AcDbEntity
  8
0
100
AcDbCircle
 62
7
  6
CONTINUOUS
 10
99.6566764137
 20
61.9920432209
 40
15.5020800314
100
AcDbArc
 50
231.9618418504
 51
308.0931713701
  0
ARC
  5
371
100
AcDbEntity
  8
0
100
AcDbCircle
 62
7
  6
CONTINUOUS
 10
99.6575748488
 20
61.9887400625
 40
15.5005187784
100
AcDbArc
 50
121.7063360022
 51
218.034910107
  0
ARC
  5
372
100
AcDbEntity
  8
0
100
AcDbCircle
 62
7
  6
CONTINUOUS
 10
99.6583596843
 20
61.9894577982
 40
15.497797718
100
AcDbArc
 50
321.9538535007
 51
58.3049011874
  0
ARC
  5
373
100
AcDbEntity
  8
0
100
AcDbCircle
 62
7
  6
CONTINUOUS
 10
99.6576049142
 20
61.9887065171
 40
14.0019578476
100
AcDbArc
 50
123.5955936489
 51
216.1560982778
  0
ARC
  5
374
100
AcDbEntity
  8
0
100
AcDbCircle
 62
7
  6
CONTINUOUS
 10
99.6559591993
 20
61.9899637681
 40
14.0
100
AcDbArc
 50
74.0928305624
 51
105.9071699396
  0
ARC
  5
375
100
AcDbEntity
  8
0
100
AcDbCircle
 62
7
  6
CONTINUOUS
 10
99.6577583098
 20
61.9912489733
 40
13.9993055361
100
AcDbArc
 50
323.8342414781
 51
56.4174495438
  0
ARC
  5
376
100
AcDbEntity
  8
0
100
AcDbCircle
 62
7
  6
CONTINUOUS
 10
99.6571211684
 20
61.9864043258
 40
13.9978120115
100
AcDbArc
 50
233.829315992
 51
306.1700639345
  0
ARC
  5
377
100
AcDbEntity
  8
0
100
AcDbCircle
 62
7
  6
CONTINUOUS
 10
99.6547485748
 20
61.9938554844
 40
10.00252031
100
AcDbArc
 50
235.4868087031
 51
304.5305620703
  0
ARC
  5
378
100
AcDbEntity
  8
0
100
AcDbCircle
 62
7
  6
CONTINUOUS
 10
99.6559565643
 20
61.9899638936
 40
10.0000025719
100
AcDbArc
 50
325.4697513762
 51
54.7802512441
  0
ARC
  5
379
100
AcDbEntity
  8
0
100
AcDbCircle
 62
7
  6
CONTINUOUS
 10
99.6559591993
 20
61.9899598822
 40
9.9986323601
100
AcDbArc
 50
75.7138014418
 51
104.2861986015
  0
ARC
  5
37A
100
AcDbEntity
  8
0
100
AcDbCircle
 62
7
  6
CONTINUOUS
 10
99.6534500185
 20
61.9894211435
 40
9.9976253347
100
AcDbArc
 50
125.200254259
 51
214.5358476991
  0
ARC
  5
37B
100
AcDbEntity
  8
0
100
AcDbCircle
 62
7
  6
CONTINUOUS
 10
96.9605294791
 20
72.6829456176
 40
1.0291577109
100
AcDbArc
 50
206.0702207849
 51
282.8058787546
  0
ARC
  5
37C
100
AcDbEntity
  8
0
100
AcDbCircle
 62
7
  6
CONTINUOUS
 10
96.1245703178
 20
74.4777153169
 40
1.022902846
100
AcDbArc
 50
107.3903379538
 51
203.1075465204
  0
ARC
  5
37D
100
AcDbEntity
  8
0
100
AcDbCircle
 62
7
  6
CONTINUOUS
 10
94.1559836024
 20
157.002448229
 40
5.2731603898
100
AcDbArc
 50
83.0412477979
 51
96.9142674824
  0
ARC
  5
37E
100
AcDbEntity
  8
0
100
AcDbCircle
 62
7
  6
CONTINUOUS
 10
94.1559585287
 20
157.3060280344
 40
4.9190628979
100
AcDbArc
 50
82.739118388
 51
97.260881612
  0
ARC
  5
37F
100
AcDbEntity
  8
0
100
AcDbCircle
 62
7
  6
CONTINUOUS
 10
94.1559585287
 20
157.6001602503
 40
4.5429550677
100
AcDbArc
 50
82.4106221668
 51
97.5893778332
  0
ARC
  5
380
100
AcDbEntity
  8
0
100
AcDbCircle
 62
7
  6
CONTINUOUS
 10
95.7129002548
 20
159.185571047
 40
2.4436990218
100
AcDbArc
 50
357.0036891443
 51
359.4365254751
  0
ARC
  5
381
100
AcDbEntity
  8
0
100
AcDbCircle
 62
7
  6
CONTINUOUS
 10
92.5980513938
 20
159.1855828354
 40
2.44273369
100
AcDbArc
 50
180.5639314895
 51
183.0039685232
  0
ARC
  5
382
100
AcDbEntity
  8
0
100
AcDbCircle
 62
7
  6
CONTINUOUS
 10
95.719344158
 20
159.1854666105
 40
2.4372544035
100
AcDbArc
 50
359.437490727
 51
359.9999565504
  0
ARC
  5
383
100
AcDbEntity
  8
0
100
AcDbCircle
 62
7
  6
CONTINUOUS
 10
92.5908484382
 20
159.1854668612
 40
2.4355299423
100
AcDbArc
 50
180.0000493783
 51
180.5628711031
  0
ARC
  5
384
100
AcDbEntity
  8
0
100
AcDbCircle
 62
7
  6
CONTINUOUS
 10
95.9876937576
 20
159.1996632455
 40
2.1730265993
100
AcDbArc
 50
338.9149154442
 51
342.1117017105
  0
ARC
  5
385
100
AcDbEntity
  8
0
100
AcDbCircle
 62
7
  6
CONTINUOUS
 10
92.3241773284
 20
159.199647427
 40
2.1729779914
100
AcDbArc
 50
197.8882736871
 51
201.080685998
  0
ARC
  5
386
100
AcDbEntity
  8
0
100
AcDbCircle
 62
7
  6
CONTINUOUS
 10
92.170120288
 20
157.7400257718
 40
2.0141090954
100
AcDbArc
 50
171.9988589208
 51
179.9878948376
  0
ARC
  5
387
100
AcDbEntity
  8
0
100
AcDbCircle
 62
7
  6
CONTINUOUS
 10
80.0782316116
 20
278.4557290498
 40
27.0182348118
100
AcDbArc
 50
283.8293440257
 51
284.75849519
  0
ARC
  5
388
100
AcDbEntity
  8
0
100
AcDbCircle
 62
7
  6
CONTINUOUS
 10
91.5135004282
 20
233.5734825529
 40
19.3
100
AcDbArc
 50
95.6105046093
 51
103.6435494434
  0
ARC
  5
389
100
AcDbEntity
  8
0
100
AcDbCircle
 62
7
  6
CONTINUOUS
 10
95.4718370239
 20
218.1646315084
 40
5.6996975033
100
AcDbArc
 50
183.7690369118
 51
234.5698021939
  0
ARC
  5
38A
100
AcDbEntity
  8
0
100
AcDbCircle
 62
7
  6
CONTINUOUS
 10
95.4718370239
 20
217.4152960278
 40
5.6996975033
100
AcDbArc
 50
125.4301978061
 51
176.2309630882
  0
ARC
  5
38B
100
AcDbEntity
  8
0
100
AcDbCircle
 62
7
  6
CONTINUOUS
 10
81.1559836024
 20
196.0418136183
 40
5.2731603898
100
AcDbArc
 50
83.0412477979
 51
96.9142674824
  0
ARC
  5
38C
100
AcDbEntity
  8
0
100
AcDbCircle
 62
7
  6
CONTINUOUS
 10
92.5909879019
 20
187.8427706457
 40
5.0904900004
100
AcDbArc
 50
40.1189792632
 51
45.5473346934
  0
ARC
  5
38D
100
AcDbEntity
  8
0
100
AcDbCircle
 62
7
  6
CONTINUOUS
 10
81.1559585287
 20
196.3453934237
 40
4.9190628979
100
AcDbArc
 50
82.739118388
 51
97.260881612
  0
ARC
  5
38E
100
AcDbEntity
  8
0
100
AcDbCircle
 62
7
  6
CONTINUOUS
 10
81.1559585287
 20
196.6395256396
 40
4.5429550677
100
AcDbArc
 50
82.4106221668
 51
97.5893778332
  0
ARC
  5
38F
100
AcDbEntity
  8
0
100
AcDbCircle
 62
7
  6
CONTINUOUS
 10
81.1559585287
 20
201.162754719
 40
4.5429550677
100
AcDbArc
 50
262.4106221668
 51
277.5893778332
  0
ARC
  5
390
100
AcDbEntity
  8
0
100
AcDbCircle
 62
7
  6
CONTINUOUS
 10
94.1559585287
 20
162.1233893297
 40
4.5429550677
100
AcDbArc
 50
262.4106221668
 51
277.5893778332
  0
ARC
  5
391
100
AcDbEntity
  8
0
100
AcDbCircle
 62
7
  6
CONTINUOUS
 10
75.1553021643
 20
186.9062231839
 40
4.2167446213
100
AcDbArc
 50
89.9910815295
 51
96.8008814324
  0
ARC
  5
392
100
AcDbEntity
  8
0
100
AcDbCircle
 62
7
  6
CONTINUOUS
 10
76.9159588992
 20
174.2584221543
 40
2.7482137182
100
AcDbArc
 50
0.4499966603
 51
179.5500033397
  0
ARC
  5
393
100
AcDbEntity
  8
0
100
AcDbCircle
 62
7
  6
CONTINUOUS
 10
99.7759585763
 20
174.287519826
 40
2.7481394623
100
AcDbArc
 50
359.8433485484
 51
180.1566514516
  0
ARC
  5
394
100
AcDbEntity
  8
0
100
AcDbCircle
 62
7
  6
CONTINUOUS
 10
92.1559585287
 20
174.2740935081
 40
2.7481355515
100
AcDbArc
 50
0.1232734364
 51
179.8767265636
  0
ARC
  5
395
100
AcDbEntity
  8
0
100
AcDbCircle
 62
7
  6
CONTINUOUS
 10
84.5359584811
 20
174.2808391495
 40
2.7481293171
100
AcDbArc
 50
359.9826336663
 51
180.0173663337
  0
ARC
  5
396
100
AcDbEntity
  8
0
100
AcDbCircle
 62
7
  6
CONTINUOUS
 10
82.7129002547
 20
198.2249364363
 40
2.4436990219
100
AcDbArc
 50
357.0036891443
 51
359.4365254751
  0
ARC
  5
397
100
AcDbEntity
  8
0
100
AcDbCircle
 62
7
  6
CONTINUOUS
 10
79.5980513938
 20
198.2249482247
 40
2.44273369
100
AcDbArc
 50
180.5639314895
 51
183.0039685233
  0
ARC
  5
398
100
AcDbEntity
  8
0
100
AcDbCircle
 62
7
  6
CONTINUOUS
 10
82.7193441573
 20
198.2248319998
 40
2.4372544042
100
AcDbArc
 50
359.4374907271
 51
359.9999565504
  0
ARC
  5
399
100
AcDbEntity
  8
0
100
AcDbCircle
 62
7
  6
CONTINUOUS
 10
79.5908484389
 20
198.2248322505
 40
2.4355299429
100
AcDbArc
 50
180.0000493785
 51
180.562871103
  0
ARC
  5
39A
100
AcDbEntity
  8
0
100
AcDbCircle
 62
7
  6
CONTINUOUS
 10
82.9876937576
 20
198.2390286348
 40
2.1730265993
100
AcDbArc
 50
338.9149154442
 51
342.1117017105
  0
ARC
  5
39B
100
AcDbEntity
  8
0
100
AcDbCircle
 62
7
  6
CONTINUOUS
 10
79.3242232999
 20
198.2390286348
 40
2.1730265993
100
AcDbArc
 50
197.8882982895
 51
201.0850845558
  0
ARC
  5
39C
100
AcDbEntity
  8
0
100
AcDbCircle
 62
7
  6
CONTINUOUS
 10
79.170120288
 20
196.7793911611
 40
2.0141090954
100
AcDbArc
 50
171.9988589208
 51
179.9878948376
  0
ARC
  5
39D
100
AcDbEntity
  8
0
100
AcDbCircle
 62
7
  6
CONTINUOUS
 10
84.5359587139
 20
174.3419954807
 40
1.7518901817
100
AcDbArc
 50
359.9337061903
 51
180.0662938096
  0
ARC
  5
39E
100
AcDbEntity
  8
0
100
AcDbCircle
 62
7
  6
CONTINUOUS
 10
76.9159585287
 20
174.3405005336
 40
1.7518890929
100
AcDbArc
 50
359.9825405897
 51
180.0174568385
  0
ARC
  5
39F
100
AcDbEntity
  8
0
100
AcDbCircle
 62
7
  6
CONTINUOUS
 10
94.8952352446
 20
235.015914911
 40
1.4740982486
100
AcDbArc
 50
39.6550034571
 51
89.9869848262
  0
ARC
  5
3A0
100
AcDbEntity
  8
0
100
AcDbCircle
 62
7
  6
CONTINUOUS
 10
85.5938392268
 20
250.7261112297
 40
0.937894029
100
AcDbArc
 50
110.0510603173
 51
180.3168000665
  0
ARC
  5
3A1
100
AcDbEntity
  8
0
100
AcDbCircle
 62
7
  6
CONTINUOUS
 10
70.1559662548
 20
207.489961794
 40
0.5000063849
100
AcDbArc
 50
90.0000000222
 51
179.9999999982
  0
ARC
  5
3A2
100
AcDbEntity
  8
0
100
AcDbCircle
 62
7
  6
CONTINUOUS
 10
107.3314739783
 20
51.5016058801
 40
1.0045081298
100
AcDbArc
 50
305.753361787
 51
44.7333733279
  0
ARC
  5
3A3
100
AcDbEntity
  8
0
100
AcDbCircle
 62
7
  6
CONTINUOUS
 10
105.8930099885
 20
52.9550221025
 40
0.9801432829
100
AcDbArc
 50
44.0945916145
 51
125.4428043294
  0
ARC
  5
3A4
100
AcDbEntity
  8
0
100
AcDbCircle
 62
7
  6
CONTINUOUS
 10
107.1559585287
 20
74.3399637682
 40
179.2999999999
100
AcDbArc
 50
87.4434088785
 51
95.6105046093
  0
ARC
  5
3A5
100
AcDbEntity
  8
0
100
AcDbCircle
 62
7
  6
CONTINUOUS
 10
107.1597343594
 20
74.2661046827
 40
179.0739039634
100
AcDbArc
 50
89.2800405556
 51
90.6294372128
  0
ARC
  5
3A6
100
AcDbEntity
  8
0
100
AcDbCircle
 62
7
  6
CONTINUOUS
 10
107.0397790304
 20
79.579831327
 40
171.920358549
100
AcDbArc
 50
87.4142127888
 51
95.1261202856
  0
ARC
  5
3A7
100
AcDbEntity
  8
0
100
AcDbCircle
 62
7
  6
CONTINUOUS
 10
106.0346051523
 20
70.9847977852
 40
1.0272183778
100
AcDbArc
 50
156.5646525471
 51
233.4656562822
  0
ARC
  5
3A8
100
AcDbEntity
  8
0
100
AcDbCircle
 62
7
  6
CONTINUOUS
 10
104.6875515314
 20
77.7244671246
 40
1.0195610591
100
AcDbArc
 50
253.1617601712
 51
334.1374296108
  0
ARC
  5
3A9
100
AcDbEntity
  8
0
100
AcDbCircle
 62
7
  6
CONTINUOUS
 10
106.4376999371
 20
84.4725542354
 40
1.0183432096
100
AcDbArc
 50
0.7366205146
 51
72.2740573474
  0
ARC
  5
3AA
100
AcDbEntity
  8
0
100
AcDbCircle
 62
7
  6
CONTINUOUS
 10
106.4399114241
 20
82.4085552813
 40
1.016335011
100
AcDbArc
 50
252.9195990275
 51
358.6372737783
  0
ARC
  5
3AB
100
AcDbEntity
  8
0
100
AcDbCircle
 62
7
  6
CONTINUOUS
 10
103.2161848412
 20
74.4910098909
 40
1.0018739369
100
AcDbArc
 50
335.5458137575
 51
73.9563087974
  0
ARC
  5
3AC
100
AcDbEntity
  8
0
100
AcDbCircle
 62
7
  6
CONTINUOUS
 10
102.3685208607
 20
72.6496196963
 40
1.0007480361
100
AcDbArc
 50
255.814623417
 51
335.1490512649
  0
ARC
  5
3AD
100
AcDbEntity
  8
0
100
AcDbCircle
 62
7
  6
CONTINUOUS
 10
106.8495223224
 20
72.8197348293
 40
1.0001696724
100
AcDbArc
 50
56.5170903061
 51
155.1470207702
  0
ARC
  5
3AE
100
AcDbEntity
  8
0
100
AcDbCircle
 62
7
  6
CONTINUOUS
 10
108.3277277738
 20
76.0249968752
 40
0.9993041633
100
AcDbArc
 50
155.2049915526
 51
238.1828917906
  0
ARC
  5
3AF
100
AcDbEntity
  8
0
100
AcDbCircle
 62
7
  6
CONTINUOUS
 10
105.3501892104
 20
79.0828482744
 40
0.9850673669
100
AcDbArc
 50
334.2811669279
 51
72.430059649
  0
ARC
  5
3B0
100
AcDbEntity
  8
0
100
AcDbCircle
 62
7
  6
CONTINUOUS
 10
108.7987715752
 20
55.7617905012
 40
1.0637328983
100
AcDbArc
 50
148.2494668707
 51
222.0601672666
  0
ARC
  5
3B1
100
AcDbEntity
  8
0
100
AcDbCircle
 62
7
  6
CONTINUOUS
 10
112.6914191421
 20
51.8242789619
 40
1.0310393507
100
AcDbArc
 50
143.4541370542
 51
223.3451766682
  0
ARC
  5
3B2
100
AcDbEntity
  8
0
100
AcDbCircle
 62
7
  6
CONTINUOUS
 10
113.3769787956
 20
45.4035912853
 40
1.0278179052
100
AcDbArc
 50
46.4654450602
 51
128.2036505238
  0
ARC
  5
3B3
100
AcDbEntity
  8
0
100
AcDbCircle
 62
7
  6
CONTINUOUS
 10
109.8233881534
 20
48.9965330956
 40
0.9979012456
100
AcDbArc
 50
45.0069837584
 51
127.1636786587
  0
ARC
  5
3B4
100
AcDbEntity
  8
0
100
AcDbCircle
 62
7
  6
CONTINUOUS
 10
110.9030448433
 20
47.9257039316
 40
0.9930513622
100
AcDbArc
 50
308.2680681808
 51
45.3610884158
  0
ARC
  5
3B5
100
AcDbEntity
  8
0
100
AcDbCircle
 62
7
  6
CONTINUOUS
 10
110.1565809223
 20
54.2765186584
 40
0.9713733754
100
AcDbArc
 50
223.0851737717
 51
325.7576805836
  0
ARC
  5
3B6
100
AcDbEntity
  8
0
100
AcDbCircle
 62
7
  6
CONTINUOUS
 10
114.8467317456
 20
44.0169752305
 40
0.9692439806
100
AcDbArc
 50
308.1978965791
 51
46.9272132967
  0
ARC
  5
3B7
100
AcDbEntity
  8
0
100
AcDbCircle
 62
7
  6
CONTINUOUS
 10
113.7219152375
 20
50.7077977583
 40
0.9690249389
100
AcDbArc
 50
223.003916869
 51
323.3706482778
  0
ARC
  5
3B8
100
AcDbEntity
  8
0
100
AcDbCircle
 62
7
  6
CONTINUOUS
 10
113.0278889692
 20
81.1765369475
 40
1.1140073751
100
AcDbArc
 50
57.0636065443
 51
88.1501798652
  0
ARC
  5
3B9
100
AcDbEntity
  8
0
100
AcDbCircle
 62
7
  6
CONTINUOUS
 10
110.4508767155
 20
80.5971854377
 40
1.0133065507
100
AcDbArc
 50
155.9224234639
 51
239.0886255745
  0
ARC
  5
3BA
100
AcDbEntity
  8
0
100
AcDbCircle
 62
7
  6
CONTINUOUS
 10
110.759382241
 20
81.2841743062
 40
1.0071751808
100
AcDbArc
 50
90.3106120104
 51
154.9392271019
  0
ARC
  5
3BB
100
AcDbEntity
  8
0
100
AcDbCircle
 62
7
  6
CONTINUOUS
 10
108.9592656057
 20
77.4020175838
 40
0.9976997534
100
AcDbArc
 50
58.7365129179
 51
155.2305736006
  0
ARC
  5
3BC
100
AcDbEntity
  8
0
100
AcDbCircle
 62
7
  6
CONTINUOUS
 10
107.1912259406
 20
114.1311033065
 40
139.212448319
100
AcDbArc
 50
90.8226403782
 51
99.0588954084
  0
ARC
  5
3BD
100
AcDbEntity
  8
0
100
AcDbCircle
 62
7
  6
CONTINUOUS
 10
107.1912259406
 20
114.1311033065
 40
139.212448319
100
AcDbArc
 50
80.9982878686
 51
89.0868373901
  0
ARC
  5
3BE
100
AcDbEntity
  8
0
100
AcDbCircle
 62
7
  6
CONTINUOUS
 10
107.1559836024
 20
157.3560016196
 40
5.2731603898
100
AcDbArc
 50
83.0412477979
 51
96.9142674824
  0
ARC
  5
3BF
100
AcDbEntity
  8
0
100
AcDbCircle
 62
7
  6
CONTINUOUS
 10
108.8393836024
 20
146.3958465112
 40
5.2731603898
100
AcDbArc
 50
83.0412477979
 51
96.9142674824
  0
ARC
  5
3C0
100
AcDbEntity
  8
0
100
AcDbCircle
 62
7
  6
CONTINUOUS
 10
107.1559585287
 20
157.659581425
 40
4.9190628979
100
AcDbArc
 50
82.739118388
 51
97.260881612
  0
ARC
  5
3C1
100
AcDbEntity
  8
0
100
AcDbCircle
 62
7
  6
CONTINUOUS
 10
108.8393585287
 20
146.6994263166
 40
4.9190628978
100
AcDbArc
 50
82.739118388
 51
97.260881612
  0
ARC
  5
3C2
100
AcDbEntity
  8
0
100
AcDbCircle
 62
7
  6
CONTINUOUS
 10
107.1559585287
 20
157.9537136409
 40
4.5429550677
100
AcDbArc
 50
82.4106221668
 51
97.5893778332
  0
ARC
  5
3C3
100
AcDbEntity
  8
0
100
AcDbCircle
 62
7
  6
CONTINUOUS
 10
108.8393585287
 20
151.5167876119
 40
4.5429550677
100
AcDbArc
 50
262.4106221668
 51
277.5893778332
  0
ARC
  5
3C4
100
AcDbEntity
  8
0
100
AcDbCircle
 62
7
  6
CONTINUOUS
 10
108.8393585287
 20
146.9935585325
 40
4.5429550677
100
AcDbArc
 50
82.4106221668
 51
97.5893778332
  0
ARC
  5
3C5
100
AcDbEntity
  8
0
100
AcDbCircle
 62
7
  6
CONTINUOUS
 10
111.0005888873
 20
143.6700911013
 40
4.358750254
100
AcDbArc
 50
277.4980877831
 51
278.1791849239
  0
ARC
  5
3C6
100
AcDbEntity
  8
0
100
AcDbCircle
 62
7
  6
CONTINUOUS
 10
108.7129002547
 20
159.5391244376
 40
2.4436990219
100
AcDbArc
 50
357.0036891443
 51
359.4365254751
  0
ARC
  5
3C7
100
AcDbEntity
  8
0
100
AcDbCircle
 62
7
  6
CONTINUOUS
 10
110.3963002547
 20
148.5789693292
 40
2.4436990219
100
AcDbArc
 50
357.0036891443
 51
359.4365254751
  0
ARC
  5
3C8
100
AcDbEntity
  8
0
100
AcDbCircle
 62
7
  6
CONTINUOUS
 10
105.5980513937
 20
159.539136226
 40
2.4427336899
100
AcDbArc
 50
180.5639314895
 51
183.0039685233
  0
ARC
  5
3C9
100
AcDbEntity
  8
0
100
AcDbCircle
 62
7
  6
CONTINUOUS
 10
107.2814513937
 20
148.5789811176
 40
2.4427336899
100
AcDbArc
 50
180.5639314895
 51
183.0039685233
  0
ARC
  5
3CA
100
AcDbEntity
  8
0
100
AcDbCircle
 62
7
  6
CONTINUOUS
 10
110.4027441581
 20
148.5788648927
 40
2.4372544034
100
AcDbArc
 50
359.4374907271
 51
359.9999565505
  0
ARC
  5
3CB
100
AcDbEntity
  8
0
100
AcDbCircle
 62
7
  6
CONTINUOUS
 10
108.7193441596
 20
159.5390200011
 40
2.4372544019
100
AcDbArc
 50
359.4374907268
 51
359.9999565506
  0
ARC
  5
3CC
100
AcDbEntity
  8
0
100
AcDbCircle
 62
7
  6
CONTINUOUS
 10
105.5908484381
 20
159.5390202518
 40
2.4355299421
100
AcDbArc
 50
180.0000493784
 51
180.5628711032
  0
ARC
  5
3CD
100
AcDbEntity
  8
0
100
AcDbCircle
 62
7
  6
CONTINUOUS
 10
107.2742484366
 20
148.5788651434
 40
2.4355299406
100
AcDbArc
 50
180.0000493781
 51
180.5628711033
  0
ARC
  5
3CE
100
AcDbEntity
  8
0
100
AcDbCircle
 62
7
  6
CONTINUOUS
 10
108.9876937576
 20
159.5532166361
 40
2.1730265993
100
AcDbArc
 50
338.9149154442
 51
342.1117017105
  0
ARC
  5
3CF
100
AcDbEntity
  8
0
100
AcDbCircle
 62
7
  6
CONTINUOUS
 10
110.6710937575
 20
148.5930615277
 40
2.1730265994
100
AcDbArc
 50
338.9149154442
 51
342.1117017105
  0
ARC
  5
3D0
100
AcDbEntity
  8
0
100
AcDbCircle
 62
7
  6
CONTINUOUS
 10
107.0075773284
 20
148.5930457092
 40
2.1729779914
100
AcDbArc
 50
197.8882736871
 51
201.080685998
  0
ARC
  5
3D1
100
AcDbEntity
  8
0
100
AcDbCircle
 62
7
  6
CONTINUOUS
 10
105.3241773284
 20
159.5532008176
 40
2.1729779914
100
AcDbArc
 50
197.8882736871
 51
201.080685998
  0
ARC
  5
3D2
100
AcDbEntity
  8
0
100
AcDbCircle
 62
7
  6
CONTINUOUS
 10
105.170120288
 20
158.0935791624
 40
2.0141090954
100
AcDbArc
 50
171.9988589208
 51
179.9878948376
  0
ARC
  5
3D3
100
AcDbEntity
  8
0
100
AcDbCircle
 62
7
  6
CONTINUOUS
 10
106.853520288
 20
147.133424054
 40
2.0141090954
100
AcDbArc
 50
171.9988589208
 51
179.9878948376
  0
ARC
  5
3D4
100
AcDbEntity
  8
0
100
AcDbCircle
 62
7
  6
CONTINUOUS
 10
116.2292285874
 20
48.2693950441
 40
1.017272945
100
AcDbArc
 50
141.4952531962
 51
224.1295845227
  0
ARC
  5
3D5
100
AcDbEntity
  8
0
100
AcDbCircle
 62
7
  6
CONTINUOUS
 10
117.6278352694
 20
46.825503813
 40
0.9852428527
100
AcDbArc
 50
224.1452976051
 51
320.7332392838
  0
ARC
  5
3D6
100
AcDbEntity
  8
0
100
AcDbCircle
 62
7
  6
CONTINUOUS
 10
129.2095393598
 20
147.1251314775
 40
0.7371203119
100
AcDbArc
 50
277.5516757295
 51
296.7146975597
  0
ARC
  5
3D7
100
AcDbEntity
  8
0
100
AcDbCircle
 62
7
  6
CONTINUOUS
 10
129.4812464226
 20
146.6352922846
 40
0.1788437506
100
AcDbArc
 50
289.4880171663
 51
347.6603775767
  0
ARC
  5
3D8
100
AcDbEntity
  8
0
100
AcDbCircle
 62
7
  6
CONTINUOUS
 10
107.1559585287
 20
197.6064134189
 40
28.6810792696
100
AcDbArc
 50
58.4942024118
 51
121.5057975882
  0
ARC
  5
3D9
100
AcDbEntity
  8
0
100
AcDbCircle
 62
7
  6
CONTINUOUS
 10
107.1559585287
 20
237.9735141173
 40
28.6810792696
100
AcDbArc
 50
238.4942024118
 51
301.5057975882
  0
ARC
  5
3DA
100
AcDbEntity
  8
0
100
AcDbCircle
 62
7
  6
CONTINUOUS
 10
105.3245923107
 20
243.8450911767
 40
12.190757374
100
AcDbArc
 50
220.3222099866
 51
274.3816311903
  0
ARC
  5
3DB
100
AcDbEntity
  8
0
100
AcDbCircle
 62
7
  6
CONTINUOUS
 10
118.8400800336
 20
218.1646315084
 40
5.6996975033
100
AcDbArc
 50
305.4301978061
 51
356.2309630882
  0
ARC
  5
3DC
100
AcDbEntity
  8
0
100
AcDbCircle
 62
7
  6
CONTINUOUS
 10
118.8400800336
 20
217.4152960278
 40
5.6996975033
100
AcDbArc
 50
3.7690369118
 51
54.5698021939
  0
ARC
  5
3DD
100
AcDbEntity
  8
0
100
AcDbCircle
 62
7
  6
CONTINUOUS
 10
107.1559585287
 20
162.4769427203
 40
4.5429550677
100
AcDbArc
 50
262.4106221668
 51
277.5893778332
  0
ARC
  5
3DE
100
AcDbEntity
  8
0
100
AcDbCircle
 62
7
  6
CONTINUOUS
 10
107.3959581583
 20
174.2226543917
 40
2.7487273417
100
AcDbArc
 50
1.1955549559
 51
178.8044450441
  0
ARC
  5
3DF
100
AcDbEntity
  8
0
100
AcDbCircle
 62
7
  6
CONTINUOUS
 10
128.6693664663
 20
250.6902415813
 40
0.986594949
100
AcDbArc
 50
0.1385979826
 51
72.0782338895
  0
SPLINE
  5
3E0
100
AcDbEntity
  8
0
100
AcDbSpline
 62
7
  6
CONTINUOUS
 70
0
 71
3
 72
14
 73
10
 74
0
 42
0.0000001
 43
0.0000001
 44
0.0000000001
 40
0.0
 40
0.0
 40
0.0
 40
0.0
 40
0.1164505082
 40
0.2337006637
 40
0.3529608324
 40
0.4751127482
 40
0.6009668636
 40
0.7308202588
 40
1.0
 40
1.0
 40
1.0
 40
1.0
 10
90.1553184959
 20
159.1854647623
 30
0.0
 10
90.1553184959
 20
159.3777417094
 30
0.0
 10
90.2014009346
 20
159.7651321538
 30
0.0
 10
90.4035056778
 20
160.3167654242
 30
0.0
 10
90.7241555857
 20
160.819797403
 30
0.0
 10
91.1470182043
 20
161.2593516261
 30
0.0
 10
91.6546310611
 20
161.62735058
 30
0.0
 10
92.4305428715
 20
162.019235801
 30
0.0
 10
93.0799801764
 20
162.1835559308
 30
0.0
 10
93.5211792188
 20
162.2372590079
 30
0.0
  0
SPLINE
  5
3E1
100
AcDbEntity
  8
0
100
AcDbSpline
 62
7
  6
CONTINUOUS
 70
0
 71
3
 72
14
 73
10
 74
0
 42
0.0000001
 43
0.0000001
 44
0.0000000001
 40
0.0
 40
0.0
 40
0.0
 40
0.0
 40
0.2691811585
 40
0.3990256103
 40
0.5248696703
 40
0.647017276
 40
0.7662701739
 40
0.8835387922
 40
1.0
 40
1.0
 40
1.0
 40
1.0
 10
94.7948521266
 20
162.236764565
 30
0.0
 10
95.235644658
 20
162.1827647766
 30
0.0
 10
95.8843962779
 20
162.0180925879
 30
0.0
 10
96.6593837455
 20
161.6260544492
 30
0.0
 10
97.1663236429
 20
161.2580821691
 30
0.0
 10
97.5885658106
 20
160.8186961078
 30
0.0
 10
97.9088036586
 20
160.3159809658
 30
0.0
 10
98.1105662689
 20
159.7647083669
 30
0.0
 10
98.1565985615
 20
159.3775993438
 30
0.0
 10
98.1565985615
 20
159.1854647623
 30
0.0
  0
SPLINE
  5
3E2
100
AcDbEntity
  8
0
100
AcDbSpline
 62
7
  6
CONTINUOUS
 70
0
 71
3
 72
13
 73
9
 74
0
 42
0.0000001
 43
0.0000001
 44
0.0000000001
 40
0.0
 40
0.0
 40
0.0
 40
0.0
 40
0.1034550566
 40
0.2106673021
 40
0.3244968403
 40
0.446430815
 40
0.7129369009
 40
1.0
 40
1.0
 40
1.0
 40
1.0
 10
98.1559219316
 20
158.3061403606
 30
0.0
 10
98.1559219316
 20
158.1204340546
 30
0.0
 10
98.1020378787
 20
157.7403485583
 30
0.0
 10
97.8662288825
 20
157.2010052698
 30
0.0
 10
97.4879350822
 20
156.708429846
 30
0.0
 10
96.7964896464
 20
156.1212542515
 30
0.0
 10
95.6700045152
 20
155.611881754
 30
0.0
 10
94.6712492209
 20
155.4777134308
 30
0.0
 10
94.1559585287
 20
155.4777134308
 30
0.0
  0
SPLINE
  5
3E3
100
AcDbEntity
  8
0
100
AcDbSpline
 62
7
  6
CONTINUOUS
 70
0
 71
3
 72
13
 73
9
 74
0
 42
0.0000001
 43
0.0000001
 44
0.0000000001
 40
0.0
 40
0.0
 40
0.0
 40
0.0
 40
0.2870630991
 40
0.553569185
 40
0.6755031597
 40
0.7893326979
 40
0.8965449434
 40
1.0
 40
1.0
 40
1.0
 40
1.0
 10
81.1559585287
 20
194.5170788201
 30
0.0
 10
80.6406678366
 20
194.5170788201
 30
0.0
 10
79.6419125422
 20
194.6512471433
 30
0.0
 10
78.5154274111
 20
195.1606196408
 30
0.0
 10
77.8239819752
 20
195.7477952353
 30
0.0
 10
77.445688175
 20
196.2403706591
 30
0.0
 10
77.2098791787
 20
196.7797139476
 30
0.0
 10
77.1559951259
 20
197.159799444
 30
0.0
 10
77.1559951259
 20
197.3455057499
 30
0.0
  0
SPLINE
  5
3E4
100
AcDbEntity
  8
0
100
AcDbSpline
 62
7
  6
CONTINUOUS
 70
0
 71
3
 72
12
 73
8
 74
0
 42
0.0000001
 43
0.0000001
 44
0.0000000001
 40
0.0
 40
0.0
 40
0.0
 40
0.0
 40
0.2546189857
 40
0.5166798267
 40
0.645503618
 40
0.7700460258
 40
1.0
 40
1.0
 40
1.0
 40
1.0
 10
89.6559585846
 20
192.4170577453
 30
0.0
 10
90.1967077687
 20
192.6378182413
 30
0.0
 10
91.3646489173
 20
192.9224668292
 30
0.0
 10
92.8612371237
 20
192.9010720191
 30
0.0
 10
94.0216642518
 20
192.6559720599
 30
0.0
 10
95.0665869985
 20
192.2810009848
 30
0.0
 10
95.7721497873
 20
191.8383721488
 30
0.0
 10
96.1559587187
 20
191.4765113519
 30
0.0
  0
SPLINE
  5
3E5
100
AcDbEntity
  8
0
100
AcDbSpline
 62
7
  6
CONTINUOUS
 70
0
 71
3
 72
9
 73
5
 74
0
 42
0.0000001
 43
0.0000001
 44
0.0000000001
 40
0.0
 40
0.0
 40
0.0
 40
0.0
 40
0.255861498
 40
1.0
 40
1.0
 40
1.0
 40
1.0
 10
85.9544323428
 20
191.1229664579
 30
0.0
 10
86.0411740404
 20
191.1230966486
 30
0.0
 10
86.3798619114
 20
191.1391480501
 30
0.0
 10
86.7166242679
 20
191.2170803106
 30
0.0
 10
86.9501871628
 20
191.3124319631
 30
0.0
  0
SPLINE
  5
3E6
100
AcDbEntity
  8
0
100
AcDbSpline
 62
7
  6
CONTINUOUS
 70
0
 71
3
 72
14
 73
10
 74
0
 42
0.0000001
 43
0.0000001
 44
0.0000000001
 40
0.0
 40
0.0
 40
0.0
 40
0.0
 40
0.2605861635
 40
0.3948582774
 40
0.5277366101
 40
0.6564943992
 40
0.7788821473
 40
0.8934698427
 40
1.0
 40
1.0
 40
1.0
 40
1.0
 10
89.1559585026
 20
201.5147172399
 30
0.0
 10
89.9023388476
 20
201.8194236853
 30
0.0
 10
91.1203282049
 20
202.0886105775
 30
0.0
 10
92.7561342452
 20
202.0921893261
 30
0.0
 10
93.9732919697
 20
201.9156282948
 30
0.0
 10
95.1139581908
 20
201.5665469492
 30
0.0
 10
96.131650618
 20
201.0585216859
 30
0.0
 10
96.9831456044
 20
200.4117175712
 30
0.0
 10
97.4310475798
 20
199.8848029362
 30
0.0
 10
97.6103134279
 20
199.608246433
 30
0.0
  0
SPLINE
  5
3E7
100
AcDbEntity
  8
0
100
AcDbSpline
 62
7
  6
CONTINUOUS
 70
0
 71
3
 72
9
 73
5
 74
0
 42
0.0000001
 43
0.0000001
 44
0.0000000001
 40
0.0
 40
0.0
 40
0.0
 40
0.0
 40
0.2558574442
 40
1.0
 40
1.0
 40
1.0
 40
1.0
 10
85.9501871628
 20
200.3153514275
 30
0.0
 10
85.9937369813
 20
200.3153514275
 30
0.0
 10
86.1637928516
 20
200.3231870821
 30
0.0
 10
86.3329214523
 20
200.3622122472
 30
0.0
 10
86.4501871628
 20
200.410085773
 30
0.0
  0
SPLINE
  5
3E8
100
AcDbEntity
  8
0
100
AcDbSpline
 62
7
  6
CONTINUOUS
 70
0
 71
3
 72
14
 73
10
 74
0
 42
0.0000001
 43
0.0000001
 44
0.0000000001
 40
0.0
 40
0.0
 40
0.0
 40
0.0
 40
0.1164505082
 40
0.2337006637
 40
0.3529608324
 40
0.4751127482
 40
0.6009668636
 40
0.7308202588
 40
1.0
 40
1.0
 40
1.0
 40
1.0
 10
103.1553184959
 20
159.5390181528
 30
0.0
 10
103.1553184959
 20
159.7312951
 30
0.0
 10
103.2014009346
 20
160.1186855444
 30
0.0
 10
103.4035056778
 20
160.6703188148
 30
0.0
 10
103.7241555857
 20
161.1733507936
 30
0.0
 10
104.1470182043
 20
161.6129050167
 30
0.0
 10
104.6546310611
 20
161.9809039706
 30
0.0
 10
105.4305428715
 20
162.3727891916
 30
0.0
 10
106.0799801764
 20
162.5371093214
 30
0.0
 10
106.5211792188
 20
162.5908123985
 30
0.0
  0
SPLINE
  5
3E9
100
AcDbEntity
  8
0
100
AcDbSpline
 62
7
  6
CONTINUOUS
 70
0
 71
3
 72
14
 73
10
 74
0
 42
0.0000001
 43
0.0000001
 44
0.0000000001
 40
0.0
 40
0.0
 40
0.0
 40
0.0
 40
0.2691811585
 40
0.3990256103
 40
0.5248696703
 40
0.647017276
 40
0.7662701739
 40
0.8835387922
 40
1.0
 40
1.0
 40
1.0
 40
1.0
 10
107.7948521266
 20
162.5903179556
 30
0.0
 10
108.235644658
 20
162.5363181672
 30
0.0
 10
108.8843962779
 20
162.3716459785
 30
0.0
 10
109.6593837455
 20
161.9796078398
 30
0.0
 10
110.1663236429
 20
161.6116355597
 30
0.0
 10
110.5885658106
 20
161.1722494984
 30
0.0
 10
110.9088036586
 20
160.6695343564
 30
0.0
 10
111.1105662689
 20
160.1182617575
 30
0.0
 10
111.1565985615
 20
159.7311527344
 30
0.0
 10
111.1565985615
 20
159.5390181528
 30
0.0
  0
SPLINE
  5
3EA
100
AcDbEntity
  8
0
100
AcDbSpline
 62
7
  6
CONTINUOUS
 70
0
 71
3
 72
13
 73
9
 74
0
 42
0.0000001
 43
0.0000001
 44
0.0000000001
 40
0.0
 40
0.0
 40
0.0
 40
0.0
 40
0.1034550566
 40
0.2106673021
 40
0.3244968403
 40
0.446430815
 40
0.7129369009
 40
1.0
 40
1.0
 40
1.0
 40
1.0
 10
111.1559219316
 20
158.6596937512
 30
0.0
 10
111.1559219316
 20
158.4739874452
 30
0.0
 10
111.1020378787
 20
158.0939019488
 30
0.0
 10
110.8662288825
 20
157.5545586603
 30
0.0
 10
110.4879350822
 20
157.0619832366
 30
0.0
 10
109.7964896464
 20
156.4748076421
 30
0.0
 10
108.6700045152
 20
155.9654351445
 30
0.0
 10
107.6712492209
 20
155.8312668213
 30
0.0
 10
107.1559585287
 20
155.8312668213
 30
0.0
  0
SPLINE
  5
3EB
100
AcDbEntity
  8
0
100
AcDbSpline
 62
7
  6
CONTINUOUS
 70
0
 71
3
 72
12
 73
8
 74
0
 42
0.0000001
 43
0.0000001
 44
0.0000000001
 40
0.0
 40
0.0
 40
0.0
 40
0.0
 40
0.2874741198
 40
0.5542984682
 40
0.7890290439
 40
0.8964861391
 40
1.0
 40
1.0
 40
1.0
 40
1.0
 10
111.1559581283
 20
187.2407323481
 30
0.0
 10
111.3492086896
 20
187.2407323116
 30
0.0
 10
111.7241939326
 20
187.1899476648
 30
0.0
 10
112.2150769903
 20
186.9690479997
 30
0.0
 10
112.5146630131
 20
186.6696939903
 30
0.0
 10
112.6355927009
 20
186.3921721314
 30
0.0
 10
112.6559588805
 20
186.2496572808
 30
0.0
 10
112.6559590938
 20
186.1800714978
 30
0.0
  0
SPLINE
  5
3EC
100
AcDbEntity
  8
0
100
AcDbSpline
 62
7
  6
CONTINUOUS
 70
0
 71
3
 72
12
 73
8
 74
0
 42
0.0000001
 43
0.0000001
 44
0.0000000001
 40
0.0
 40
0.0
 40
0.0
 40
0.0
 40
0.1035139165
 40
0.210971185
 40
0.4457018446
 40
0.7125261527
 40
1.0
 40
1.0
 40
1.0
 40
1.0
 10
73.6559585287
 20
186.1800721763
 30
0.0
 10
73.6559585287
 20
186.2496579524
 30
0.0
 10
73.6763249129
 20
186.392172895
 30
0.0
 10
73.7972548034
 20
186.669694639
 30
0.0
 10
74.0968407839
 20
186.9690485236
 30
0.0
 10
74.5877234989
 20
187.1899477375
 30
0.0
 10
74.9627082736
 20
187.2407323481
 30
0.0
 10
75.1559585287
 20
187.2407323481
 30
0.0
  0
SPLINE
  5
3ED
100
AcDbEntity
  8
0
100
AcDbSpline
 62
7
  6
CONTINUOUS
 70
0
 71
3
 72
11
 73
7
 74
0
 42
0.0000001
 43
0.0000001
 44
0.0000000001
 40
0.0
 40
0.0
 40
0.0
 40
0.0
 40
0.2242363193
 40
0.4661612703
 40
0.7262561132
 40
1.0
 40
1.0
 40
1.0
 40
1.0
 10
112.643692247
 20
163.5383530732
 30
0.0
 10
112.6354650445
 20
163.3995158623
 30
0.0
 10
112.5561457528
 20
163.1126465655
 30
0.0
 10
112.2869931186
 20
162.7418665436
 30
0.0
 10
111.8948105861
 20
162.4515757586
 30
0.0
 10
111.5788436012
 20
162.3362567851
 30
0.0
 10
111.4128625153
 20
162.3005069609
 30
0.0
  0
SPLINE
  5
3EE
100
AcDbEntity
  8
0
100
AcDbSpline
 62
7
  6
CONTINUOUS
 70
0
 71
3
 72
14
 73
10
 74
0
 42
0.0000001
 43
0.0000001
 44
0.0000000001
 40
0.0
 40
0.0
 40
0.0
 40
0.0
 40
0.136932979
 40
0.2723649755
 40
0.4053161982
 40
0.5349186928
 40
0.6601199888
 40
0.779906995
 40
1.0
 40
1.0
 40
1.0
 40
1.0
 10
111.6207029175
 20
151.0229446237
 30
0.0
 10
111.7947165853
 20
151.0580332617
 30
0.0
 10
112.1356266064
 20
151.1568573391
 30
0.0
 10
112.6126414731
 20
151.3819200885
 30
0.0
 10
113.0419469692
 20
151.6716679811
 30
0.0
 10
113.4136513393
 20
152.0126893852
 30
0.0
 10
113.7195645904
 20
152.3926781106
 30
0.0
 10
114.0212932709
 20
152.9158114965
 30
0.0
 10
114.1437951692
 20
153.3538608537
 30
0.0
 10
114.1574083461
 20
153.6388583724
 30
0.0
  0
SPLINE
  5
3EF
100
AcDbEntity
  8
0
100
AcDbSpline
 62
7
  6
CONTINUOUS
 70
0
 71
3
 72
14
 73
10
 74
0
 42
0.0000001
 43
0.0000001
 44
0.0000000001
 40
0.0
 40
0.0
 40
0.0
 40
0.0
 40
0.1164505082
 40
0.2337006637
 40
0.3529608324
 40
0.4751127482
 40
0.6009668636
 40
0.7308202588
 40
1.0
 40
1.0
 40
1.0
 40
1.0
 10
104.8387184959
 20
148.5788630445
 30
0.0
 10
104.8387184959
 20
148.7711399916
 30
0.0
 10
104.8848009346
 20
149.158530436
 30
0.0
 10
105.0869056778
 20
149.7101637064
 30
0.0
 10
105.4075555857
 20
150.2131956852
 30
0.0
 10
105.8304182043
 20
150.6527499083
 30
0.0
 10
106.3380310611
 20
151.0207488622
 30
0.0
 10
107.1139428715
 20
151.4126340832
 30
0.0
 10
107.7633801764
 20
151.576954213
 30
0.0
 10
108.2045792188
 20
151.6306572901
 30
0.0
  0
SPLINE
  5
3F0
100
AcDbEntity
  8
0
100
AcDbSpline
 62
7
  6
CONTINUOUS
 70
0
 71
3
 72
14
 73
10
 74
0
 42
0.0000001
 43
0.0000001
 44
0.0000000001
 40
0.0
 40
0.0
 40
0.0
 40
0.0
 40
0.2691811585
 40
0.3990256103
 40
0.5248696703
 40
0.647017276
 40
0.7662701739
 40
0.8835387922
 40
1.0
 40
1.0
 40
1.0
 40
1.0
 10
109.4782521266
 20
151.6301628472
 30
0.0
 10
109.919044658
 20
151.5761630588
 30
0.0
 10
110.5677962779
 20
151.4114908701
 30
0.0
 10
111.3427837455
 20
151.0194527314
 30
0.0
 10
111.8497236429
 20
150.6514804513
 30
0.0
 10
112.2719658106
 20
150.21209439
 30
0.0
 10
112.5922036586
 20
149.709379248
 30
0.0
 10
112.7939662689
 20
149.1581066491
 30
0.0
 10
112.8399985615
 20
148.770997626
 30
0.0
 10
112.8399985615
 20
148.5788630445
 30
0.0
  0
SPLINE
  5
3F1
100
AcDbEntity
  8
0
100
AcDbSpline
 62
7
  6
CONTINUOUS
 70
0
 71
3
 72
8
 73
4
 74
0
 42
0.0000001
 43
0.0000001
 44
0.0000000001
 40
0.0
 40
0.0
 40
0.0
 40
0.0
 40
1.0
 40
1.0
 40
1.0
 40
1.0
 10
111.5693757339
 20
166.8841164008
 30
0.0
 10
111.5937919543
 20
166.8405162451
 30
0.0
 10
111.6111965032
 20
166.7923073838
 30
0.0
 10
111.620618778
 20
166.7432324805
 30
0.0
  0
SPLINE
  5
3F2
100
AcDbEntity
  8
0
100
AcDbSpline
 62
7
  6
CONTINUOUS
 70
0
 71
3
 72
13
 73
9
 74
0
 42
0.0000001
 43
0.0000001
 44
0.0000000001
 40
0.0
 40
0.0
 40
0.0
 40
0.0
 40
0.1034550566
 40
0.2106673021
 40
0.3244968403
 40
0.446430815
 40
0.7129369009
 40
1.0
 40
1.0
 40
1.0
 40
1.0
 10
112.8393219316
 20
147.6995386428
 30
0.0
 10
112.8393219316
 20
147.5138323368
 30
0.0
 10
112.7854378787
 20
147.1337468405
 30
0.0
 10
112.5496288825
 20
146.594403552
 30
0.0
 10
112.1713350822
 20
146.1018281282
 30
0.0
 10
111.4798896464
 20
145.5146525337
 30
0.0
 10
110.3534045152
 20
145.0052800362
 30
0.0
 10
109.3546492209
 20
144.871111713
 30
0.0
 10
108.8393585287
 20
144.871111713
 30
0.0
  0
SPLINE
  5
3F3
100
AcDbEntity
  8
0
100
AcDbSpline
 62
7
  6
CONTINUOUS
 70
0
 71
3
 72
9
 73
5
 74
0
 42
0.0000001
 43
0.0000001
 44
0.0000000001
 40
0.0
 40
0.0
 40
0.0
 40
0.0
 40
0.2432564744
 40
1.0
 40
1.0
 40
1.0
 40
1.0
 10
103.3617218732
 20
150.7570508728
 30
0.0
 10
103.4000607353
 20
150.7413994327
 30
0.0
 10
103.5610500733
 20
150.6855252233
 30
0.0
 10
103.7329059696
 20
150.6623123613
 30
0.0
 10
103.8617296173
 20
150.6623098624
 30
0.0
  0
SPLINE
  5
3F4
100
AcDbEntity
  8
0
100
AcDbSpline
 62
7
  6
CONTINUOUS
 70
0
 71
3
 72
9
 73
5
 74
0
 42
0.0000001
 43
0.0000001
 44
0.0000000001
 40
0.0
 40
0.0
 40
0.0
 40
0.0
 40
0.2539611529
 40
1.0
 40
1.0
 40
1.0
 40
1.0
 10
99.4970385743
 20
152.2254108077
 30
0.0
 10
99.5973539562
 20
152.2025417991
 30
0.0
 10
99.9905430318
 20
152.104785654
 30
0.0
 10
100.3761315325
 20
151.9759132536
 30
0.0
 10
100.6559589906
 20
151.8616745246
 30
0.0
  0
SPLINE
  5
3F5
100
AcDbEntity
  8
0
100
AcDbSpline
 62
7
  6
CONTINUOUS
 70
0
 71
3
 72
13
 73
9
 74
0
 42
0.0000001
 43
0.0000001
 44
0.0000000001
 40
0.0
 40
0.0
 40
0.0
 40
0.0
 40
0.2251764207
 40
0.3488057729
 40
0.4776935707
 40
0.6097447246
 40
0.7425515019
 40
1.0
 40
1.0
 40
1.0
 40
1.0
 10
84.7988156631
 20
151.8082687629
 30
0.0
 10
85.366208039
 20
152.4759190495
 30
0.0
 10
86.488935759
 20
153.3118225596
 30
0.0
 10
88.2033422362
 20
154.0361844065
 30
0.0
 10
89.658988242
 20
154.4088370764
 30
0.0
 10
91.1870311378
 20
154.5768132962
 30
0.0
 10
93.2221514091
 20
154.522732284
 30
0.0
 10
94.7285136982
 20
154.1721537774
 30
0.0
 10
95.6559567413
 20
153.7935265149
 30
0.0
  0
SPLINE
  5
3F6
100
AcDbEntity
  8
0
100
AcDbSpline
 62
7
  6
CONTINUOUS
 70
0
 71
3
 72
9
 73
5
 74
0
 42
0.0000001
 43
0.0000001
 44
0.0000000001
 40
0.0
 40
0.0
 40
0.0
 40
0.0
 40
0.2467672507
 40
1.0
 40
1.0
 40
1.0
 40
1.0
 10
84.3828496895
 20
151.2505904221
 30
0.0
 10
84.4141777916
 20
151.2985049888
 30
0.0
 10
84.5441894127
 20
151.4906628346
 30
0.0
 10
84.6861749451
 20
151.6746769611
 30
0.0
 10
84.7988156631
 20
151.8082687629
 30
0.0
  0
SPLINE
  5
3F7
100
AcDbEntity
  8
0
100
AcDbSpline
 62
7
  6
CONTINUOUS
 70
0
 71
3
 72
13
 73
9
 74
0
 42
0.0000001
 43
0.0000001
 44
0.0000000001
 40
0.0
 40
0.0
 40
0.0
 40
0.0
 40
0.2251764415
 40
0.3488057991
 40
0.4776935982
 40
0.6097447493
 40
0.7425515203
 40
1.0
 40
1.0
 40
1.0
 40
1.0
 10
85.6559583946
 20
142.9587732067
 30
0.0
 10
86.1524270998
 20
143.5429670919
 30
0.0
 10
87.1348142761
 20
144.2743824251
 30
0.0
 10
88.6349203672
 20
144.9081987398
 30
0.0
 10
89.9086108478
 20
145.2342695774
 30
0.0
 10
91.2456485256
 20
145.3812485156
 30
0.0
 10
93.0263788756
 20
145.3339273749
 30
0.0
 10
94.3444458074
 20
145.0271707763
 30
0.0
 10
95.1559585287
 20
144.6958719753
 30
0.0
  0
SPLINE
  5
3F8
100
AcDbEntity
  8
0
100
AcDbSpline
 62
7
  6
CONTINUOUS
 70
0
 71
3
 72
9
 73
5
 74
0
 42
0.0000001
 43
0.0000001
 44
0.0000000001
 40
0.0
 40
0.0
 40
0.0
 40
0.0
 40
0.2465338491
 40
1.0
 40
1.0
 40
1.0
 40
1.0
 10
85.2919882944
 20
142.4708035325
 30
0.0
 10
85.3191791666
 20
142.5128194739
 30
0.0
 10
85.4323631992
 20
142.6813630901
 30
0.0
 10
85.5568531644
 20
142.842268388
 30
0.0
 10
85.6559583946
 20
142.9587732067
 30
0.0
  0
SPLINE
  5
3F9
100
AcDbEntity
  8
0
100
AcDbSpline
 62
7
  6
CONTINUOUS
 70
0
 71
3
 72
9
 73
5
 74
0
 42
0.0000001
 43
0.0000001
 44
0.0000000001
 40
0.0
 40
0.0
 40
0.0
 40
0.0
 40
0.2436881121
 40
1.0
 40
1.0
 40
1.0
 40
1.0
 10
102.5937804981
 20
141.6593919506
 30
0.0
 10
102.6556499468
 20
141.6341343021
 30
0.0
 10
102.9139550024
 20
141.5414949633
 30
0.0
 10
103.1871193963
 20
141.4916846782
 30
0.0
 10
103.3940018213
 20
141.4769984791
 30
0.0
  0
SPLINE
  5
3FA
100
AcDbEntity
  8
0
100
AcDbSpline
 62
7
  6
CONTINUOUS
 70
0
 71
3
 72
11
 73
7
 74
0
 42
0.0000001
 43
0.0000001
 44
0.0000000001
 40
0.0
 40
0.0
 40
0.0
 40
0.0
 40
0.2284229506
 40
0.4773858184
 40
0.7384110592
 40
1.0
 40
1.0
 40
1.0
 40
1.0
 10
93.6559585287
 20
141.8234784878
 30
0.0
 10
93.9758117402
 20
142.1250389876
 30
0.0
 10
94.7506652654
 20
142.6459162291
 30
0.0
 10
96.1035056854
 20
143.1189975855
 30
0.0
 10
97.5895512497
 20
143.2908188676
 30
0.0
 10
98.59991347
 20
143.1933518481
 30
0.0
 10
99.092368795
 20
143.0888383772
 30
0.0
  0
SPLINE
  5
3FB
100
AcDbEntity
  8
0
100
AcDbSpline
 62
7
  6
CONTINUOUS
 70
0
 71
3
 72
9
 73
5
 74
0
 42
0.0000001
 43
0.0000001
 44
0.0000000001
 40
0.0
 40
0.0
 40
0.0
 40
0.0
 40
0.2459506642
 40
1.0
 40
1.0
 40
1.0
 40
1.0
 10
93.350412311
 20
141.5038141906
 30
0.0
 10
93.3736095794
 20
141.5316947689
 30
0.0
 10
93.4699258039
 20
141.6433800081
 30
0.0
 10
93.5740011069
 20
141.7483291466
 30
0.0
 10
93.6559585287
 20
141.8234784878
 30
0.0
  0
SPLINE
  5
3FC
100
AcDbEntity
  8
0
100
AcDbSpline
 62
7
  6
CONTINUOUS
 70
0
 71
3
 72
9
 73
5
 74
0
 42
0.0000001
 43
0.0000001
 44
0.0000000001
 40
0.0
 40
0.0
 40
0.0
 40
0.0
 40
0.494939663
 40
1.0
 40
1.0
 40
1.0
 40
1.0
 10
72.1559751819
 20
200.0380046908
 30
0.0
 10
72.1559751819
 20
200.2335519481
 30
0.0
 10
72.2123586628
 20
200.6301481438
 30
0.0
 10
72.3687792583
 20
200.9981192092
 30
0.0
 10
72.4689551763
 20
201.1706977075
 30
0.0
  0
SPLINE
  5
3FD
100
AcDbEntity
  8
0
100
AcDbSpline
 62
7
  6
CONTINUOUS
 70
0
 71
3
 72
10
 73
6
 74
0
 42
0.0000001
 43
0.0000001
 44
0.0000000001
 40
0.0
 40
0.0
 40
0.0
 40
0.0
 40
0.2707554414
 40
0.5325908132
 40
1.0
 40
1.0
 40
1.0
 40
1.0
 10
111.1559689614
 20
202.4364549083
 30
0.0
 10
111.414963107
 20
202.4364555824
 30
0.0
 10
111.9265368924
 20
202.389423485
 30
0.0
 10
112.8473035243
 20
202.1271902605
 30
0.0
 10
113.4639628515
 20
201.7279572261
 30
0.0
 10
113.7482412029
 20
201.3828642909
 30
0.0
  0
SPLINE
  5
3FE
100
AcDbEntity
  8
0
100
AcDbSpline
 62
7
  6
CONTINUOUS
 70
0
 71
3
 72
10
 73
6
 74
0
 42
0.0000001
 43
0.0000001
 44
0.0000000001
 40
0.0
 40
0.0
 40
0.0
 40
0.0
 40
0.4674091666
 40
0.7292445453
 40
1.0
 40
1.0
 40
1.0
 40
1.0
 10
72.5636767308
 20
201.3828642909
 30
0.0
 10
72.8479560012
 20
201.7279586263
 30
0.0
 10
73.4646175861
 20
202.1271931563
 30
0.0
 10
74.3853876608
 20
202.3894279079
 30
0.0
 10
74.8969633946
 20
202.4364592296
 30
0.0
 10
75.1559585287
 20
202.4364592296
 30
0.0
  0
SPLINE
  5
3FF
100
AcDbEntity
  8
0
100
AcDbSpline
 62
7
  6
CONTINUOUS
 70
0
 71
3
 72
9
 73
5
 74
0
 42
0.0000001
 43
0.0000001
 44
0.0000000001
 40
0.0
 40
0.0
 40
0.0
 40
0.0
 40
0.5017676886
 40
1.0
 40
1.0
 40
1.0
 40
1.0
 10
113.7482412029
 20
201.3828642909
 30
0.0
 10
113.8810233753
 20
201.1465135535
 30
0.0
 10
114.0846968648
 20
200.6389823062
 30
0.0
 10
114.1559422638
 20
200.0968006106
 30
0.0
 10
114.1559418898
 20
199.8276151959
 30
0.0
  0
SPLINE
  5
400
100
AcDbEntity
  8
0
100
AcDbSpline
 62
7
  6
CONTINUOUS
 70
0
 71
3
 72
11
 73
7
 74
0
 42
0.0000001
 43
0.0000001
 44
0.0000000001
 40
0.0
 40
0.0
 40
0.0
 40
0.0
 40
0.2445888354
 40
0.5018043581
 40
0.7580128935
 40
1.0
 40
1.0
 40
1.0
 40
1.0
 10
98.9340078528
 20
187.1990661488
 30
0.0
 10
99.1186481794
 20
187.1014217115
 30
0.0
 10
99.5281237025
 20
186.9564453662
 30
0.0
 10
100.1778076426
 20
186.892332148
 30
0.0
 10
100.8229286469
 20
186.9769525557
 30
0.0
 10
101.2243193969
 20
187.135418895
 30
0.0
 10
101.4029456777
 20
187.239322462
 30
0.0
  0
SPLINE
  5
401
100
AcDbEntity
  8
0
100
AcDbSpline
 62
7
  6
CONTINUOUS
 70
0
 71
3
 72
13
 73
9
 74
0
 42
0.0000001
 43
0.0000001
 44
0.0000000001
 40
0.0
 40
0.0
 40
0.0
 40
0.0
 40
0.1034550566
 40
0.2106673021
 40
0.3244968403
 40
0.446430815
 40
0.7129369009
 40
1.0
 40
1.0
 40
1.0
 40
1.0
 10
85.1559219316
 20
197.3455057499
 30
0.0
 10
85.1559219316
 20
197.159799444
 30
0.0
 10
85.1020378787
 20
196.7797139476
 30
0.0
 10
84.8662288825
 20
196.2403706591
 30
0.0
 10
84.4879350822
 20
195.7477952353
 30
0.0
 10
83.7964896464
 20
195.1606196408
 30
0.0
 10
82.6700045152
 20
194.6512471433
 30
0.0
 10
81.6712492209
 20
194.5170788201
 30
0.0
 10
81.1559585287
 20
194.5170788201
 30
0.0
  0
SPLINE
  5
402
100
AcDbEntity
  8
0
100
AcDbSpline
 62
7
  6
CONTINUOUS
 70
0
 71
3
 72
14
 73
10
 74
0
 42
0.0000001
 43
0.0000001
 44
0.0000000001
 40
0.0
 40
0.0
 40
0.0
 40
0.0
 40
0.1164505082
 40
0.2337006637
 40
0.3529608324
 40
0.4751127482
 40
0.6009668636
 40
0.7308202588
 40
1.0
 40
1.0
 40
1.0
 40
1.0
 10
77.1553184959
 20
198.2248301516
 30
0.0
 10
77.1553184959
 20
198.4171070987
 30
0.0
 10
77.2014009346
 20
198.8044975431
 30
0.0
 10
77.4035056778
 20
199.3561308135
 30
0.0
 10
77.7241555857
 20
199.8591627923
 30
0.0
 10
78.1470182043
 20
200.2987170154
 30
0.0
 10
78.6546310611
 20
200.6667159693
 30
0.0
 10
79.4305428715
 20
201.0586011903
 30
0.0
 10
80.0799801764
 20
201.2229213201
 30
0.0
 10
80.5211792188
 20
201.2766243972
 30
0.0
  0
SPLINE
  5
403
100
AcDbEntity
  8
0
100
AcDbSpline
 62
7
  6
CONTINUOUS
 70
0
 71
3
 72
14
 73
10
 74
0
 42
0.0000001
 43
0.0000001
 44
0.0000000001
 40
0.0
 40
0.0
 40
0.0
 40
0.0
 40
0.2691811585
 40
0.3990256103
 40
0.5248696703
 40
0.647017276
 40
0.7662701739
 40
0.8835387922
 40
1.0
 40
1.0
 40
1.0
 40
1.0
 10
81.7948521266
 20
201.2761299543
 30
0.0
 10
82.235644658
 20
201.2221301659
 30
0.0
 10
82.8843962779
 20
201.0574579773
 30
0.0
 10
83.6593837455
 20
200.6654198385
 30
0.0
 10
84.1663236429
 20
200.2974475584
 30
0.0
 10
84.5885658106
 20
199.8580614971
 30
0.0
 10
84.9088036586
 20
199.3553463552
 30
0.0
 10
85.1105662689
 20
198.8040737562
 30
0.0
 10
85.1565985615
 20
198.4169647331
 30
0.0
 10
85.1565985615
 20
198.2248301516
 30
0.0
  0
SPLINE
  5
404
100
AcDbEntity
  8
0
100
AcDbSpline
 62
7
  6
CONTINUOUS
 70
0
 71
3
 72
13
 73
9
 74
0
 42
0.0000001
 43
0.0000001
 44
0.0000000001
 40
0.0
 40
0.0
 40
0.0
 40
0.0
 40
0.2870630991
 40
0.553569185
 40
0.6755031597
 40
0.7893326979
 40
0.8965449434
 40
1.0
 40
1.0
 40
1.0
 40
1.0
 10
94.1559585287
 20
155.4777134308
 30
0.0
 10
93.6406678366
 20
155.4777134308
 30
0.0
 10
92.6419125422
 20
155.611881754
 30
0.0
 10
91.5154274111
 20
156.1212542515
 30
0.0
 10
90.8239819752
 20
156.708429846
 30
0.0
 10
90.445688175
 20
157.2010052698
 30
0.0
 10
90.2098791787
 20
157.7403485583
 30
0.0
 10
90.1559951259
 20
158.1204340546
 30
0.0
 10
90.1559951259
 20
158.3061403606
 30
0.0
  0
SPLINE
  5
405
100
AcDbEntity
  8
0
100
AcDbSpline
 62
7
  6
CONTINUOUS
 70
0
 71
3
 72
9
 73
5
 74
0
 42
0.0000001
 43
0.0000001
 44
0.0000000001
 40
0.0
 40
0.0
 40
0.0
 40
0.0
 40
0.2460489733
 40
1.0
 40
1.0
 40
1.0
 40
1.0
 10
77.9191944777
 20
160.1577188351
 30
0.0
 10
77.9522925432
 20
160.1990288066
 30
0.0
 10
78.0897426701
 20
160.3645593702
 30
0.0
 10
78.2385858229
 20
160.5205678583
 30
0.0
 10
78.3559585287
 20
160.6325188673
 30
0.0
  0
SPLINE
  5
406
100
AcDbEntity
  8
0
100
AcDbSpline
 62
7
  6
CONTINUOUS
 70
0
 71
3
 72
12
 73
8
 74
0
 42
0.0000001
 43
0.0000001
 44
0.0000000001
 40
0.0
 40
0.0
 40
0.0
 40
0.0
 40
0.2299540954
 40
0.3544965276
 40
0.4833203187
 40
0.7453811032
 40
1.0
 40
1.0
 40
1.0
 40
1.0
 10
78.3559585287
 20
160.6325188673
 30
0.0
 10
78.816530496
 20
161.066750648
 30
0.0
 10
79.6632068407
 20
161.5979034822
 30
0.0
 10
80.9171147282
 20
162.0478668676
 30
0.0
 10
82.3096270241
 20
162.341985002
 30
0.0
 10
84.105531775
 20
162.3676572142
 30
0.0
 10
85.5070600155
 20
162.0260783787
 30
0.0
 10
86.1559584766
 20
161.7611657359
 30
0.0
  0
SPLINE
  5
407
100
AcDbEntity
  8
0
100
AcDbSpline
 62
7
  6
CONTINUOUS
 70
0
 71
3
 72
9
 73
5
 74
0
 42
0.0000001
 43
0.0000001
 44
0.0000000001
 40
0.0
 40
0.0
 40
0.0
 40
0.0
 40
0.2432563079
 40
1.0
 40
1.0
 40
1.0
 40
1.0
 10
88.861731651
 20
160.6565419632
 30
0.0
 10
88.9000695451
 20
160.6408905126
 30
0.0
 10
89.0610559757
 20
160.5850185428
 30
0.0
 10
89.232908813
 20
160.5618082569
 30
0.0
 10
89.3617298017
 20
160.5618085243
 30
0.0
  0
SPLINE
  5
408
100
AcDbEntity
  8
0
100
AcDbSpline
 62
7
  6
CONTINUOUS
 70
0
 71
3
 72
9
 73
5
 74
0
 42
0.0000001
 43
0.0000001
 44
0.0000000001
 40
0.0
 40
0.0
 40
0.0
 40
0.0
 40
0.2449808405
 40
1.0
 40
1.0
 40
1.0
 40
1.0
 10
78.8368521669
 20
152.7907069781
 30
0.0
 10
78.8603466217
 20
152.8211968868
 30
0.0
 10
78.9590647927
 20
152.943471905
 30
0.0
 10
79.0686300176
 20
153.0568958755
 30
0.0
 10
79.1559582605
 20
153.1371883114
 30
0.0
  0
SPLINE
  5
409
100
AcDbEntity
  8
0
100
AcDbSpline
 62
7
  6
CONTINUOUS
 70
0
 71
3
 72
12
 73
8
 74
0
 42
0.0000001
 43
0.0000001
 44
0.0000000001
 40
0.0
 40
0.0
 40
0.0
 40
0.0
 40
0.2296575806
 40
0.3539138078
 40
0.4824667599
 40
0.7444190688
 40
1.0
 40
1.0
 40
1.0
 40
1.0
 10
79.1559582605
 20
153.1371883114
 30
0.0
 10
79.532069709
 20
153.4917896654
 30
0.0
 10
80.2210414984
 20
153.9276421226
 30
0.0
 10
81.2419181888
 20
154.3020038076
 30
0.0
 10
82.3767576598
 20
154.5523617156
 30
0.0
 10
83.8456820242
 20
154.5908394987
 30
0.0
 10
84.9973451598
 20
154.3311667309
 30
0.0
 10
85.5346540949
 20
154.1256717403
 30
0.0
  0
SPLINE
  5
40A
100
AcDbEntity
  8
0
100
AcDbSpline
 62
7
  6
CONTINUOUS
 70
0
 71
3
 72
13
 73
9
 74
0
 42
0.0000001
 43
0.0000001
 44
0.0000000001
 40
0.0
 40
0.0
 40
0.0
 40
0.0
 40
0.2870630991
 40
0.553569185
 40
0.6755031597
 40
0.7893326979
 40
0.8965449434
 40
1.0
 40
1.0
 40
1.0
 40
1.0
 10
107.1559585287
 20
155.8312668213
 30
0.0
 10
106.6406678366
 20
155.8312668213
 30
0.0
 10
105.6419125422
 20
155.9654351445
 30
0.0
 10
104.5154274111
 20
156.4748076421
 30
0.0
 10
103.8239819752
 20
157.0619832366
 30
0.0
 10
103.445688175
 20
157.5545586603
 30
0.0
 10
103.2098791787
 20
158.0939019488
 30
0.0
 10
103.1559951259
 20
158.4739874452
 30
0.0
 10
103.1559951259
 20
158.6596937512
 30
0.0
  0
SPLINE
  5
40B
100
AcDbEntity
  8
0
100
AcDbSpline
 62
7
  6
CONTINUOUS
 70
0
 71
3
 72
13
 73
9
 74
0
 42
0.0000001
 43
0.0000001
 44
0.0000000001
 40
0.0
 40
0.0
 40
0.0
 40
0.0
 40
0.2870630991
 40
0.553569185
 40
0.6755031597
 40
0.7893326979
 40
0.8965449434
 40
1.0
 40
1.0
 40
1.0
 40
1.0
 10
108.8393585287
 20
144.871111713
 30
0.0
 10
108.3240678366
 20
144.871111713
 30
0.0
 10
107.3253125422
 20
145.0052800362
 30
0.0
 10
106.1988274111
 20
145.5146525337
 30
0.0
 10
105.5073819752
 20
146.1018281282
 30
0.0
 10
105.129088175
 20
146.594403552
 30
0.0
 10
104.8932791787
 20
147.1337468405
 30
0.0
 10
104.8393951259
 20
147.5138323368
 30
0.0
 10
104.8393951259
 20
147.6995386428
 30
0.0
  0
SPLINE
  5
40C
100
AcDbEntity
  8
0
100
AcDbSpline
 62
7
  6
CONTINUOUS
 70
0
 71
3
 72
13
 73
9
 74
0
 42
0.0000001
 43
0.0000001
 44
0.0000000001
 40
0.0
 40
0.0
 40
0.0
 40
0.0
 40
0.2560242893
 40
0.5254992264
 40
0.6564383489
 40
0.7801171747
 40
0.8946755916
 40
1.0
 40
1.0
 40
1.0
 40
1.0
 10
88.3941487438
 20
137.5949959269
 30
0.0
 10
88.653044044
 20
137.4413832547
 30
0.0
 10
89.2561059737
 20
137.2431817345
 30
0.0
 10
90.0422554184
 20
137.2555277573
 30
0.0
 10
90.6386594056
 20
137.4220336133
 30
0.0
 10
91.0299926394
 20
137.6169053257
 30
0.0
 10
91.3470480132
 20
137.8727771943
 30
0.0
 10
91.5024315081
 20
138.0845407437
 30
0.0
 10
91.5591091645
 20
138.1946521809
 30
0.0
  0
SPLINE
  5
40D
100
AcDbEntity
  8
0
100
AcDbSpline
 62
7
  6
CONTINUOUS
 70
0
 71
3
 72
13
 73
9
 74
0
 42
0.0000001
 43
0.0000001
 44
0.0000000001
 40
0.0
 40
0.0
 40
0.0
 40
0.0
 40
0.2560247376
 40
0.525499515
 40
0.6564384748
 40
0.7801171795
 40
0.8946755567
 40
1.0
 40
1.0
 40
1.0
 40
1.0
 10
78.9660010516
 20
135.7769089749
 30
0.0
 10
79.2248982292
 20
135.6232990601
 30
0.0
 10
79.8279608753
 20
135.4251022341
 30
0.0
 10
80.6141093895
 20
135.4374515057
 30
0.0
 10
81.2105117857
 20
135.6039585132
 30
0.0
 10
81.6018440057
 20
135.7988302543
 30
0.0
 10
81.9188990522
 20
136.0547015028
 30
0.0
 10
82.0742830161
 20
136.2664642481
 30
0.0
 10
82.1309611815
 20
136.3765753215
 30
0.0
  0
SPLINE
  5
40E
100
AcDbEntity
  8
0
100
AcDbSpline
 62
7
  6
CONTINUOUS
 70
0
 71
3
 72
13
 73
9
 74
0
 42
0.0000001
 43
0.0000001
 44
0.0000000001
 40
0.0
 40
0.0
 40
0.0
 40
0.0
 40
0.2785844272
 40
0.5430510499
 40
0.6669508378
 40
0.7842007377
 40
0.8949196084
 40
1.0
 40
1.0
 40
1.0
 40
1.0
 10
94.1559585287
 20
156.3331486554
 30
0.0
 10
94.5861141535
 20
156.3331486554
 30
0.0
 10
95.4276150367
 20
156.4281224995
 30
0.0
 10
96.4064337336
 20
156.7861175152
 30
0.0
 10
97.0685720885
 20
157.2046938957
 30
0.0
 10
97.4788961594
 20
157.5647035448
 30
0.0
 10
97.8022281496
 20
157.9681527701
 30
0.0
 10
97.9568805009
 20
158.2665113212
 30
0.0
 10
98.0152301826
 20
158.4179083949
 30
0.0
  0
SPLINE
  5
40F
100
AcDbEntity
  8
0
100
AcDbSpline
 62
7
  6
CONTINUOUS
 70
0
 71
3
 72
9
 73
5
 74
0
 42
0.0000001
 43
0.0000001
 44
0.0000000001
 40
0.0
 40
0.0
 40
0.0
 40
0.0
 40
0.2528311171
 40
1.0
 40
1.0
 40
1.0
 40
1.0
 10
98.0556700721
 20
158.5321914754
 30
0.0
 10
98.0695247277
 20
158.575138421
 30
0.0
 10
98.1189563539
 20
158.7466801491
 30
0.0
 10
98.1463018053
 20
158.9246417915
 30
0.0
 10
98.1532498237
 20
159.0578186187
 30
0.0
  0
SPLINE
  5
410
100
AcDbEntity
  8
0
100
AcDbSpline
 62
7
  6
CONTINUOUS
 70
0
 71
3
 72
9
 73
5
 74
0
 42
0.0000001
 43
0.0000001
 44
0.0000000001
 40
0.0
 40
0.0
 40
0.0
 40
0.0
 40
0.2564059849
 40
1.0
 40
1.0
 40
1.0
 40
1.0
 10
94.1559585287
 20
155.4137048969
 30
0.0
 10
94.0042533571
 20
155.4137048969
 30
0.0
 10
93.4132458454
 20
155.442664373
 30
0.0
 10
92.8255199422
 20
155.5860760326
 30
0.0
 10
92.4225878965
 20
155.7627283466
 30
0.0
  0
SPLINE
  5
411
100
AcDbEntity
  8
0
100
AcDbSpline
 62
7
  6
CONTINUOUS
 70
0
 71
3
 72
13
 73
9
 74
0
 42
0.0000001
 43
0.0000001
 44
0.0000000001
 40
0.0
 40
0.0
 40
0.0
 40
0.0
 40
0.2870685863
 40
0.5535747875
 40
0.6755043683
 40
0.7893334285
 40
0.8965458294
 40
1.0
 40
1.0
 40
1.0
 40
1.0
 10
94.1559585287
 20
154.9120243736
 30
0.0
 10
94.6712577082
 20
154.9120243736
 30
0.0
 10
95.6700201354
 20
155.0461985538
 30
0.0
 10
96.7965024968
 20
155.5555776249
 30
0.0
 10
97.4879310661
 20
156.1427555067
 30
0.0
 10
97.8662179202
 20
156.6353228358
 30
0.0
 10
98.1020245531
 20
157.1746639215
 30
0.0
 10
98.1559038607
 20
157.5547470799
 30
0.0
 10
98.1559058198
 20
157.7404513044
 30
0.0
  0
SPLINE
  5
412
100
AcDbEntity
  8
0
100
AcDbSpline
 62
7
  6
CONTINUOUS
 70
0
 71
3
 72
9
 73
5
 74
0
 42
0.0000001
 43
0.0000001
 44
0.0000000001
 40
0.0
 40
0.0
 40
0.0
 40
0.0
 40
0.2560079993
 40
1.0
 40
1.0
 40
1.0
 40
1.0
 10
92.8559585287
 20
142.2477425565
 30
0.0
 10
92.815037541
 20
142.2108438472
 30
0.0
 10
92.6584552415
 20
142.0631630315
 30
0.0
 10
92.5153840048
 20
141.9009612241
 30
0.0
 10
92.4191942476
 20
141.7729430032
 30
0.0
  0
SPLINE
  5
413
100
AcDbEntity
  8
0
100
AcDbSpline
 62
7
  6
CONTINUOUS
 70
0
 71
3
 72
12
 73
8
 74
0
 42
0.0000001
 43
0.0000001
 44
0.0000000001
 40
0.0
 40
0.0
 40
0.0
 40
0.0
 40
0.2839137647
 40
0.5436468654
 40
0.7791170311
 40
0.8906263671
 40
1.0
 40
1.0
 40
1.0
 40
1.0
 10
92.4664772422
 20
154.4625232797
 30
0.0
 10
92.136226522
 20
154.5713335347
 30
0.0
 10
91.5226899388
 20
154.8476931647
 30
0.0
 10
90.7685233895
 20
155.4506889727
 30
0.0
 10
90.3490874685
 20
156.0839580406
 30
0.0
 10
90.1835053833
 20
156.6210219639
 30
0.0
 10
90.1560126508
 20
156.8923227752
 30
0.0
 10
90.1560112376
 20
157.0262746193
 30
0.0
  0
SPLINE
  5
414
100
AcDbEntity
  8
0
100
AcDbSpline
 62
7
  6
CONTINUOUS
 70
0
 71
3
 72
10
 73
6
 74
0
 42
0.0000001
 43
0.0000001
 44
0.0000000001
 40
0.0
 40
0.0
 40
0.0
 40
0.0
 40
0.2668674645
 40
0.5255435417
 40
1.0
 40
1.0
 40
1.0
 40
1.0
 10
97.0490123242
 20
143.9230357961
 30
0.0
 10
96.6420902103
 20
143.8937788675
 30
0.0
 10
95.8428568644
 20
143.7775584962
 30
0.0
 10
94.3785969278
 20
143.3322742535
 30
0.0
 10
93.3837087636
 20
142.7453102496
 30
0.0
 10
92.8559585287
 20
142.2477425565
 30
0.0
  0
SPLINE
  5
415
100
AcDbEntity
  8
0
100
AcDbSpline
 62
7
  6
CONTINUOUS
 70
0
 71
3
 72
13
 73
9
 74
0
 42
0.0000001
 43
0.0000001
 44
0.0000000001
 40
0.0
 40
0.0
 40
0.0
 40
0.0
 40
0.1034515788
 40
0.2106607524
 40
0.3244872747
 40
0.4464175357
 40
0.7129293771
 40
1.0
 40
1.0
 40
1.0
 40
1.0
 10
98.1559058198
 20
157.0262746175
 30
0.0
 10
98.155907779
 20
156.8405751423
 30
0.0
 10
98.1020220985
 20
156.4605029266
 30
0.0
 10
97.8662278551
 20
155.9211756414
 30
0.0
 10
97.4879587345
 20
155.4286062736
 30
0.0
 10
96.7965305662
 20
154.8414170609
 30
0.0
 10
95.6700366868
 20
154.3320263361
 30
0.0
 10
94.6712610946
 20
154.1978476886
 30
0.0
 10
94.1559585287
 20
154.1978476886
 30
0.0
  0
SPLINE
  5
416
100
AcDbEntity
  8
0
100
AcDbSpline
 62
7
  6
CONTINUOUS
 70
0
 71
3
 72
12
 73
8
 74
0
 42
0.0000001
 43
0.0000001
 44
0.0000000001
 40
0.0
 40
0.0
 40
0.0
 40
0.0
 40
0.2546188968
 40
0.5166796813
 40
0.6455034724
 40
0.7700459046
 40
1.0
 40
1.0
 40
1.0
 40
1.0
 10
86.1559584766
 20
154.690097924
 30
0.0
 10
85.5070600155
 20
154.9550105669
 30
0.0
 10
84.105531775
 20
155.2965894023
 30
0.0
 10
82.3096270241
 20
155.2709171901
 30
0.0
 10
80.9171147282
 20
154.9767990558
 30
0.0
 10
79.6632068407
 20
154.5268356703
 30
0.0
 10
78.816530496
 20
153.9956828362
 30
0.0
 10
78.3559585287
 20
153.5614510555
 30
0.0
  0
SPLINE
  5
417
100
AcDbEntity
  8
0
100
AcDbSpline
 62
7
  6
CONTINUOUS
 70
0
 71
3
 72
9
 73
5
 74
0
 42
0.0000001
 43
0.0000001
 44
0.0000000001
 40
0.0
 40
0.0
 40
0.0
 40
0.0
 40
0.254131121
 40
1.0
 40
1.0
 40
1.0
 40
1.0
 10
78.3559585287
 20
153.5614510555
 30
0.0
 10
78.3163965579
 20
153.5237165369
 30
0.0
 10
78.1630934668
 20
153.3727728791
 30
0.0
 10
78.019526514
 20
153.2118762743
 30
0.0
 10
77.9191944777
 20
153.0866510232
 30
0.0
  0
SPLINE
  5
418
100
AcDbEntity
  8
0
100
AcDbSpline
 62
7
  6
CONTINUOUS
 70
0
 71
3
 72
13
 73
9
 74
0
 42
0.0000001
 43
0.0000001
 44
0.0000000001
 40
0.0
 40
0.0
 40
0.0
 40
0.0
 40
0.2870738714
 40
0.5535705122
 40
0.6755055605
 40
0.789314473
 40
0.8965741776
 40
1.0
 40
1.0
 40
1.0
 40
1.0
 10
75.1559585287
 20
188.2943259341
 30
0.0
 10
74.769477815
 20
188.2943259341
 30
0.0
 10
74.0204266191
 20
188.1936726271
 30
0.0
 10
73.1755222311
 20
187.8116894037
 30
0.0
 10
72.6570457779
 20
187.3712618684
 30
0.0
 10
72.3732174835
 20
187.0018610382
 30
0.0
 10
72.1964768893
 20
186.5973102741
 30
0.0
 10
72.1559585287
 20
186.3122453111
 30
0.0
 10
72.1559585287
 20
186.1730055905
 30
0.0
  0
SPLINE
  5
419
100
AcDbEntity
  8
0
100
AcDbSpline
 62
7
  6
CONTINUOUS
 70
0
 71
3
 72
19
 73
15
 74
0
 42
0.0000001
 43
0.0000001
 44
0.0000000001
 40
0.0
 40
0.0
 40
0.0
 40
0.0
 40
0.0517190809
 40
0.105339288
 40
0.1622479039
 40
0.2232156281
 40
0.356475455
 40
0.5
 40
0.643524545
 40
0.7767843719
 40
0.8377520961
 40
0.894660712
 40
0.9482809191
 40
1.0
 40
1.0
 40
1.0
 40
1.0
 10
103.6616418167
 20
160.1077774201
 30
0.0
 10
103.6616418167
 20
159.9455750849
 30
0.0
 10
103.7087828437
 20
159.6135385026
 30
0.0
 10
103.9147019529
 20
159.142347399
 30
0.0
 10
104.2452855389
 20
158.7120852742
 30
0.0
 10
104.8491674692
 20
158.1990615843
 30
0.0
 10
105.8339362097
 20
157.7541333025
 30
0.0
 10
107.1559585287
 20
157.5761775658
 30
0.0
 10
108.4779808478
 20
157.7541333025
 30
0.0
 10
109.4627495882
 20
158.1990615843
 30
0.0
 10
110.0666315186
 20
158.7120852742
 30
0.0
 10
110.3972151045
 20
159.142347399
 30
0.0
 10
110.6031342138
 20
159.6135385026
 30
0.0
 10
110.6502752407
 20
159.9455750849
 30
0.0
 10
110.6502752407
 20
160.1077774201
 30
0.0
  0
SPLINE
  5
41A
100
AcDbEntity
  8
0
100
AcDbSpline
 62
7
  6
CONTINUOUS
 70
0
 71
3
 72
13
 73
9
 74
0
 42
0.0000001
 43
0.0000001
 44
0.0000000001
 40
0.0
 40
0.0
 40
0.0
 40
0.0
 40
0.1054743427
 40
0.2140737826
 40
0.3281182888
 40
0.4492129216
 40
0.7128045923
 40
1.0
 40
1.0
 40
1.0
 40
1.0
 10
110.6502752407
 20
160.1077774201
 30
0.0
 10
110.6502752407
 20
160.2513926856
 30
0.0
 10
110.6135854803
 20
160.5440539312
 30
0.0
 10
110.452385635
 20
160.9648240451
 30
0.0
 10
110.1910285967
 20
161.3573120934
 30
0.0
 10
109.7087611781
 20
161.8405882871
 30
0.0
 10
108.9016432681
 20
162.3046115844
 30
0.0
 10
108.1655537856
 20
162.4895755538
 30
0.0
 10
107.7776659434
 20
162.5391981808
 30
0.0
  0
SPLINE
  5
41B
100
AcDbEntity
  8
0
100
AcDbSpline
 62
7
  6
CONTINUOUS
 70
0
 71
3
 72
13
 73
9
 74
0
 42
0.0000001
 43
0.0000001
 44
0.0000000001
 40
0.0
 40
0.0
 40
0.0
 40
0.0
 40
0.2871954077
 40
0.5507870784
 40
0.6718817112
 40
0.7859262174
 40
0.8945256573
 40
1.0
 40
1.0
 40
1.0
 40
1.0
 10
106.5342511141
 20
162.5391981808
 30
0.0
 10
106.1463632718
 20
162.4895755538
 30
0.0
 10
105.4102737893
 20
162.3046115844
 30
0.0
 10
104.6031558793
 20
161.8405882871
 30
0.0
 10
104.1208884608
 20
161.3573120934
 30
0.0
 10
103.8595314225
 20
160.9648240451
 30
0.0
 10
103.6983315772
 20
160.5440539312
 30
0.0
 10
103.6616418167
 20
160.2513926856
 30
0.0
 10
103.6616418167
 20
160.1077774201
 30
0.0
  0
SPLINE
  5
41C
100
AcDbEntity
  8
0
100
AcDbSpline
 62
7
  6
CONTINUOUS
 70
0
 71
3
 72
9
 73
5
 74
0
 42
0.0000001
 43
0.0000001
 44
0.0000000001
 40
0.0
 40
0.0
 40
0.0
 40
0.0
 40
0.2534051132
 40
1.0
 40
1.0
 40
1.0
 40
1.0
 10
84.7988156631
 20
143.3229873886
 30
0.0
 10
84.7609209231
 20
143.2780442573
 30
0.0
 10
84.6139728172
 20
143.0985217747
 30
0.0
 10
84.4776323545
 20
142.9102737928
 30
0.0
 10
84.3828496895
 20
142.7653090478
 30
0.0
  0
SPLINE
  5
41D
100
AcDbEntity
  8
0
100
AcDbSpline
 62
7
  6
CONTINUOUS
 70
0
 71
3
 72
13
 73
9
 74
0
 42
0.0000001
 43
0.0000001
 44
0.0000000001
 40
0.0
 40
0.0
 40
0.0
 40
0.0
 40
0.2785844272
 40
0.5430510499
 40
0.6669508378
 40
0.7842007377
 40
0.8949196084
 40
1.0
 40
1.0
 40
1.0
 40
1.0
 10
107.1559585287
 20
156.686702046
 30
0.0
 10
107.5861141535
 20
156.686702046
 30
0.0
 10
108.4276150367
 20
156.7816758901
 30
0.0
 10
109.4064337336
 20
157.1396709058
 30
0.0
 10
110.0685720885
 20
157.5582472863
 30
0.0
 10
110.4788961594
 20
157.9182569354
 30
0.0
 10
110.8022281496
 20
158.3217061607
 30
0.0
 10
110.9568805009
 20
158.6200647118
 30
0.0
 10
111.0152301826
 20
158.7714617855
 30
0.0
  0
SPLINE
  5
41E
100
AcDbEntity
  8
0
100
AcDbSpline
 62
7
  6
CONTINUOUS
 70
0
 71
3
 72
9
 73
5
 74
0
 42
0.0000001
 43
0.0000001
 44
0.0000000001
 40
0.0
 40
0.0
 40
0.0
 40
0.0
 40
0.2528311171
 40
1.0
 40
1.0
 40
1.0
 40
1.0
 10
111.0556700721
 20
158.885744866
 30
0.0
 10
111.0695247277
 20
158.9286918116
 30
0.0
 10
111.1189563539
 20
159.1002335397
 30
0.0
 10
111.1463018053
 20
159.2781951821
 30
0.0
 10
111.1532498237
 20
159.4113720092
 30
0.0
  0
SPLINE
  5
41F
100
AcDbEntity
  8
0
100
AcDbSpline
 62
7
  6
CONTINUOUS
 70
0
 71
3
 72
13
 73
9
 74
0
 42
0.0000001
 43
0.0000001
 44
0.0000000001
 40
0.0
 40
0.0
 40
0.0
 40
0.0
 40
0.2574485242
 40
0.3902553069
 40
0.5223064628
 40
0.6511942572
 40
0.774823603
 40
1.0
 40
1.0
 40
1.0
 40
1.0
 10
95.6559567413
 20
145.3082451407
 30
0.0
 10
94.7285136041
 20
145.6868724416
 30
0.0
 10
93.2221511823
 20
146.0374509568
 30
0.0
 10
91.1870307786
 20
146.0915319033
 30
0.0
 10
89.6589878724
 20
145.9235556351
 30
0.0
 10
88.2033419074
 20
145.5509029264
 30
0.0
 10
86.4889355782
 20
144.8265410621
 30
0.0
 10
85.3662079794
 20
143.9906376051
 30
0.0
 10
84.7988156631
 20
143.3229873886
 30
0.0
  0
SPLINE
  5
420
100
AcDbEntity
  8
0
100
AcDbSpline
 62
7
  6
CONTINUOUS
 70
0
 71
3
 72
9
 73
5
 74
0
 42
0.0000001
 43
0.0000001
 44
0.0000000001
 40
0.0
 40
0.0
 40
0.0
 40
0.0
 40
0.2564059849
 40
1.0
 40
1.0
 40
1.0
 40
1.0
 10
107.1559585287
 20
155.7672582875
 30
0.0
 10
107.0042533571
 20
155.7672582875
 30
0.0
 10
106.4132458454
 20
155.7962177636
 30
0.0
 10
105.8255199422
 20
155.9396294231
 30
0.0
 10
105.4225878965
 20
156.1162817372
 30
0.0
  0
SPLINE
  5
421
100
AcDbEntity
  8
0
100
AcDbSpline
 62
7
  6
CONTINUOUS
 70
0
 71
3
 72
13
 73
9
 74
0
 42
0.0000001
 43
0.0000001
 44
0.0000000001
 40
0.0
 40
0.0
 40
0.0
 40
0.0
 40
0.2870685863
 40
0.5535747875
 40
0.6755043683
 40
0.7893334285
 40
0.8965458294
 40
1.0
 40
1.0
 40
1.0
 40
1.0
 10
107.1559585287
 20
155.2655777642
 30
0.0
 10
107.6712577082
 20
155.2655777642
 30
0.0
 10
108.6700201354
 20
155.3997519444
 30
0.0
 10
109.7965024968
 20
155.9091310155
 30
0.0
 10
110.4879310661
 20
156.4963088973
 30
0.0
 10
110.8662179202
 20
156.9888762264
 30
0.0
 10
111.1020245531
 20
157.5282173121
 30
0.0
 10
111.1559038607
 20
157.9083004704
 30
0.0
 10
111.1559058198
 20
158.094004695
 30
0.0
  0
SPLINE
  5
422
100
AcDbEntity
  8
0
100
AcDbSpline
 62
7
  6
CONTINUOUS
 70
0
 71
3
 72
13
 73
9
 74
0
 42
0.0000001
 43
0.0000001
 44
0.0000000001
 40
0.0
 40
0.0
 40
0.0
 40
0.0
 40
0.2870606458
 40
0.5535681455
 40
0.6755005469
 40
0.7893227287
 40
0.8965513091
 40
1.0
 40
1.0
 40
1.0
 40
1.0
 10
107.1559585287
 20
154.5584711574
 30
0.0
 10
106.6406725471
 20
154.5584711574
 30
0.0
 10
105.6419278664
 20
154.6926471305
 30
0.0
 10
104.5154204199
 20
155.2019948933
 30
0.0
 10
103.8240409626
 20
155.7892149351
 30
0.0
 10
103.4456704924
 20
156.2817483939
 30
0.0
 10
103.2098919562
 20
156.8211116914
 30
0.0
 10
103.1559584691
 20
157.2012054121
 30
0.0
 10
103.1559584691
 20
157.3869001809
 30
0.0
  0
SPLINE
  5
423
100
AcDbEntity
  8
0
100
AcDbSpline
 62
7
  6
CONTINUOUS
 70
0
 71
3
 72
9
 73
5
 74
0
 42
0.0000001
 43
0.0000001
 44
0.0000000001
 40
0.0
 40
0.0
 40
0.0
 40
0.0
 40
0.2459525584
 40
1.0
 40
1.0
 40
1.0
 40
1.0
 10
100.6559589907
 20
143.3763931503
 30
0.0
 10
100.5637048148
 20
143.4140556437
 30
0.0
 10
100.1853498819
 20
143.5591030395
 30
0.0
 10
99.7948934513
 20
143.6722271276
 30
0.0
 10
99.4970385743
 20
143.7401294335
 30
0.0
  0
SPLINE
  5
424
100
AcDbEntity
  8
0
100
AcDbSpline
 62
7
  6
CONTINUOUS
 70
0
 71
3
 72
9
 73
5
 74
0
 42
0.0000001
 43
0.0000001
 44
0.0000000001
 40
0.0
 40
0.0
 40
0.0
 40
0.0
 40
0.2558574851
 40
1.0
 40
1.0
 40
1.0
 40
1.0
 10
103.8617296173
 20
142.1770284882
 30
0.0
 10
103.8181790493
 20
142.177029333
 30
0.0
 10
103.6481203552
 20
142.1848678814
 30
0.0
 10
103.4789899349
 20
142.2238960369
 30
0.0
 10
103.3617218732
 20
142.2717694986
 30
0.0
  0
SPLINE
  5
425
100
AcDbEntity
  8
0
100
AcDbSpline
 62
7
  6
CONTINUOUS
 70
0
 71
3
 72
19
 73
15
 74
0
 42
0.0000001
 43
0.0000001
 44
0.0000000001
 40
0.0
 40
0.0
 40
0.0
 40
0.0
 40
0.0517190809
 40
0.105339288
 40
0.1622479039
 40
0.2232156281
 40
0.356475455
 40
0.5
 40
0.643524545
 40
0.7767843719
 40
0.8377520961
 40
0.894660712
 40
0.9482809191
 40
1.0
 40
1.0
 40
1.0
 40
1.0
 10
105.3450418167
 20
149.1476223117
 30
0.0
 10
105.3450418167
 20
148.9854199765
 30
0.0
 10
105.3921828437
 20
148.6533833942
 30
0.0
 10
105.5981019529
 20
148.1821922906
 30
0.0
 10
105.9286855389
 20
147.7519301658
 30
0.0
 10
106.5325674692
 20
147.2389064759
 30
0.0
 10
107.5173362097
 20
146.7939781941
 30
0.0
 10
108.8393585287
 20
146.6160224574
 30
0.0
 10
110.1613808478
 20
146.7939781941
 30
0.0
 10
111.1461495882
 20
147.2389064759
 30
0.0
 10
111.7500315186
 20
147.7519301658
 30
0.0
 10
112.0806151045
 20
148.1821922906
 30
0.0
 10
112.2865342138
 20
148.6533833942
 30
0.0
 10
112.3336752407
 20
148.9854199765
 30
0.0
 10
112.3336752407
 20
149.1476223117
 30
0.0
  0
SPLINE
  5
426
100
AcDbEntity
  8
0
100
AcDbSpline
 62
7
  6
CONTINUOUS
 70
0
 71
3
 72
13
 73
9
 74
0
 42
0.0000001
 43
0.0000001
 44
0.0000000001
 40
0.0
 40
0.0
 40
0.0
 40
0.0
 40
0.1054743427
 40
0.2140737826
 40
0.3281182888
 40
0.4492129216
 40
0.7128045923
 40
1.0
 40
1.0
 40
1.0
 40
1.0
 10
112.3336752407
 20
149.1476223117
 30
0.0
 10
112.3336752407
 20
149.2912375772
 30
0.0
 10
112.2969854803
 20
149.5838988228
 30
0.0
 10
112.135785635
 20
150.0046689367
 30
0.0
 10
111.8744285967
 20
150.397156985
 30
0.0
 10
111.3921611781
 20
150.8804331787
 30
0.0
 10
110.5850432681
 20
151.344456476
 30
0.0
 10
109.8489537856
 20
151.5294204454
 30
0.0
 10
109.4610659434
 20
151.5790430724
 30
0.0
  0
SPLINE
  5
427
100
AcDbEntity
  8
0
100
AcDbSpline
 62
7
  6
CONTINUOUS
 70
0
 71
3
 72
13
 73
9
 74
0
 42
0.0000001
 43
0.0000001
 44
0.0000000001
 40
0.0
 40
0.0
 40
0.0
 40
0.0
 40
0.2871954077
 40
0.5507870784
 40
0.6718817112
 40
0.7859262174
 40
0.8945256573
 40
1.0
 40
1.0
 40
1.0
 40
1.0
 10
108.2176511141
 20
151.5790430724
 30
0.0
 10
107.8297632718
 20
151.5294204454
 30
0.0
 10
107.0936737893
 20
151.344456476
 30
0.0
 10
106.2865558793
 20
150.8804331787
 30
0.0
 10
105.8042884608
 20
150.397156985
 30
0.0
 10
105.5429314225
 20
150.0046689367
 30
0.0
 10
105.3817315772
 20
149.5838988228
 30
0.0
 10
105.3450418167
 20
149.2912375772
 30
0.0
 10
105.3450418167
 20
149.1476223117
 30
0.0
  0
SPLINE
  5
428
100
AcDbEntity
  8
0
100
AcDbSpline
 62
7
  6
CONTINUOUS
 70
0
 71
3
 72
13
 73
9
 74
0
 42
0.0000001
 43
0.0000001
 44
0.0000000001
 40
0.0
 40
0.0
 40
0.0
 40
0.0
 40
0.1034257878
 40
0.2106854504
 40
0.3244943287
 40
0.4464293645
 40
0.7129260109
 40
1.0
 40
1.0
 40
1.0
 40
1.0
 10
114.1559585287
 20
186.1730086461
 30
0.0
 10
114.1559588123
 20
186.3122478358
 30
0.0
 10
114.1154404496
 20
186.5973117544
 30
0.0
 10
113.9387004109
 20
187.0018608648
 30
0.0
 10
113.6548733563
 20
187.3712604369
 30
0.0
 10
113.136398802
 20
187.8116865521
 30
0.0
 10
112.2914972246
 20
188.193667996
 30
0.0
 10
111.5424484891
 20
188.2943226187
 30
0.0
 10
111.1559689614
 20
188.2943216128
 30
0.0
  0
SPLINE
  5
429
100
AcDbEntity
  8
0
100
AcDbSpline
 62
7
  6
CONTINUOUS
 70
0
 71
3
 72
13
 73
9
 74
0
 42
0.0000001
 43
0.0000001
 44
0.0000000001
 40
0.0
 40
0.0
 40
0.0
 40
0.0
 40
0.2785844272
 40
0.5430510499
 40
0.6669508378
 40
0.7842007377
 40
0.8949196084
 40
1.0
 40
1.0
 40
1.0
 40
1.0
 10
108.8393585287
 20
145.7265469376
 30
0.0
 10
109.2695141535
 20
145.7265469376
 30
0.0
 10
110.1110150367
 20
145.8215207817
 30
0.0
 10
111.0898337336
 20
146.1795157974
 30
0.0
 10
111.7519720885
 20
146.5980921779
 30
0.0
 10
112.1622961594
 20
146.958101827
 30
0.0
 10
112.4856281496
 20
147.3615510523
 30
0.0
 10
112.6402805009
 20
147.6599096034
 30
0.0
 10
112.6986301826
 20
147.8113066771
 30
0.0
  0
SPLINE
  5
42A
100
AcDbEntity
  8
0
100
AcDbSpline
 62
7
  6
CONTINUOUS
 70
0
 71
3
 72
9
 73
5
 74
0
 42
0.0000001
 43
0.0000001
 44
0.0000000001
 40
0.0
 40
0.0
 40
0.0
 40
0.0
 40
0.2528311171
 40
1.0
 40
1.0
 40
1.0
 40
1.0
 10
112.7390700721
 20
147.9255897576
 30
0.0
 10
112.7529247277
 20
147.9685367032
 30
0.0
 10
112.8023563539
 20
148.1400784313
 30
0.0
 10
112.8297018053
 20
148.3180400737
 30
0.0
 10
112.8366498237
 20
148.4512169009
 30
0.0
  0
SPLINE
  5
42B
100
AcDbEntity
  8
0
100
AcDbSpline
 62
7
  6
CONTINUOUS
 70
0
 71
3
 72
9
 73
5
 74
0
 42
0.0000001
 43
0.0000001
 44
0.0000000001
 40
0.0
 40
0.0
 40
0.0
 40
0.0
 40
0.2564059849
 40
1.0
 40
1.0
 40
1.0
 40
1.0
 10
108.8393585287
 20
144.8071031791
 30
0.0
 10
108.6876533571
 20
144.8071031791
 30
0.0
 10
108.0966458454
 20
144.8360626552
 30
0.0
 10
107.5089199422
 20
144.9794743148
 30
0.0
 10
107.1059878965
 20
145.1561266288
 30
0.0
  0
SPLINE
  5
42C
100
AcDbEntity
  8
0
100
AcDbSpline
 62
7
  6
CONTINUOUS
 70
0
 71
3
 72
13
 73
9
 74
0
 42
0.0000001
 43
0.0000001
 44
0.0000000001
 40
0.0
 40
0.0
 40
0.0
 40
0.0
 40
0.2870685863
 40
0.5535747875
 40
0.6755043683
 40
0.7893334285
 40
0.8965458294
 40
1.0
 40
1.0
 40
1.0
 40
1.0
 10
108.8393585287
 20
144.3054226558
 30
0.0
 10
109.3546577082
 20
144.3054226558
 30
0.0
 10
110.3534201354
 20
144.439596836
 30
0.0
 10
111.4799024968
 20
144.9489759071
 30
0.0
 10
112.1713310661
 20
145.5361537889
 30
0.0
 10
112.5496179202
 20
146.028721118
 30
0.0
 10
112.7854245531
 20
146.5680622037
 30
0.0
 10
112.8393038607
 20
146.9481453621
 30
0.0
 10
112.8393058198
 20
147.1338495866
 30
0.0
  0
SPLINE
  5
42D
100
AcDbEntity
  8
0
100
AcDbSpline
 62
7
  6
CONTINUOUS
 70
0
 71
3
 72
13
 73
9
 74
0
 42
0.0000001
 43
0.0000001
 44
0.0000000001
 40
0.0
 40
0.0
 40
0.0
 40
0.0
 40
0.1034515788
 40
0.2106607524
 40
0.3244872747
 40
0.4464175357
 40
0.7129293771
 40
1.0
 40
1.0
 40
1.0
 40
1.0
 10
111.1559058198
 20
157.3868980863
 30
0.0
 10
111.155907779
 20
157.2011986112
 30
0.0
 10
111.1020220985
 20
156.8211263955
 30
0.0
 10
110.8662278551
 20
156.2817991103
 30
0.0
 10
110.4879587345
 20
155.7892297425
 30
0.0
 10
109.7965305662
 20
155.2020405298
 30
0.0
 10
108.6700366868
 20
154.692649805
 30
0.0
 10
107.6712610946
 20
154.5584711574
 30
0.0
 10
107.1559585287
 20
154.5584711574
 30
0.0
  0
SPLINE
  5
42E
100
AcDbEntity
  8
0
100
AcDbSpline
 62
7
  6
CONTINUOUS
 70
0
 71
3
 72
13
 73
9
 74
0
 42
0.0000001
 43
0.0000001
 44
0.0000000001
 40
0.0
 40
0.0
 40
0.0
 40
0.0
 40
0.287068582
 40
0.553574785
 40
0.6755043677
 40
0.7893334296
 40
0.896545831
 40
1.0
 40
1.0
 40
1.0
 40
1.0
 10
81.1559585287
 20
193.2372131576
 30
0.0
 10
80.6406593431
 20
193.2372132022
 30
0.0
 10
79.6418969059
 20
193.3713874737
 30
0.0
 10
78.5154145564
 20
193.8807666407
 30
0.0
 10
77.8239859916
 20
194.4679445788
 30
0.0
 10
77.4456991389
 20
194.9605119382
 30
0.0
 10
77.2098925061
 20
195.4998530414
 30
0.0
 10
77.1560131968
 20
195.8799362077
 30
0.0
 10
77.1560112376
 20
196.0656404344
 30
0.0
  0
SPLINE
  5
42F
100
AcDbEntity
  8
0
100
AcDbSpline
 62
7
  6
CONTINUOUS
 70
0
 71
3
 72
13
 73
9
 74
0
 42
0.0000001
 43
0.0000001
 44
0.0000000001
 40
0.0
 40
0.0
 40
0.0
 40
0.0
 40
0.1034515788
 40
0.2106607524
 40
0.3244872747
 40
0.4464175357
 40
0.7129293771
 40
1.0
 40
1.0
 40
1.0
 40
1.0
 10
103.1560112376
 20
158.0940046931
 30
0.0
 10
103.1560092785
 20
157.908305218
 30
0.0
 10
103.2098949589
 20
157.5282330023
 30
0.0
 10
103.4456892024
 20
156.9889057171
 30
0.0
 10
103.823958323
 20
156.4963363493
 30
0.0
 10
104.5153864913
 20
155.9091471366
 30
0.0
 10
105.6418803707
 20
155.3997564118
 30
0.0
 10
106.6406559628
 20
155.2655777642
 30
0.0
 10
107.1559585287
 20
155.2655777642
 30
0.0
  0
SPLINE
  5
430
100
AcDbEntity
  8
0
100
AcDbSpline
 62
7
  6
CONTINUOUS
 70
0
 71
3
 72
13
 73
9
 74
0
 42
0.0000001
 43
0.0000001
 44
0.0000000001
 40
0.0
 40
0.0
 40
0.0
 40
0.0
 40
0.2785844272
 40
0.5430510499
 40
0.6669508378
 40
0.7842007377
 40
0.8949196084
 40
1.0
 40
1.0
 40
1.0
 40
1.0
 10
81.1559585287
 20
195.3725140448
 30
0.0
 10
81.5861141535
 20
195.3725140448
 30
0.0
 10
82.4276150367
 20
195.4674878888
 30
0.0
 10
83.4064337336
 20
195.8254829045
 30
0.0
 10
84.0685720885
 20
196.244059285
 30
0.0
 10
84.4788961594
 20
196.6040689341
 30
0.0
 10
84.8022281496
 20
197.0075181594
 30
0.0
 10
84.9568805009
 20
197.3058767105
 30
0.0
 10
85.0152301826
 20
197.4572737842
 30
0.0
  0
SPLINE
  5
431
100
AcDbEntity
  8
0
100
AcDbSpline
 62
7
  6
CONTINUOUS
 70
0
 71
3
 72
9
 73
5
 74
0
 42
0.0000001
 43
0.0000001
 44
0.0000000001
 40
0.0
 40
0.0
 40
0.0
 40
0.0
 40
0.2528311171
 40
1.0
 40
1.0
 40
1.0
 40
1.0
 10
85.0556700721
 20
197.5715568647
 30
0.0
 10
85.0695247277
 20
197.6145038103
 30
0.0
 10
85.1189563539
 20
197.7860455384
 30
0.0
 10
85.1463018053
 20
197.9640071808
 30
0.0
 10
85.1532498237
 20
198.097184008
 30
0.0
  0
SPLINE
  5
432
100
AcDbEntity
  8
0
100
AcDbSpline
 62
7
  6
CONTINUOUS
 70
0
 71
3
 72
11
 73
7
 74
0
 42
0.0000001
 43
0.0000001
 44
0.0000000001
 40
0.0
 40
0.0
 40
0.0
 40
0.0
 40
0.2754514815
 40
0.5367787945
 40
0.7784969756
 40
1.0
 40
1.0
 40
1.0
 40
1.0
 10
111.4128625153
 20
152.4171042003
 30
0.0
 10
111.5786222188
 20
152.4528192104
 30
0.0
 10
111.8939164374
 20
152.567800264
 30
0.0
 10
112.2853235649
 20
152.8555159932
 30
0.0
 10
112.5546836264
 20
153.2202836463
 30
0.0
 10
112.6354001775
 20
153.5027539612
 30
0.0
 10
112.643692247
 20
153.6388554372
 30
0.0
  0
SPLINE
  5
433
100
AcDbEntity
  8
0
100
AcDbSpline
 62
7
  6
CONTINUOUS
 70
0
 71
3
 72
13
 73
9
 74
0
 42
0.0000001
 43
0.0000001
 44
0.0000000001
 40
0.0
 40
0.0
 40
0.0
 40
0.0
 40
0.2870686002
 40
0.5535747957
 40
0.6755043702
 40
0.789333425
 40
0.8965458244
 40
1.0
 40
1.0
 40
1.0
 40
1.0
 10
108.8393585287
 20
143.5912436403
 30
0.0
 10
108.3240593691
 20
143.5912434959
 30
0.0
 10
107.3252969744
 20
143.7254173803
 30
0.0
 10
106.1988145743
 20
144.2347961408
 30
0.0
 10
105.5073859904
 20
144.8219738401
 30
0.0
 10
105.1290991317
 20
145.314541071
 30
0.0
 10
104.8932924989
 20
145.8538821
 30
0.0
 10
104.8394131968
 20
146.2339652328
 30
0.0
 10
104.8394112376
 20
146.4196694502
 30
0.0
  0
SPLINE
  5
434
100
AcDbEntity
  8
0
100
AcDbSpline
 62
7
  6
CONTINUOUS
 70
0
 71
3
 72
11
 73
7
 74
0
 42
0.0000001
 43
0.0000001
 44
0.0000000001
 40
0.0
 40
0.0
 40
0.0
 40
0.0
 40
0.2308729213
 40
0.4874095887
 40
0.7510118586
 40
1.0
 40
1.0
 40
1.0
 40
1.0
 10
90.5013176182
 20
138.2752855666
 30
0.0
 10
90.4171412045
 20
138.1893895231
 30
0.0
 10
90.1961733682
 20
138.0496728566
 30
0.0
 10
89.8103910691
 20
137.957884054
 30
0.0
 10
89.4051132494
 20
137.9779464492
 30
0.0
 10
89.1484816774
 20
138.0704843851
 30
0.0
 10
89.0369364089
 20
138.1366680374
 30
0.0
  0
SPLINE
  5
435
100
AcDbEntity
  8
0
100
AcDbSpline
 62
7
  6
CONTINUOUS
 70
0
 71
3
 72
13
 73
9
 74
0
 42
0.0000001
 43
0.0000001
 44
0.0000000001
 40
0.0
 40
0.0
 40
0.0
 40
0.0
 40
0.103448686
 40
0.2106772725
 40
0.3244994642
 40
0.4464318712
 40
0.7129393692
 40
1.0
 40
1.0
 40
1.0
 40
1.0
 10
85.155958253
 20
196.0656397413
 30
0.0
 10
85.155958253
 20
195.8799450593
 30
0.0
 10
85.1020245828
 20
195.4998514943
 30
0.0
 10
84.8662456686
 20
194.9604886133
 30
0.0
 10
84.4878750323
 20
194.4679555769
 30
0.0
 10
83.7964955842
 20
193.8807360837
 30
0.0
 10
82.6699885056
 20
193.3713888794
 30
0.0
 10
81.6712442673
 20
193.237213113
 30
0.0
 10
81.1559585287
 20
193.2372131576
 30
0.0
  0
SPLINE
  5
436
100
AcDbEntity
  8
0
100
AcDbSpline
 62
7
  6
CONTINUOUS
 70
0
 71
3
 72
12
 73
8
 74
0
 42
0.0000001
 43
0.0000001
 44
0.0000000001
 40
0.0
 40
0.0
 40
0.0
 40
0.0
 40
0.2184558636
 40
0.3423423753
 40
0.4735282915
 40
0.7434856203
 40
1.0
 40
1.0
 40
1.0
 40
1.0
 10
81.1912692208
 20
136.6184194277
 30
0.0
 10
81.1325992109
 20
136.504438158
 30
0.0
 10
80.9806395747
 20
136.3557710222
 30
0.0
 10
80.731227174
 20
136.2323482836
 30
0.0
 10
80.4327399961
 20
136.1487066464
 30
0.0
 10
80.0398199277
 20
136.1427440585
 30
0.0
 10
79.7382445473
 20
136.241780967
 30
0.0
 10
79.6087887167
 20
136.3185922613
 30
0.0
  0
SPLINE
  5
437
100
AcDbEntity
  8
0
100
AcDbSpline
 62
7
  6
CONTINUOUS
 70
0
 71
3
 72
13
 73
9
 74
0
 42
0.0000001
 43
0.0000001
 44
0.0000000001
 40
0.0
 40
0.0
 40
0.0
 40
0.0
 40
0.1054743427
 40
0.2140737826
 40
0.3281182888
 40
0.4492129216
 40
0.7128045923
 40
1.0
 40
1.0
 40
1.0
 40
1.0
 10
84.6502752407
 20
198.7935894188
 30
0.0
 10
84.6502752407
 20
198.9372046844
 30
0.0
 10
84.6135854803
 20
199.2298659299
 30
0.0
 10
84.452385635
 20
199.6506360438
 30
0.0
 10
84.1910285967
 20
200.0431240921
 30
0.0
 10
83.7087611781
 20
200.5264002858
 30
0.0
 10
82.9016432681
 20
200.9904235831
 30
0.0
 10
82.1655537856
 20
201.1753875525
 30
0.0
 10
81.7776659434
 20
201.2250101795
 30
0.0
  0
SPLINE
  5
438
100
AcDbEntity
  8
0
100
AcDbSpline
 62
7
  6
CONTINUOUS
 70
0
 71
3
 72
13
 73
9
 74
0
 42
0.0000001
 43
0.0000001
 44
0.0000000001
 40
0.0
 40
0.0
 40
0.0
 40
0.0
 40
0.2871954077
 40
0.5507870784
 40
0.6718817112
 40
0.7859262174
 40
0.8945256573
 40
1.0
 40
1.0
 40
1.0
 40
1.0
 10
80.5342511141
 20
201.2250101795
 30
0.0
 10
80.1463632718
 20
201.1753875525
 30
0.0
 10
79.4102737893
 20
200.9904235831
 30
0.0
 10
78.6031558793
 20
200.5264002858
 30
0.0
 10
78.1208884608
 20
200.0431240921
 30
0.0
 10
77.8595314225
 20
199.6506360438
 30
0.0
 10
77.6983315772
 20
199.2298659299
 30
0.0
 10
77.6616418167
 20
198.9372046844
 30
0.0
 10
77.6616418167
 20
198.7935894188
 30
0.0
  0
SPLINE
  5
439
100
AcDbEntity
  8
0
100
AcDbSpline
 62
7
  6
CONTINUOUS
 70
0
 71
3
 72
13
 73
9
 74
0
 42
0.0000001
 43
0.0000001
 44
0.0000000001
 40
0.0
 40
0.0
 40
0.0
 40
0.0
 40
0.1034515788
 40
0.2106607524
 40
0.3244872747
 40
0.4464175357
 40
0.7129293771
 40
1.0
 40
1.0
 40
1.0
 40
1.0
 10
77.1560112376
 20
196.7798166919
 30
0.0
 10
77.1560092785
 20
196.5941172167
 30
0.0
 10
77.2098949589
 20
196.214045001
 30
0.0
 10
77.4456892024
 20
195.6747177158
 30
0.0
 10
77.823958323
 20
195.182148348
 30
0.0
 10
78.5153864913
 20
194.5949591353
 30
0.0
 10
79.6418803707
 20
194.0855684105
 30
0.0
 10
80.6406559628
 20
193.951389763
 30
0.0
 10
81.1559585287
 20
193.951389763
 30
0.0
  0
SPLINE
  5
43A
100
AcDbEntity
  8
0
100
AcDbSpline
 62
7
  6
CONTINUOUS
 70
0
 71
3
 72
9
 73
5
 74
0
 42
0.0000001
 43
0.0000001
 44
0.0000000001
 40
0.0
 40
0.0
 40
0.0
 40
0.0
 40
0.2432563317
 40
1.0
 40
1.0
 40
1.0
 40
1.0
 10
86.4501871628
 20
191.9248043988
 30
0.0
 10
86.4118490922
 20
191.909152947
 30
0.0
 10
86.2508621045
 20
191.8532806129
 30
0.0
 10
86.0790086443
 20
191.8300700533
 30
0.0
 10
85.9501871628
 20
191.8300700533
 30
0.0
  0
SPLINE
  5
43B
100
AcDbEntity
  8
0
100
AcDbSpline
 62
7
  6
CONTINUOUS
 70
0
 71
3
 72
9
 73
5
 74
0
 42
0.0000001
 43
0.0000001
 44
0.0000000001
 40
0.0
 40
0.0
 40
0.0
 40
0.0
 40
0.2424122914
 40
1.0
 40
1.0
 40
1.0
 40
1.0
 10
82.8930642492
 20
194.803733463
 30
0.0
 10
82.7614517181
 20
194.7458597095
 30
0.0
 10
82.2048936611
 20
194.5387623446
 30
0.0
 10
81.6052844149
 20
194.4530702862
 30
0.0
 10
81.1559585287
 20
194.4530702862
 30
0.0
  0
SPLINE
  5
43C
100
AcDbEntity
  8
0
100
AcDbSpline
 62
7
  6
CONTINUOUS
 70
0
 71
3
 72
9
 73
5
 74
0
 42
0.0000001
 43
0.0000001
 44
0.0000000001
 40
0.0
 40
0.0
 40
0.0
 40
0.0
 40
0.2481077343
 40
1.0
 40
1.0
 40
1.0
 40
1.0
 10
104.8420809645
 20
148.4509540492
 30
0.0
 10
104.8443928727
 20
148.4067521076
 30
0.0
 10
104.8596010939
 20
148.2289409399
 30
0.0
 10
104.8984642708
 20
148.053248781
 30
0.0
 10
104.9396469853
 20
147.9255897576
 30
0.0
  0
SPLINE
  5
43D
100
AcDbEntity
  8
0
100
AcDbSpline
 62
7
  6
CONTINUOUS
 70
0
 71
3
 72
13
 73
9
 74
0
 42
0.0000001
 43
0.0000001
 44
0.0000000001
 40
0.0
 40
0.0
 40
0.0
 40
0.0
 40
0.1050796152
 40
0.2157975783
 40
0.3330467831
 40
0.4569462713
 40
0.7214135964
 40
1.0
 40
1.0
 40
1.0
 40
1.0
 10
104.9800262493
 20
147.8114639969
 30
0.0
 10
105.0383660413
 20
147.6600581203
 30
0.0
 10
105.1930025849
 20
147.3616801772
 30
0.0
 10
105.5163228807
 20
146.9582018444
 30
0.0
 10
105.9266454895
 20
146.5981645764
 30
0.0
 10
106.5887955295
 20
146.1795539417
 30
0.0
 10
107.5676486588
 20
145.8215287079
 30
0.0
 10
108.4091843251
 20
145.7265469376
 30
0.0
 10
108.8393585287
 20
145.7265469376
 30
0.0
  0
SPLINE
  5
43E
100
AcDbEntity
  8
0
100
AcDbSpline
 62
7
  6
CONTINUOUS
 70
0
 71
3
 72
14
 73
10
 74
0
 42
0.0000001
 43
0.0000001
 44
0.0000000001
 40
0.0
 40
0.0
 40
0.0
 40
0.0
 40
0.1065301716
 40
0.2211178836
 40
0.3435056404
 40
0.4722634343
 40
0.6051417645
 40
0.7394138714
 40
1.0
 40
1.0
 40
1.0
 40
1.0
 10
97.6103134279
 20
191.1229650588
 30
0.0
 10
97.4310475557
 20
191.3995215991
 30
0.0
 10
96.9831454979
 20
191.9264362928
 30
0.0
 10
96.1316503962
 20
192.5732404607
 30
0.0
 10
95.1139578525
 20
193.0812657029
 30
0.0
 10
93.9732915841
 20
193.430347007
 30
0.0
 10
92.7561338659
 20
193.6069079829
 30
0.0
 10
91.1203279632
 20
193.6033291564
 30
0.0
 10
89.9023387478
 20
193.3341422703
 30
0.0
 10
89.1559585026
 20
193.0294358657
 30
0.0
  0
SPLINE
  5
43F
100
AcDbEntity
  8
0
100
AcDbSpline
 62
7
  6
CONTINUOUS
 70
0
 71
3
 72
13
 73
9
 74
0
 42
0.0000001
 43
0.0000001
 44
0.0000000001
 40
0.0
 40
0.0
 40
0.0
 40
0.0
 40
0.1034515788
 40
0.2106607524
 40
0.3244872747
 40
0.4464175357
 40
0.7129293771
 40
1.0
 40
1.0
 40
1.0
 40
1.0
 10
90.1560112376
 20
157.7404513025
 30
0.0
 10
90.1560092785
 20
157.5547518274
 30
0.0
 10
90.2098949589
 20
157.1746796117
 30
0.0
 10
90.4456892024
 20
156.6353523265
 30
0.0
 10
90.823958323
 20
156.1427829587
 30
0.0
 10
91.5153864913
 20
155.555593746
 30
0.0
 10
92.6418803707
 20
155.0462030212
 30
0.0
 10
93.6406559628
 20
154.9120243736
 30
0.0
 10
94.1559585287
 20
154.9120243736
 30
0.0
  0
SPLINE
  5
440
100
AcDbEntity
  8
0
100
AcDbSpline
 62
7
  6
CONTINUOUS
 70
0
 71
3
 72
9
 73
5
 74
0
 42
0.0000001
 43
0.0000001
 44
0.0000000001
 40
0.0
 40
0.0
 40
0.0
 40
0.0
 40
0.2481077343
 40
1.0
 40
1.0
 40
1.0
 40
1.0
 10
77.1586809645
 20
198.0969211563
 30
0.0
 10
77.1609928727
 20
198.0527192147
 30
0.0
 10
77.1762010939
 20
197.874908047
 30
0.0
 10
77.2150642708
 20
197.6992158881
 30
0.0
 10
77.2562469853
 20
197.5715568647
 30
0.0
  0
SPLINE
  5
441
100
AcDbEntity
  8
0
100
AcDbSpline
 62
7
  6
CONTINUOUS
 70
0
 71
3
 72
13
 73
9
 74
0
 42
0.0000001
 43
0.0000001
 44
0.0000000001
 40
0.0
 40
0.0
 40
0.0
 40
0.0
 40
0.1050803916
 40
0.2157992623
 40
0.3330491622
 40
0.4569489501
 40
0.7214155728
 40
1.0
 40
1.0
 40
1.0
 40
1.0
 10
77.2966868748
 20
197.4572737842
 30
0.0
 10
77.3550365565
 20
197.3058767105
 30
0.0
 10
77.5096889078
 20
197.0075181594
 30
0.0
 10
77.8330208981
 20
196.6040689341
 30
0.0
 10
78.243344969
 20
196.244059285
 30
0.0
 10
78.9054833238
 20
195.8254829045
 30
0.0
 10
79.8843020208
 20
195.4674878888
 30
0.0
 10
80.7258029039
 20
195.3725140448
 30
0.0
 10
81.1559585287
 20
195.3725140448
 30
0.0
  0
SPLINE
  5
442
100
AcDbEntity
  8
0
100
AcDbSpline
 62
7
  6
CONTINUOUS
 70
0
 71
3
 72
9
 73
5
 74
0
 42
0.0000001
 43
0.0000001
 44
0.0000000001
 40
0.0
 40
0.0
 40
0.0
 40
0.0
 40
0.2481077343
 40
1.0
 40
1.0
 40
1.0
 40
1.0
 10
90.1586809645
 20
159.057555767
 30
0.0
 10
90.1609928727
 20
159.0133538254
 30
0.0
 10
90.1762010939
 20
158.8355426577
 30
0.0
 10
90.2150642708
 20
158.6598504988
 30
0.0
 10
90.2562469853
 20
158.5321914754
 30
0.0
  0
SPLINE
  5
443
100
AcDbEntity
  8
0
100
AcDbSpline
 62
7
  6
CONTINUOUS
 70
0
 71
3
 72
13
 73
9
 74
0
 42
0.0000001
 43
0.0000001
 44
0.0000000001
 40
0.0
 40
0.0
 40
0.0
 40
0.0
 40
0.1050796152
 40
0.2157975783
 40
0.3330467831
 40
0.4569462713
 40
0.7214135964
 40
1.0
 40
1.0
 40
1.0
 40
1.0
 10
90.2966262493
 20
158.4180657147
 30
0.0
 10
90.3549660413
 20
158.266659838
 30
0.0
 10
90.5096025849
 20
157.968281895
 30
0.0
 10
90.8329228807
 20
157.5648035622
 30
0.0
 10
91.2432454895
 20
157.2047662942
 30
0.0
 10
91.9053955295
 20
156.7861556595
 30
0.0
 10
92.8842486588
 20
156.4281304257
 30
0.0
 10
93.7257843251
 20
156.3331486554
 30
0.0
 10
94.1559585287
 20
156.3331486554
 30
0.0
  0
SPLINE
  5
444
100
AcDbEntity
  8
0
100
AcDbSpline
 62
7
  6
CONTINUOUS
 70
0
 71
3
 72
9
 73
5
 74
0
 42
0.0000001
 43
0.0000001
 44
0.0000000001
 40
0.0
 40
0.0
 40
0.0
 40
0.0
 40
0.2424122914
 40
1.0
 40
1.0
 40
1.0
 40
1.0
 10
110.5764642492
 20
145.1577663559
 30
0.0
 10
110.4448517181
 20
145.0998926024
 30
0.0
 10
109.8882936611
 20
144.8927952375
 30
0.0
 10
109.2886844149
 20
144.8071031791
 30
0.0
 10
108.8393585287
 20
144.8071031791
 30
0.0
  0
SPLINE
  5
445
100
AcDbEntity
  8
0
100
AcDbSpline
 62
7
  6
CONTINUOUS
 70
0
 71
3
 72
9
 73
5
 74
0
 42
0.0000001
 43
0.0000001
 44
0.0000000001
 40
0.0
 40
0.0
 40
0.0
 40
0.0
 40
0.2424122914
 40
1.0
 40
1.0
 40
1.0
 40
1.0
 10
95.8930642492
 20
155.7643680737
 30
0.0
 10
95.7614517181
 20
155.7064943202
 30
0.0
 10
95.2048936611
 20
155.4993969553
 30
0.0
 10
94.6052844149
 20
155.4137048969
 30
0.0
 10
94.1559585287
 20
155.4137048969
 30
0.0
  0
SPLINE
  5
446
100
AcDbEntity
  8
0
100
AcDbSpline
 62
7
  6
CONTINUOUS
 70
0
 71
3
 72
9
 73
5
 74
0
 42
0.0000001
 43
0.0000001
 44
0.0000000001
 40
0.0
 40
0.0
 40
0.0
 40
0.0
 40
0.2481077343
 40
1.0
 40
1.0
 40
1.0
 40
1.0
 10
103.1586809645
 20
159.4111091576
 30
0.0
 10
103.1609928727
 20
159.366907216
 30
0.0
 10
103.1762010939
 20
159.1890960483
 30
0.0
 10
103.2150642708
 20
159.0134038894
 30
0.0
 10
103.2562469853
 20
158.885744866
 30
0.0
  0
SPLINE
  5
447
100
AcDbEntity
  8
0
100
AcDbSpline
 62
7
  6
CONTINUOUS
 70
0
 71
3
 72
13
 73
9
 74
0
 42
0.0000001
 43
0.0000001
 44
0.0000000001
 40
0.0
 40
0.0
 40
0.0
 40
0.0
 40
0.1050796152
 40
0.2157975783
 40
0.3330467831
 40
0.4569462713
 40
0.7214135964
 40
1.0
 40
1.0
 40
1.0
 40
1.0
 10
103.2966262493
 20
158.7716191053
 30
0.0
 10
103.3549660413
 20
158.6202132286
 30
0.0
 10
103.5096025849
 20
158.3218352856
 30
0.0
 10
103.8329228807
 20
157.9183569528
 30
0.0
 10
104.2432454895
 20
157.5583196848
 30
0.0
 10
104.9053955295
 20
157.13970905
 30
0.0
 10
105.8842486588
 20
156.7816838163
 30
0.0
 10
106.7257843251
 20
156.686702046
 30
0.0
 10
107.1559585287
 20
156.686702046
 30
0.0
  0
SPLINE
  5
448
100
AcDbEntity
  8
0
100
AcDbSpline
 62
7
  6
CONTINUOUS
 70
0
 71
3
 72
13
 73
9
 74
0
 42
0.0000001
 43
0.0000001
 44
0.0000000001
 40
0.0
 40
0.0
 40
0.0
 40
0.0
 40
0.1034515788
 40
0.2106607524
 40
0.3244872747
 40
0.4464175357
 40
0.7129293771
 40
1.0
 40
1.0
 40
1.0
 40
1.0
 10
104.8394112376
 20
147.1338495847
 30
0.0
 10
104.8394092785
 20
146.9481501096
 30
0.0
 10
104.8932949589
 20
146.5680778939
 30
0.0
 10
105.1290892024
 20
146.0287506087
 30
0.0
 10
105.507358323
 20
145.5361812409
 30
0.0
 10
106.1987864913
 20
144.9489920282
 30
0.0
 10
107.3252803707
 20
144.4396013034
 30
0.0
 10
108.3240559628
 20
144.3054226558
 30
0.0
 10
108.8393585287
 20
144.3054226558
 30
0.0
  0
SPLINE
  5
449
100
AcDbEntity
  8
0
100
AcDbSpline
 62
7
  6
CONTINUOUS
 70
0
 71
3
 72
13
 73
9
 74
0
 42
0.0000001
 43
0.0000001
 44
0.0000000001
 40
0.0
 40
0.0
 40
0.0
 40
0.0
 40
0.1034515738
 40
0.2106607489
 40
0.3244872766
 40
0.4464175439
 40
0.712929391
 40
1.0
 40
1.0
 40
1.0
 40
1.0
 10
112.8393058198
 20
146.4196716901
 30
0.0
 10
112.839307779
 20
146.2339722078
 30
0.0
 10
112.785422093
 20
145.8538999664
 30
0.0
 10
112.5496278495
 20
145.3145726246
 30
0.0
 10
112.1713587336
 20
144.8220031586
 30
0.0
 10
111.4799305799
 20
144.2348137635
 30
0.0
 10
110.3534367391
 20
143.725422728
 30
0.0
 10
109.3546611145
 20
143.5912437847
 30
0.0
 10
108.8393585287
 20
143.5912436403
 30
0.0
  0
SPLINE
  5
44A
100
AcDbEntity
  8
0
100
AcDbSpline
 62
7
  6
CONTINUOUS
 70
0
 71
3
 72
9
 73
5
 74
0
 42
0.0000001
 43
0.0000001
 44
0.0000000001
 40
0.0
 40
0.0
 40
0.0
 40
0.0
 40
0.2424122914
 40
1.0
 40
1.0
 40
1.0
 40
1.0
 10
108.8930642492
 20
156.1179214643
 30
0.0
 10
108.7614517181
 20
156.0600477108
 30
0.0
 10
108.2048936611
 20
155.8529503459
 30
0.0
 10
107.6052844149
 20
155.7672582875
 30
0.0
 10
107.1559585287
 20
155.7672582875
 30
0.0
  0
SPLINE
  5
44B
100
AcDbEntity
  8
0
100
AcDbSpline
 62
7
  6
CONTINUOUS
 70
0
 71
3
 72
19
 73
15
 74
0
 42
0.0000001
 43
0.0000001
 44
0.0000000001
 40
0.0
 40
0.0
 40
0.0
 40
0.0
 40
0.0517190809
 40
0.105339288
 40
0.1622479039
 40
0.2232156281
 40
0.356475455
 40
0.5
 40
0.643524545
 40
0.7767843719
 40
0.8377520961
 40
0.894660712
 40
0.9482809191
 40
1.0
 40
1.0
 40
1.0
 40
1.0
 10
77.6616418167
 20
198.7935894188
 30
0.0
 10
77.6616418167
 20
198.6313870837
 30
0.0
 10
77.7087828437
 20
198.2993505013
 30
0.0
 10
77.9147019529
 20
197.8281593977
 30
0.0
 10
78.2452855389
 20
197.3978972729
 30
0.0
 10
78.8491674692
 20
196.884873583
 30
0.0
 10
79.8339362097
 20
196.4399453012
 30
0.0
 10
81.1559585287
 20
196.2619895645
 30
0.0
 10
82.4779808478
 20
196.4399453012
 30
0.0
 10
83.4627495882
 20
196.884873583
 30
0.0
 10
84.0666315186
 20
197.3978972729
 30
0.0
 10
84.3972151045
 20
197.8281593977
 30
0.0
 10
84.6031342138
 20
198.2993505013
 30
0.0
 10
84.6502752407
 20
198.6313870837
 30
0.0
 10
84.6502752407
 20
198.7935894188
 30
0.0
  0
SPLINE
  5
44C
100
AcDbEntity
  8
0
100
AcDbSpline
 62
7
  6
CONTINUOUS
 70
0
 71
3
 72
9
 73
5
 74
0
 42
0.0000001
 43
0.0000001
 44
0.0000000001
 40
0.0
 40
0.0
 40
0.0
 40
0.0
 40
0.3064778142
 40
1.0
 40
1.0
 40
1.0
 40
1.0
 10
101.6260149668
 20
202.4417963307
 30
0.0
 10
101.6262031229
 20
202.4699687396
 30
0.0
 10
101.6268680822
 20
202.5618914109
 30
0.0
 10
101.6276617051
 20
202.6538140634
 30
0.0
 10
101.6285458155
 20
202.7175601047
 30
0.0
  0
SPLINE
  5
44D
100
AcDbEntity
  8
0
100
AcDbSpline
 62
7
  6
CONTINUOUS
 70
0
 71
3
 72
14
 73
10
 74
0
 42
0.0000001
 43
0.0000001
 44
0.0000000001
 40
0.0
 40
0.0
 40
0.0
 40
0.0
 40
0.4355538686
 40
0.6072580758
 40
0.7480666204
 40
0.8578465709
 40
0.9364705211
 40
0.9838312737
 40
1.0
 40
1.0
 40
1.0
 40
1.0
 10
101.6285458155
 20
202.7175601047
 30
0.0
 10
101.6287528314
 20
202.7324863444
 30
0.0
 10
101.6290550676
 20
202.7533217192
 30
0.0
 10
101.629603718
 20
202.7788994331
 30
0.0
 10
101.6298888915
 20
202.7934830241
 30
0.0
 10
101.6304182768
 20
202.8044641116
 30
0.0
 10
101.6303530145
 20
202.8132109823
 30
0.0
 10
101.6313814096
 20
202.8168849807
 30
0.0
 10
101.6308899291
 20
202.8202961823
 30
0.0
 10
101.6314440775
 20
202.8202961823
 30
0.0
  0
SPLINE
  5
44E
100
AcDbEntity
  8
0
100
AcDbSpline
 62
7
  6
CONTINUOUS
 70
0
 71
3
 72
13
 73
9
 74
0
 42
0.0000001
 43
0.0000001
 44
0.0000000001
 40
0.0
 40
0.0
 40
0.0
 40
0.0
 40
0.2870685863
 40
0.5535747875
 40
0.6755043683
 40
0.7893334285
 40
0.8965458294
 40
1.0
 40
1.0
 40
1.0
 40
1.0
 10
81.1559585287
 20
193.951389763
 30
0.0
 10
81.6712577082
 20
193.951389763
 30
0.0
 10
82.6700201354
 20
194.0855639431
 30
0.0
 10
83.7965024968
 20
194.5949430142
 30
0.0
 10
84.4879310661
 20
195.182120896
 30
0.0
 10
84.8662179202
 20
195.6746882251
 30
0.0
 10
85.1020245531
 20
196.2140293108
 30
0.0
 10
85.1559038607
 20
196.5941124692
 30
0.0
 10
85.1559058198
 20
196.7798166937
 30
0.0
  0
SPLINE
  5
44F
100
AcDbEntity
  8
0
100
AcDbSpline
 62
7
  6
CONTINUOUS
 70
0
 71
3
 72
9
 73
5
 74
0
 42
0.0000001
 43
0.0000001
 44
0.0000000001
 40
0.0
 40
0.0
 40
0.0
 40
0.0
 40
0.2564059849
 40
1.0
 40
1.0
 40
1.0
 40
1.0
 10
81.1559585287
 20
194.4530702862
 30
0.0
 10
81.0042533571
 20
194.4530702862
 30
0.0
 10
80.4132458454
 20
194.4820297623
 30
0.0
 10
79.8255199422
 20
194.6254414219
 30
0.0
 10
79.4225878965
 20
194.8020937359
 30
0.0
  0
SPLINE
  5
450
100
AcDbEntity
  8
0
100
AcDbSpline
 62
7
  6
CONTINUOUS
 70
0
 71
3
 72
19
 73
15
 74
0
 42
0.0000001
 43
0.0000001
 44
0.0000000001
 40
0.0
 40
0.0
 40
0.0
 40
0.0
 40
0.0517190809
 40
0.105339288
 40
0.1622479039
 40
0.2232156281
 40
0.356475455
 40
0.5
 40
0.643524545
 40
0.7767843719
 40
0.8377520961
 40
0.894660712
 40
0.9482809191
 40
1.0
 40
1.0
 40
1.0
 40
1.0
 10
90.6616418167
 20
159.7542240295
 30
0.0
 10
90.6616418167
 20
159.5920216943
 30
0.0
 10
90.7087828437
 20
159.259985112
 30
0.0
 10
90.9147019529
 20
158.7887940084
 30
0.0
 10
91.2452855389
 20
158.3585318836
 30
0.0
 10
91.8491674692
 20
157.8455081937
 30
0.0
 10
92.8339362097
 20
157.4005799119
 30
0.0
 10
94.1559585287
 20
157.2226241752
 30
0.0
 10
95.4779808478
 20
157.4005799119
 30
0.0
 10
96.4627495882
 20
157.8455081937
 30
0.0
 10
97.0666315186
 20
158.3585318836
 30
0.0
 10
97.3972151045
 20
158.7887940084
 30
0.0
 10
97.6031342138
 20
159.259985112
 30
0.0
 10
97.6502752407
 20
159.5920216943
 30
0.0
 10
97.6502752407
 20
159.7542240295
 30
0.0
  0
SPLINE
  5
451
100
AcDbEntity
  8
0
100
AcDbSpline
 62
7
  6
CONTINUOUS
 70
0
 71
3
 72
13
 73
9
 74
0
 42
0.0000001
 43
0.0000001
 44
0.0000000001
 40
0.0
 40
0.0
 40
0.0
 40
0.0
 40
0.1054743427
 40
0.2140737826
 40
0.3281182888
 40
0.4492129216
 40
0.7128045923
 40
1.0
 40
1.0
 40
1.0
 40
1.0
 10
97.6502752407
 20
159.7542240295
 30
0.0
 10
97.6502752407
 20
159.897839295
 30
0.0
 10
97.6135854803
 20
160.1905005406
 30
0.0
 10
97.452385635
 20
160.6112706545
 30
0.0
 10
97.1910285967
 20
161.0037587028
 30
0.0
 10
96.7087611781
 20
161.4870348965
 30
0.0
 10
95.9016432681
 20
161.9510581938
 30
0.0
 10
95.1655537856
 20
162.1360221632
 30
0.0
 10
94.7776659434
 20
162.1856447902
 30
0.0
  0
SPLINE
  5
452
100
AcDbEntity
  8
0
100
AcDbSpline
 62
7
  6
CONTINUOUS
 70
0
 71
3
 72
13
 73
9
 74
0
 42
0.0000001
 43
0.0000001
 44
0.0000000001
 40
0.0
 40
0.0
 40
0.0
 40
0.0
 40
0.2871954077
 40
0.5507870784
 40
0.6718817112
 40
0.7859262174
 40
0.8945256573
 40
1.0
 40
1.0
 40
1.0
 40
1.0
 10
93.5342511141
 20
162.1856447902
 30
0.0
 10
93.1463632718
 20
162.1360221632
 30
0.0
 10
92.4102737893
 20
161.9510581938
 30
0.0
 10
91.6031558793
 20
161.4870348965
 30
0.0
 10
91.1208884608
 20
161.0037587028
 30
0.0
 10
90.8595314225
 20
160.6112706545
 30
0.0
 10
90.6983315772
 20
160.1905005406
 30
0.0
 10
90.6616418167
 20
159.897839295
 30
0.0
 10
90.6616418167
 20
159.7542240295
 30
0.0
  0
SPLINE
  5
453
100
AcDbEntity
  8
0
100
AcDbSpline
 62
7
  6
CONTINUOUS
 70
0
 71
3
 72
17
 73
13
 74
0
 42
0.0000001
 43
0.0000001
 44
0.0000000001
 40
0.0
 40
0.0
 40
0.0
 40
0.0
 40
0.0626046605
 40
0.1252307151
 40
0.2501530491
 40
0.3750762563
 40
0.5000015847
 40
0.6249262304
 40
0.7498497325
 40
0.8747710107
 40
0.9373952348
 40
1.0
 40
1.0
 40
1.0
 40
1.0
 10
99.6559585287
 20
88.9899637681
 30
0.0
 10
98.4037618467
 20
88.9882952372
 30
0.0
 10
95.8951614868
 20
88.8142598827
 30
0.0
 10
90.9874429804
 20
87.7764088429
 30
0.0
 10
85.1933884846
 20
85.2055914528
 30
0.0
 10
79.3701136289
 20
80.3354140785
 30
0.0
 10
75.1070535367
 20
74.0508471427
 30
0.0
 10
72.7377561468
 20
66.8358427777
 30
0.0
 10
72.4416083243
 20
59.2502954513
 30
0.0
 10
73.9471871287
 20
53.0929630978
 30
0.0
 10
76.1252062425
 20
48.5741923901
 30
0.0
 10
77.5208505529
 20
46.4825513604
 30
0.0
 10
78.2842478605
 20
45.4899642798
 30
0.0
  0
SPLINE
  5
454
100
AcDbEntity
  8
0
100
AcDbSpline
 62
7
  6
CONTINUOUS
 70
0
 71
3
 72
17
 73
13
 74
0
 42
0.0000001
 43
0.0000001
 44
0.0000000001
 40
0.0
 40
0.0
 40
0.0
 40
0.0
 40
0.0626050637
 40
0.1252301227
 40
0.2501519711
 40
0.3750748759
 40
0.4999978016
 40
0.6249214777
 40
0.749844501
 40
0.8747678828
 40
0.9373948339
 40
1.0
 40
1.0
 40
1.0
 40
1.0
 10
121.027669313
 20
45.4899644302
 30
0.0
 10
121.7911138938
 20
46.4825226333
 30
0.0
 10
123.186720267
 20
48.5742236647
 30
0.0
 10
125.3647465585
 20
53.0930208588
 30
0.0
 10
126.8703158866
 20
59.2503765383
 30
0.0
 10
126.574148828
 20
66.8358865881
 30
0.0
 10
124.2048696874
 20
74.0508077716
 30
0.0
 10
119.9418774269
 20
80.3353342798
 30
0.0
 10
114.1186300857
 20
85.2055075973
 30
0.0
 10
108.3245753733
 20
87.7764283273
 30
0.0
 10
103.4167864213
 20
88.8142176268
 30
0.0
 10
100.9081651972
 20
88.988231287
 30
0.0
 10
99.6559585287
 20
88.9899637681
 30
0.0
  0
ELLIPSE
  5
455
100
AcDbEntity
  8
0
100
AcDbEllipse
 62
7
  6
CONTINUOUS
 10
75.1559585287
 20
199.5607227674
 30
0.0
 11
0.0
 21
3.620168505
 31
0.0
 40
0.8286907076
 41
1.0433474368
 42
1.1099305104
  0
ELLIPSE
  5
456
100
AcDbEntity
  8
0
100
AcDbEllipse
 62
7
  6
CONTINUOUS
 10
71.1386080116
 20
199.8399479702
 30
0.0
 11
0.0
 21
3.0000260977
 31
0.0
 40
0.002493175
 41
-1.2217252196
 42
-0.0000000002
  0
ENDSEC
  0
SECTION
  2
OBJECTS
  0
DICTIONARY
  5
C
100
AcDbDictionary
280
0
281
1
  3
ACAD_GROUP
350
D
  3
ACAD_MLINESTYLE
350
17
  3
ACAD_LAYOUT
350
1A
  3
ACAD_PLOTSETTINGS
350
19
  3
ACAD_PLOTSTYLENAME
350
E
  0
DICTIONARY
  5
D
102
{ACAD_REACTORS
330
C
102
}
100
AcDbDictionary
280
0
281
1
  0
ACDBDICTIONARYWDFLT
  5
E
102
{ACAD_REACTORS
330
C
102
}
100
AcDbDictionary
281
1
  3
Normal
350
F
100
AcDbDictionaryWithDefault
340
F
  0
DICTIONARY
  5
17
102
{ACAD_REACTORS
330
C
102
}
100
AcDbDictionary
280
0
281
1
  3
Standard
350
18
  0
DICTIONARY
  5
19
102
{ACAD_REACTORS
330
C
102
}
100
AcDbDictionary
281
1
  0
DICTIONARY
  5
1A
102
{ACAD_REACTORS
330
C
102
}
100
AcDbDictionary
281
1
  3
Model
350
457
  3
Layout1
350
458
  0
ACDBPLACEHOLDER
  5
F
102
{ACAD_REACTORS
330
E
102
}
  0
MLINESTYLE
  5
18
102
{ACAD_REACTORS
330
17
102
}
100
AcDbMlineStyle
  2
STANDARD
 70
0
  3

 62
256
 51
90.0
 52
90.0
 71
2
 49
0.5
 62
256
  6
BYLAYER
 49
-0.5
 62
256
  6
BYLAYER
  0
LAYOUT
  5
457
102
{ACAD_REACTORS
330
1A
102
}
100
AcDbPlotSettings
  1

  2
none_device
  4

  6

 40
0.0
 41
0.0
 42
0.0
 43
0.0
 44
210.0
 45
297.0
 46
0.0
 47
0.0
 48
0.0
 49
0.0
140
0.0
141
0.0
142
1.0
143
1.0
 70
1024
 72
1
 73
0
 74
0
  7

 75
0
147
1.0
148
0.0
149
0.0
100
AcDbLayout
  1
Model
 70
0
 71
0
 10
0.0
 20
0.0
 11
210.0
 21
297.0
 12
0.0
 22
0.0
 32
0.0
 14
0.0
 24
0.0
 34
0.0
 15
0.0
 25
0.0
 35
0.0
146
0.0
 13
0.0
 23
0.0
 33
0.0
 16
1.0
 26
0.0
 36
0.0
 17
0.0
 27
1.0
 37
0.0
 76
0
330
210
345
0
346
0
  0
LAYOUT
  5
458
102
{ACAD_REACTORS
330
1A
102
}
100
AcDbPlotSettings
  1

  2
none_device
  4

  6

 40
0.0
 41
0.0
 42
0.0
 43
0.0
 44
210.0
 45
297.0
 46
0.0
 47
0.0
 48
0.0
 49
0.0
140
0.0
141
0.0
142
1.0
143
1.0
 70
0
 72
1
 73
0
 74
0
  7

 75
0
147
1.0
148
0.0
149
0.0
100
AcDbLayout
  1
Layout1
 70
0
 71
1
 10
0.0
 20
0.0
 11
210.0
 21
297.0
 12
0.0
 22
0.0
 32
0.0
 14
0.0
 24
0.0
 34
0.0
 15
0.0
 25
0.0
 35
0.0
146
0.0
 13
0.0
 23
0.0
 33
0.0
 16
1.0
 26
0.0
 36
0.0
 17
0.0
 27
1.0
 37
0.0
 76
0
330
211
345
0
346
0
  0
ENDSEC
  0
EOF
