999
DXF file: C:\Users\sesa63760\Dev\_Creo\CAD\MCADPP0003089_3D-CAD\drw0001_4.dxf
999
Pro/ENGINEER 2019471 by Parametric Technology Corporation
  0
SECTION
  2
HEADER
  9
$ACADVER
  1
AC1024
  9
$DWGCODEPAGE
  3
ANSI_1252
  9
$EXTMAX
 10
184.9935148903
 20
261.6336853448
 30
0.0
  9
$EXTMIN
 10
0.0
 20
0.0
 30
0.0
  9
$LIMMIN
 10
0.0
 20
0.0
  9
$LIMMAX
 10
184.9935148903
 20
261.6336853448
  9
$VIEWCTR
 10
92.4967574451
 20
130.8168426724
  9
$VIEWSIZE
 40
261.6336853448
  9
$CLAYER
  8
0
  9
$LTSCALE
 40
17.0546402299
  9
$CELTYPE
  6
BYLAYER
  9
$DIMSCALE
 40
1.0
  9
$DIMASZ
 40
2.2023037487
  9
$DIMEXO
 40
1.0
  9
$DIMDLI
 40
11.783205977
  9
$DIMEXE
 40
1.0
  9
$DIMCEN
 40
2.7907593103
  9
$DIMLFAC
 40
1.0
  9
$DIMBLK
  1
_FILLED
  9
$DIMALT
 70
0
  9
$DIMALTF
 40
0.0393700787
  9
$DIMTXT
 40
3.0832252482
  9
$DIMTOL
 70
1
  9
$DIMLIM
 70
0
  9
$DIMTFAC
 40
1.0
  9
$DIMTP
 40
0.01
  9
$DIMTM
 40
0.01
  9
$DIMGAP
 40
0.625
  9
$DIMDSEP
 70
46
  9
$AUNITS
 70
0
  9
$PDMODE
 70
3
  9
$PDSIZE
 40
0.3125
  9
$HANDSEED
  5
2FD
  9
$TILEMODE
 70
1
  9
$MEASUREMENT
 70
1
  9
$INSUNITS
 70
4
  0
ENDSEC
  0
SECTION
  2
CLASSES
  0
CLASS
  1
ACDBDICTIONARYWDFLT
  2
AcDbDictionaryWithDefault
  3
AutoCAD 2000
 90
0
 91
1
280
0
281
0
  0
CLASS
  1
ACDBPLACEHOLDER
  2
AcDbPlaceHolder
  3
AutoCAD 2000
 90
0
 91
1
280
0
281
0
  0
CLASS
  1
LAYOUT
  2
AcDbLayout
  3
AutoCAD 2000
 90
0
 91
0
280
0
281
0
  0
ENDSEC
  0
SECTION
  2
TABLES
  0
TABLE
  2
VPORT
  5
8
100
AcDbSymbolTable
 70
2
  0
VPORT
  5
1F4
100
AcDbSymbolTableRecord
100
AcDbViewportTableRecord
  2
*ACTIVE
 70
0
 10
0.0
 20
0.0
 11
1.0
 21
1.0
 12
92.4967574451
 22
130.8168426724
 13
0.0
 23
0.0
 14
1.0
 24
1.0
 15
0.0
 25
0.0
 16
0.0
 26
0.0
 36
1.0
 17
0.0
 27
0.0
 37
0.0
 40
261.6336853448
 41
0.7070707071
 42
50.0
 43
0.0
 44
0.0
 50
0.0
 51
0.0
 71
0
 72
100
 73
1
 74
1
 75
0
 76
0
 77
0
 78
0
  0
ENDTAB
  0
TABLE
  2
LTYPE
  5
5
100
AcDbSymbolTable
 70
6
  0
LTYPE
  5
14
100
AcDbSymbolTableRecord
100
AcDbLinetypeTableRecord
  2
BYBLOCK
 70
0
  3

 72
65
 73
0
 40
0.0
  0
LTYPE
  5
15
100
AcDbSymbolTableRecord
100
AcDbLinetypeTableRecord
  2
BYLAYER
 70
0
  3

 72
65
 73
0
 40
0.0
  0
LTYPE
  5
16
100
AcDbSymbolTableRecord
100
AcDbLinetypeTableRecord
  2
CONTINUOUS
 70
64
  3
Solid line
 72
65
 73
0
 40
0.0
  0
LTYPE
  5
1F5
100
AcDbSymbolTableRecord
100
AcDbLinetypeTableRecord
  2
CENTER
 70
64
  3
____ _ ____ _ ____ _ ____ _ ____ _ ____ _ ____
 72
65
 73
4
 40
0.6
 49
0.375
 74
0
 49
-0.075
 74
0
 49
0.075
 74
0
 49
-0.075
 74
0
  0
LTYPE
  5
1F6
100
AcDbSymbolTableRecord
100
AcDbLinetypeTableRecord
  2
HIDDEN
 70
64
  3
- - - - - - - - - - - - - - - - - - - -
 72
65
 73
2
 40
0.2
 49
0.1
 74
0
 49
-0.1
 74
0
  0
LTYPE
  5
1F7
100
AcDbSymbolTableRecord
100
AcDbLinetypeTableRecord
  2
PHANTOM
 70
64
  3
_____ _ _ _____ _ _ _____ _ _ _____
 72
65
 73
6
 40
0.8
 49
0.45
 74
0
 49
-0.05
 74
0
 49
0.1
 74
0
 49
-0.05
 74
0
 49
0.1
 74
0
 49
-0.05
 74
0
  0
LTYPE
  5
1F8
100
AcDbSymbolTableRecord
100
AcDbLinetypeTableRecord
  2
DOT
 70
64
  3
. . . . . . . . . . . . . . . . . . . .
 72
65
 73
2
 40
0.2
 49
0.1
 74
0
 49
-0.1
 74
0
  0
LTYPE
  5
1F9
100
AcDbSymbolTableRecord
100
AcDbLinetypeTableRecord
  2
DASHED
 70
64
  3
- - - - - - - - - - - - - - - - - - - -
 72
65
 73
2
 40
0.2
 49
0.1
 74
0
 49
-0.1
 74
0
  0
ENDTAB
  0
TABLE
  2
LAYER
  5
2
100
AcDbSymbolTable
 70
36
  0
LAYER
  5
10
100
AcDbSymbolTableRecord
100
AcDbLayerTableRecord
  2
0
 70
0
 62
7
  6
CONTINUOUS
370
-3
390
F
  0
LAYER
  5
1FA
100
AcDbSymbolTableRecord
100
AcDbLayerTableRecord
  2
DEFAULT_1
 70
0
 62
7
  6
CENTER
370
-3
390
F
  0
LAYER
  5
1FB
100
AcDbSymbolTableRecord
100
AcDbLayerTableRecord
  2
DEFAULT_2
 70
0
 62
8
  6
HIDDEN
370
-3
390
F
  0
LAYER
  5
1FC
100
AcDbSymbolTableRecord
100
AcDbLayerTableRecord
  2
DEFAULT_3
 70
0
 62
7
  6
PHANTOM
370
-3
390
F
  0
LAYER
  5
1FD
100
AcDbSymbolTableRecord
100
AcDbLayerTableRecord
  2
00_COMPONENTS
 70
0
 62
7
  6
CONTINUOUS
370
-3
390
F
  0
LAYER
  5
1FE
100
AcDbSymbolTableRecord
100
AcDbLayerTableRecord
  2
01_1_DEFAULT_DATUMS
 70
0
 62
7
  6
CONTINUOUS
370
-3
390
F
  0
LAYER
  5
1FF
100
AcDbSymbolTableRecord
100
AcDbLayerTableRecord
  2
01_PLANES
 70
0
 62
7
  6
CONTINUOUS
370
-3
390
F
  0
LAYER
  5
200
100
AcDbSymbolTableRecord
100
AcDbLayerTableRecord
  2
02_COORD_SYS
 70
0
 62
7
  6
CONTINUOUS
370
-3
390
F
  0
LAYER
  5
201
100
AcDbSymbolTableRecord
100
AcDbLayerTableRecord
  2
03_AXES
 70
0
 62
7
  6
CONTINUOUS
370
-3
390
F
  0
LAYER
  5
202
100
AcDbSymbolTableRecord
100
AcDbLayerTableRecord
  2
04_POINTS
 70
0
 62
7
  6
CONTINUOUS
370
-3
390
F
  0
LAYER
  5
203
100
AcDbSymbolTableRecord
100
AcDbLayerTableRecord
  2
05_CURVES
 70
0
 62
7
  6
CONTINUOUS
370
-3
390
F
  0
LAYER
  5
204
100
AcDbSymbolTableRecord
100
AcDbLayerTableRecord
  2
06_SURFS
 70
0
 62
7
  6
CONTINUOUS
370
-3
390
F
  0
LAYER
  5
205
100
AcDbSymbolTableRecord
100
AcDbLayerTableRecord
  2
07_COSMETICS
 70
0
 62
7
  6
CONTINUOUS
370
-3
390
F
  0
LAYER
  5
206
100
AcDbSymbolTableRecord
100
AcDbLayerTableRecord
  2
10_NOTES
 70
0
 62
7
  6
CONTINUOUS
370
-3
390
F
  0
LAYER
  5
207
100
AcDbSymbolTableRecord
100
AcDbLayerTableRecord
  2
11_NOTES_PUB
 70
0
 62
7
  6
CONTINUOUS
370
-3
390
F
  0
LAYER
  5
208
100
AcDbSymbolTableRecord
100
AcDbLayerTableRecord
  2
13_REF_GTOL
 70
0
 62
7
  6
CONTINUOUS
370
-3
390
F
  0
LAYER
  5
209
100
AcDbSymbolTableRecord
100
AcDbLayerTableRecord
  2
16_MISC
 70
0
 62
7
  6
CONTINUOUS
370
-3
390
F
  0
LAYER
  5
20A
100
AcDbSymbolTableRecord
100
AcDbLayerTableRecord
  2
17_NO_PRINT
 70
0
 62
7
  6
CONTINUOUS
370
-3
390
F
  0
LAYER
  5
20B
100
AcDbSymbolTableRecord
100
AcDbLayerTableRecord
  2
18_DATUM_CAMS_JOINTS
 70
0
 62
7
  6
CONTINUOUS
370
-3
390
F
  0
LAYER
  5
20C
100
AcDbSymbolTableRecord
100
AcDbLayerTableRecord
  2
19_DATUM_FUNCTIONAL
 70
0
 62
7
  6
CONTINUOUS
370
-3
390
F
  0
LAYER
  5
20D
100
AcDbSymbolTableRecord
100
AcDbLayerTableRecord
  2
20_DATUM_KINEMATIC_SCHEME
 70
0
 62
7
  6
CONTINUOUS
370
-3
390
F
  0
LAYER
  5
20E
100
AcDbSymbolTableRecord
100
AcDbLayerTableRecord
  2
SHELL6
 70
0
 62
7
  6
CONTINUOUS
370
-3
390
F
  0
ENDTAB
  0
TABLE
  2
STYLE
  5
3
100
AcDbSymbolTable
 70
1
  0
STYLE
  5
11
100
AcDbSymbolTableRecord
100
AcDbTextStyleTableRecord
  2
STANDARD
 70
0
 40
0.0
 41
0.8
 50
0.0
 71
0
 42
0.2
  3
txt
  4

  0
STYLE
  5
20F
100
AcDbSymbolTableRecord
100
AcDbTextStyleTableRecord
  2
TEXTSTYLE_1
 70
0
 40
0.0
 41
0.8
 50
0.0
 71
0
 42
0.2
  3
gdt
  4

  0
ENDTAB
  0
TABLE
  2
VIEW
  5
6
100
AcDbSymbolTable
 70
0
  0
ENDTAB
  0
TABLE
  2
UCS
  5
7
100
AcDbSymbolTable
 70
0
  0
ENDTAB
  0
TABLE
  2
APPID
  5
9
100
AcDbSymbolTable
 70
1
  0
APPID
  5
210
100
AcDbSymbolTableRecord
100
AcDbRegAppTableRecord
  2
ACAD
 70
0
  0
ENDTAB
  0
TABLE
  2
BLOCK_RECORD
  5
1
100
AcDbSymbolTable
 70
0
  0
BLOCK_RECORD
  5
211
100
AcDbSymbolTableRecord
100
AcDbBlockTableRecord
  2
*Model_Space
  0
BLOCK_RECORD
  5
212
100
AcDbSymbolTableRecord
100
AcDbBlockTableRecord
  2
*Paper_Space
  0
BLOCK_RECORD
  5
213
100
AcDbSymbolTableRecord
100
AcDbBlockTableRecord
  2
_FILLED
  0
ENDTAB
  0
TABLE
  2
DIMSTYLE
  5
A
100
AcDbSymbolTable
 70
1
100
AcDbDimStyleTable
 71
0
  0
DIMSTYLE
105
214
100
AcDbSymbolTableRecord
100
AcDbDimStyleTableRecord
  2
STANDARD
 70
0
  3

  4

 40
1.0
 41
2.2023037487
 42
1.0
 43
0.38
 44
1.0
 45
0.0
 46
0.0
 47
0.01
 48
0.01
140
3.0832252482
141
0.09
142
0.0
143
25.4
144
1.0
145
0.0
146
1.0
147
0.625
 71
1
 72
0
 73
0
 74
0
 75
0
 76
0
 77
1
 78
8
 79
2
170
0
171
1
172
0
173
0
174
0
175
0
176
0
177
0
178
0
270
2
179
2
271
2
272
2
273
2
274
2
275
0
280
0
281
0
282
0
283
1
284
8
285
0
286
0
287
3
288
0
340
11
278
46
341
213
342
213
343
213
344
213
  0
ENDTAB
  0
ENDSEC
  0
SECTION
  2
BLOCKS
  0
BLOCK
  5
20
100
AcDbEntity
  8
0
100
AcDbBlockBegin
  2
*Model_Space
 70
0
 10
0.0
 20
0.0
 30
0.0
  3
*Model_Space
  1

  0
ENDBLK
  5
21
100
AcDbEntity
  8
0
100
AcDbBlockEnd
  0
BLOCK
  5
1C
100
AcDbEntity
  8
0
100
AcDbBlockBegin
  2
*Paper_Space
 70
0
 10
0.0
 20
0.0
 30
0.0
  3
*Paper_Space
  1

  0
ENDBLK
  5
1D
100
AcDbEntity
  8
0
100
AcDbBlockEnd
  0
BLOCK
  5
215
100
AcDbEntity
  8
0
100
AcDbBlockBegin
  2
_FILLED
 70
64
 10
0.0
 20
0.0
  3
_FILLED
  1

  0
SOLID
  5
216
100
AcDbEntity
  8
0
  6
BYBLOCK
 62
0
100
AcDbTrace
 10
0.0
 20
0.0
 11
-1.0
 21
0.25
 12
-1.0
 22
-0.25
 13
-1.0
 23
-0.25
  0
ENDBLK
  5
217
100
AcDbEntity
  8
0
  6
BYBLOCK
 62
0
100
AcDbBlockEnd
  0
ENDSEC
  0
SECTION
  2
ENTITIES
  0
LINE
  5
218
100
AcDbEntity
  8
SHELL6
100
AcDbLine
 62
7
  6
CONTINUOUS
 10
20.6035354624
 20
169.64025
 11
20.6035354624
 21
90.3922500025
  0
LINE
  5
219
100
AcDbEntity
  8
SHELL6
100
AcDbLine
 62
7
  6
CONTINUOUS
 10
20.6289354624
 20
159.7342499975
 11
20.6289354624
 21
100.2982500025
  0
LINE
  5
21A
100
AcDbEntity
  8
SHELL6
100
AcDbLine
 62
7
  6
CONTINUOUS
 10
29.2395354624
 20
156.94025
 11
29.2395354624
 21
90.39225
  0
LINE
  5
21B
100
AcDbEntity
  8
SHELL6
100
AcDbLine
 62
7
  6
CONTINUOUS
 10
31.7795354624
 20
156.94025
 11
31.7795354624
 21
90.39225
  0
LINE
  5
21C
100
AcDbEntity
  8
SHELL6
100
AcDbLine
 62
7
  6
CONTINUOUS
 10
34.2242854624
 20
122.39625
 11
34.2242854624
 21
121.12625
  0
LINE
  5
21D
100
AcDbEntity
  8
SHELL6
100
AcDbLine
 62
7
  6
CONTINUOUS
 10
34.2242854624
 20
103.09225
 11
34.2242854624
 21
101.82225
  0
LINE
  5
21E
100
AcDbEntity
  8
SHELL6
100
AcDbLine
 62
7
  6
CONTINUOUS
 10
35.6530354624
 20
103.09225
 11
35.6530354624
 21
101.82225
  0
LINE
  5
21F
100
AcDbEntity
  8
SHELL6
100
AcDbLine
 62
7
  6
CONTINUOUS
 10
37.0309048054
 20
123.5075
 11
37.0309048054
 21
121.12625
  0
LINE
  5
220
100
AcDbEntity
  8
SHELL6
100
AcDbLine
 62
7
  6
CONTINUOUS
 10
37.0309048054
 20
104.2035
 11
37.0309048054
 21
101.82225
  0
LINE
  5
221
100
AcDbEntity
  8
SHELL6
100
AcDbLine
 62
7
  6
CONTINUOUS
 10
38.4057201339
 20
123.5075
 11
38.4057201339
 21
121.12625
  0
LINE
  5
222
100
AcDbEntity
  8
SHELL6
100
AcDbLine
 62
7
  6
CONTINUOUS
 10
38.4057201339
 20
104.2035
 11
38.4057201339
 21
101.82225
  0
LINE
  5
223
100
AcDbEntity
  8
SHELL6
100
AcDbLine
 62
7
  6
CONTINUOUS
 10
39.4331870437
 20
108.17225
 11
39.4331870437
 21
101.82225
  0
LINE
  5
224
100
AcDbEntity
  8
SHELL6
100
AcDbLine
 62
7
  6
CONTINUOUS
 10
41.1553507909
 20
123.5075
 11
41.1553507909
 21
121.12625
  0
LINE
  5
225
100
AcDbEntity
  8
SHELL6
100
AcDbLine
 62
7
  6
CONTINUOUS
 10
41.1553507909
 20
104.2035
 11
41.1553507909
 21
101.82225
  0
LINE
  5
226
100
AcDbEntity
  8
SHELL6
100
AcDbLine
 62
7
  6
CONTINUOUS
 10
42.5301661194
 20
123.5075
 11
42.5301661194
 21
121.12625
  0
LINE
  5
227
100
AcDbEntity
  8
SHELL6
100
AcDbLine
 62
7
  6
CONTINUOUS
 10
42.5301661194
 20
104.2035
 11
42.5301661194
 21
101.82225
  0
LINE
  5
228
100
AcDbEntity
  8
SHELL6
100
AcDbLine
 62
7
  6
CONTINUOUS
 10
43.099361253
 20
108.17225
 11
43.099361253
 21
101.82225
  0
LINE
  5
229
100
AcDbEntity
  8
SHELL6
100
AcDbLine
 62
7
  6
CONTINUOUS
 10
45.3367854624
 20
122.39625
 11
45.3367854624
 21
121.12625
  0
LINE
  5
22A
100
AcDbEntity
  8
SHELL6
100
AcDbLine
 62
7
  6
CONTINUOUS
 10
45.3367854624
 20
103.09225
 11
45.3367854624
 21
101.82225
  0
LINE
  5
22B
100
AcDbEntity
  8
SHELL6
100
AcDbLine
 62
7
  6
CONTINUOUS
 10
48.1942854624
 20
122.39625
 11
48.1942854624
 21
121.12625
  0
LINE
  5
22C
100
AcDbEntity
  8
SHELL6
100
AcDbLine
 62
7
  6
CONTINUOUS
 10
48.1942854624
 20
103.09225
 11
48.1942854624
 21
101.82225
  0
LINE
  5
22D
100
AcDbEntity
  8
SHELL6
100
AcDbLine
 62
7
  6
CONTINUOUS
 10
50.4317096717
 20
108.17225
 11
50.4317096717
 21
101.82225
  0
LINE
  5
22E
100
AcDbEntity
  8
SHELL6
100
AcDbLine
 62
7
  6
CONTINUOUS
 10
51.0009048054
 20
123.5075
 11
51.0009048054
 21
121.12625
  0
LINE
  5
22F
100
AcDbEntity
  8
SHELL6
100
AcDbLine
 62
7
  6
CONTINUOUS
 10
51.0009048054
 20
104.2035
 11
51.0009048054
 21
101.82225
  0
LINE
  5
230
100
AcDbEntity
  8
SHELL6
100
AcDbLine
 62
7
  6
CONTINUOUS
 10
52.3757201339
 20
123.5075
 11
52.3757201339
 21
121.12625
  0
LINE
  5
231
100
AcDbEntity
  8
SHELL6
100
AcDbLine
 62
7
  6
CONTINUOUS
 10
52.3757201339
 20
104.2035
 11
52.3757201339
 21
101.82225
  0
LINE
  5
232
100
AcDbEntity
  8
SHELL6
100
AcDbLine
 62
7
  6
CONTINUOUS
 10
54.0978838811
 20
108.17225
 11
54.0978838811
 21
101.82225
  0
LINE
  5
233
100
AcDbEntity
  8
SHELL6
100
AcDbLine
 62
7
  6
CONTINUOUS
 10
54.3855354624
 20
162.27425
 11
54.3855354624
 21
156.94025
  0
LINE
  5
234
100
AcDbEntity
  8
SHELL6
100
AcDbLine
 62
7
  6
CONTINUOUS
 10
54.3855354624
 20
103.11765
 11
54.3855354624
 21
100.57765
  0
LINE
  5
235
100
AcDbEntity
  8
SHELL6
100
AcDbLine
 62
7
  6
CONTINUOUS
 10
55.1253507909
 20
123.5075
 11
55.1253507909
 21
121.12625
  0
LINE
  5
236
100
AcDbEntity
  8
SHELL6
100
AcDbLine
 62
7
  6
CONTINUOUS
 10
55.1253507909
 20
104.2035
 11
55.1253507909
 21
101.82225
  0
LINE
  5
237
100
AcDbEntity
  8
SHELL6
100
AcDbLine
 62
7
  6
CONTINUOUS
 10
160.5575354624
 20
90.39225
 11
158.0175354624
 21
90.39225
  0
LINE
  5
238
100
AcDbEntity
  8
SHELL6
100
AcDbLine
 62
7
  6
CONTINUOUS
 10
100.1055354624
 20
90.39225
 11
89.6915354624
 21
90.39225
  0
LINE
  5
239
100
AcDbEntity
  8
SHELL6
100
AcDbLine
 62
7
  6
CONTINUOUS
 10
31.7795354624
 20
90.39225
 11
20.6035354624
 21
90.3922500025
  0
LINE
  5
23A
100
AcDbEntity
  8
SHELL6
100
AcDbLine
 62
7
  6
CONTINUOUS
 10
160.5575354624
 20
90.39225
 11
169.1935354624
 21
90.3922500025
  0
LINE
  5
23B
100
AcDbEntity
  8
SHELL6
100
AcDbLine
 62
7
  6
CONTINUOUS
 10
56.5001661194
 20
123.5075
 11
56.5001661194
 21
121.12625
  0
LINE
  5
23C
100
AcDbEntity
  8
SHELL6
100
AcDbLine
 62
7
  6
CONTINUOUS
 10
56.5001661194
 20
104.2035
 11
56.5001661194
 21
101.82225
  0
LINE
  5
23D
100
AcDbEntity
  8
SHELL6
100
AcDbLine
 62
7
  6
CONTINUOUS
 10
57.4335354624
 20
162.27425
 11
57.4335354624
 21
169.64025
  0
LINE
  5
23E
100
AcDbEntity
  8
SHELL6
100
AcDbLine
 62
7
  6
CONTINUOUS
 10
57.8780354624
 20
103.09225
 11
57.8780354624
 21
101.82225
  0
LINE
  5
23F
100
AcDbEntity
  8
SHELL6
100
AcDbLine
 62
7
  6
CONTINUOUS
 10
59.3067854624
 20
122.39625
 11
59.3067854624
 21
121.12625
  0
LINE
  5
240
100
AcDbEntity
  8
SHELL6
100
AcDbLine
 62
7
  6
CONTINUOUS
 10
59.3067854624
 20
103.09225
 11
59.3067854624
 21
101.82225
  0
LINE
  5
241
100
AcDbEntity
  8
SHELL6
100
AcDbLine
 62
7
  6
CONTINUOUS
 10
62.1642854624
 20
122.39625
 11
62.1642854624
 21
121.12625
  0
LINE
  5
242
100
AcDbEntity
  8
SHELL6
100
AcDbLine
 62
7
  6
CONTINUOUS
 10
62.1642854624
 20
103.09225
 11
62.1642854624
 21
101.82225
  0
LINE
  5
243
100
AcDbEntity
  8
SHELL6
100
AcDbLine
 62
7
  6
CONTINUOUS
 10
63.5930354624
 20
103.09225
 11
63.5930354624
 21
101.82225
  0
LINE
  5
244
100
AcDbEntity
  8
SHELL6
100
AcDbLine
 62
7
  6
CONTINUOUS
 10
64.0375354624
 20
162.27425
 11
64.0375354624
 21
169.64025
  0
LINE
  5
245
100
AcDbEntity
  8
SHELL6
100
AcDbLine
 62
7
  6
CONTINUOUS
 10
64.9709048054
 20
123.5075
 11
64.9709048054
 21
121.12625
  0
LINE
  5
246
100
AcDbEntity
  8
SHELL6
100
AcDbLine
 62
7
  6
CONTINUOUS
 10
64.9709048054
 20
104.2035
 11
64.9709048054
 21
101.82225
  0
LINE
  5
247
100
AcDbEntity
  8
SHELL6
100
AcDbLine
 62
7
  6
CONTINUOUS
 10
66.3457201339
 20
123.5075
 11
66.3457201339
 21
121.12625
  0
LINE
  5
248
100
AcDbEntity
  8
SHELL6
100
AcDbLine
 62
7
  6
CONTINUOUS
 10
66.3457201339
 20
104.2035
 11
66.3457201339
 21
101.82225
  0
LINE
  5
249
100
AcDbEntity
  8
SHELL6
100
AcDbLine
 62
7
  6
CONTINUOUS
 10
67.0855354624
 20
162.27425
 11
67.0855354624
 21
156.94025
  0
LINE
  5
24A
100
AcDbEntity
  8
SHELL6
100
AcDbLine
 62
7
  6
CONTINUOUS
 10
67.0855354624
 20
103.11765
 11
67.0855354624
 21
100.57765
  0
LINE
  5
24B
100
AcDbEntity
  8
SHELL6
100
AcDbLine
 62
7
  6
CONTINUOUS
 10
67.3731870437
 20
108.17225
 11
67.3731870437
 21
101.82225
  0
LINE
  5
24C
100
AcDbEntity
  8
SHELL6
100
AcDbLine
 62
7
  6
CONTINUOUS
 10
20.6289354624
 20
100.2982500025
 11
20.6035354624
 21
100.2982500025
  0
LINE
  5
24D
100
AcDbEntity
  8
SHELL6
100
AcDbLine
 62
7
  6
CONTINUOUS
 10
135.4115354624
 20
100.57765
 11
122.7115354624
 21
100.57765
  0
LINE
  5
24E
100
AcDbEntity
  8
SHELL6
100
AcDbLine
 62
7
  6
CONTINUOUS
 10
67.0855354624
 20
100.57765
 11
54.3855354624
 21
100.57765
  0
LINE
  5
24F
100
AcDbEntity
  8
SHELL6
100
AcDbLine
 62
7
  6
CONTINUOUS
 10
155.5727854624
 20
101.82225
 11
130.4902854624
 21
101.82225
  0
LINE
  5
250
100
AcDbEntity
  8
SHELL6
100
AcDbLine
 62
7
  6
CONTINUOUS
 10
127.6327854624
 20
101.82225
 11
102.5502854624
 21
101.82225
  0
LINE
  5
251
100
AcDbEntity
  8
SHELL6
100
AcDbLine
 62
7
  6
CONTINUOUS
 10
87.2467854624
 20
101.82225
 11
62.1642854624
 21
101.82225
  0
LINE
  5
252
100
AcDbEntity
  8
SHELL6
100
AcDbLine
 62
7
  6
CONTINUOUS
 10
59.3067854624
 20
101.82225
 11
34.2242854624
 21
101.82225
  0
LINE
  5
253
100
AcDbEntity
  8
SHELL6
100
AcDbLine
 62
7
  6
CONTINUOUS
 10
69.0953507909
 20
123.5075
 11
69.0953507909
 21
121.12625
  0
LINE
  5
254
100
AcDbEntity
  8
SHELL6
100
AcDbLine
 62
7
  6
CONTINUOUS
 10
69.0953507909
 20
104.2035
 11
69.0953507909
 21
101.82225
  0
LINE
  5
255
100
AcDbEntity
  8
SHELL6
100
AcDbLine
 62
7
  6
CONTINUOUS
 10
70.4701661194
 20
123.5075
 11
70.4701661194
 21
121.12625
  0
LINE
  5
256
100
AcDbEntity
  8
SHELL6
100
AcDbLine
 62
7
  6
CONTINUOUS
 10
70.4701661194
 20
104.2035
 11
70.4701661194
 21
101.82225
  0
LINE
  5
257
100
AcDbEntity
  8
SHELL6
100
AcDbLine
 62
7
  6
CONTINUOUS
 10
71.039361253
 20
108.17225
 11
71.039361253
 21
101.82225
  0
LINE
  5
258
100
AcDbEntity
  8
SHELL6
100
AcDbLine
 62
7
  6
CONTINUOUS
 10
169.1935354624
 20
103.09225
 11
160.5575354624
 21
103.09225
  0
LINE
  5
259
100
AcDbEntity
  8
SHELL6
100
AcDbLine
 62
7
  6
CONTINUOUS
 10
158.0175354624
 20
103.09225
 11
100.1055354624
 21
103.09225
  0
LINE
  5
25A
100
AcDbEntity
  8
SHELL6
100
AcDbLine
 62
7
  6
CONTINUOUS
 10
97.5655354624
 20
103.09225
 11
92.2315354624
 21
103.09225
  0
LINE
  5
25B
100
AcDbEntity
  8
SHELL6
100
AcDbLine
 62
7
  6
CONTINUOUS
 10
89.6915354624
 20
103.09225
 11
31.7795354624
 21
103.09225
  0
LINE
  5
25C
100
AcDbEntity
  8
SHELL6
100
AcDbLine
 62
7
  6
CONTINUOUS
 10
29.2395354624
 20
103.09225
 11
20.6035354624
 21
103.09225
  0
LINE
  5
25D
100
AcDbEntity
  8
SHELL6
100
AcDbLine
 62
7
  6
CONTINUOUS
 10
158.0175354624
 20
103.11765
 11
100.1055354624
 21
103.11765
  0
LINE
  5
25E
100
AcDbEntity
  8
SHELL6
100
AcDbLine
 62
7
  6
CONTINUOUS
 10
89.6915354624
 20
103.11765
 11
31.7795354624
 21
103.11765
  0
LINE
  5
25F
100
AcDbEntity
  8
SHELL6
100
AcDbLine
 62
7
  6
CONTINUOUS
 10
152.7661661194
 20
104.2035
 11
147.2669048054
 21
104.2035
  0
LINE
  5
260
100
AcDbEntity
  8
SHELL6
100
AcDbLine
 62
7
  6
CONTINUOUS
 10
138.7961661194
 20
104.2035
 11
133.2969048054
 21
104.2035
  0
LINE
  5
261
100
AcDbEntity
  8
SHELL6
100
AcDbLine
 62
7
  6
CONTINUOUS
 10
124.8261661194
 20
104.2035
 11
119.3269048054
 21
104.2035
  0
LINE
  5
262
100
AcDbEntity
  8
SHELL6
100
AcDbLine
 62
7
  6
CONTINUOUS
 10
110.8561661194
 20
104.2035
 11
105.3569048054
 21
104.2035
  0
LINE
  5
263
100
AcDbEntity
  8
SHELL6
100
AcDbLine
 62
7
  6
CONTINUOUS
 10
84.4401661194
 20
104.2035
 11
78.9409048054
 21
104.2035
  0
LINE
  5
264
100
AcDbEntity
  8
SHELL6
100
AcDbLine
 62
7
  6
CONTINUOUS
 10
70.4701661194
 20
104.2035
 11
64.9709048054
 21
104.2035
  0
LINE
  5
265
100
AcDbEntity
  8
SHELL6
100
AcDbLine
 62
7
  6
CONTINUOUS
 10
56.5001661194
 20
104.2035
 11
51.0009048054
 21
104.2035
  0
LINE
  5
266
100
AcDbEntity
  8
SHELL6
100
AcDbLine
 62
7
  6
CONTINUOUS
 10
42.5301661194
 20
104.2035
 11
37.0309048054
 21
104.2035
  0
LINE
  5
267
100
AcDbEntity
  8
SHELL6
100
AcDbLine
 62
7
  6
CONTINUOUS
 10
150.3638838811
 20
108.17225
 11
135.6991870437
 21
108.17225
  0
LINE
  5
268
100
AcDbEntity
  8
SHELL6
100
AcDbLine
 62
7
  6
CONTINUOUS
 10
122.4238838811
 20
108.17225
 11
107.7591870437
 21
108.17225
  0
LINE
  5
269
100
AcDbEntity
  8
SHELL6
100
AcDbLine
 62
7
  6
CONTINUOUS
 10
82.0378838811
 20
108.17225
 11
67.3731870437
 21
108.17225
  0
LINE
  5
26A
100
AcDbEntity
  8
SHELL6
100
AcDbLine
 62
7
  6
CONTINUOUS
 10
54.0978838811
 20
108.17225
 11
39.4331870437
 21
108.17225
  0
LINE
  5
26B
100
AcDbEntity
  8
SHELL6
100
AcDbLine
 62
7
  6
CONTINUOUS
 10
73.2767854624
 20
122.39625
 11
73.2767854624
 21
121.12625
  0
LINE
  5
26C
100
AcDbEntity
  8
SHELL6
100
AcDbLine
 62
7
  6
CONTINUOUS
 10
73.2767854624
 20
103.09225
 11
73.2767854624
 21
101.82225
  0
LINE
  5
26D
100
AcDbEntity
  8
SHELL6
100
AcDbLine
 62
7
  6
CONTINUOUS
 10
76.1342854624
 20
122.39625
 11
76.1342854624
 21
121.12625
  0
LINE
  5
26E
100
AcDbEntity
  8
SHELL6
100
AcDbLine
 62
7
  6
CONTINUOUS
 10
76.1342854624
 20
103.09225
 11
76.1342854624
 21
101.82225
  0
LINE
  5
26F
100
AcDbEntity
  8
SHELL6
100
AcDbLine
 62
7
  6
CONTINUOUS
 10
78.3717096717
 20
108.17225
 11
78.3717096717
 21
101.82225
  0
LINE
  5
270
100
AcDbEntity
  8
SHELL6
100
AcDbLine
 62
7
  6
CONTINUOUS
 10
20.6289354624
 20
109.18825
 11
20.6035354624
 21
109.18825
  0
LINE
  5
271
100
AcDbEntity
  8
SHELL6
100
AcDbLine
 62
7
  6
CONTINUOUS
 10
78.9409048054
 20
123.5075
 11
78.9409048054
 21
121.12625
  0
LINE
  5
272
100
AcDbEntity
  8
SHELL6
100
AcDbLine
 62
7
  6
CONTINUOUS
 10
78.9409048054
 20
104.2035
 11
78.9409048054
 21
101.82225
  0
LINE
  5
273
100
AcDbEntity
  8
SHELL6
100
AcDbLine
 62
7
  6
CONTINUOUS
 10
80.3157201339
 20
123.5075
 11
80.3157201339
 21
121.12625
  0
LINE
  5
274
100
AcDbEntity
  8
SHELL6
100
AcDbLine
 62
7
  6
CONTINUOUS
 10
80.3157201339
 20
104.2035
 11
80.3157201339
 21
101.82225
  0
LINE
  5
275
100
AcDbEntity
  8
SHELL6
100
AcDbLine
 62
7
  6
CONTINUOUS
 10
82.0378838811
 20
108.17225
 11
82.0378838811
 21
101.82225
  0
LINE
  5
276
100
AcDbEntity
  8
SHELL6
100
AcDbLine
 62
7
  6
CONTINUOUS
 10
83.0653507909
 20
123.5075
 11
83.0653507909
 21
121.12625
  0
LINE
  5
277
100
AcDbEntity
  8
SHELL6
100
AcDbLine
 62
7
  6
CONTINUOUS
 10
83.0653507909
 20
104.2035
 11
83.0653507909
 21
101.82225
  0
LINE
  5
278
100
AcDbEntity
  8
SHELL6
100
AcDbLine
 62
7
  6
CONTINUOUS
 10
84.4401661194
 20
123.5075
 11
84.4401661194
 21
121.12625
  0
LINE
  5
279
100
AcDbEntity
  8
SHELL6
100
AcDbLine
 62
7
  6
CONTINUOUS
 10
84.4401661194
 20
104.2035
 11
84.4401661194
 21
101.82225
  0
LINE
  5
27A
100
AcDbEntity
  8
SHELL6
100
AcDbLine
 62
7
  6
CONTINUOUS
 10
85.8180354624
 20
103.09225
 11
85.8180354624
 21
101.82225
  0
LINE
  5
27B
100
AcDbEntity
  8
SHELL6
100
AcDbLine
 62
7
  6
CONTINUOUS
 10
87.2467854624
 20
122.39625
 11
87.2467854624
 21
121.12625
  0
LINE
  5
27C
100
AcDbEntity
  8
SHELL6
100
AcDbLine
 62
7
  6
CONTINUOUS
 10
87.2467854624
 20
103.09225
 11
87.2467854624
 21
101.82225
  0
LINE
  5
27D
100
AcDbEntity
  8
SHELL6
100
AcDbLine
 62
7
  6
CONTINUOUS
 10
89.6915354624
 20
156.94025
 11
89.6915354624
 21
103.11765
  0
LINE
  5
27E
100
AcDbEntity
  8
SHELL6
100
AcDbLine
 62
7
  6
CONTINUOUS
 10
89.6915354624
 20
103.11765
 11
89.6915354624
 21
90.39225
  0
LINE
  5
27F
100
AcDbEntity
  8
SHELL6
100
AcDbLine
 62
7
  6
CONTINUOUS
 10
155.5727854624
 20
121.12625
 11
144.4602854624
 21
121.12625
  0
LINE
  5
280
100
AcDbEntity
  8
SHELL6
100
AcDbLine
 62
7
  6
CONTINUOUS
 10
141.6027854624
 20
121.12625
 11
130.4902854624
 21
121.12625
  0
LINE
  5
281
100
AcDbEntity
  8
SHELL6
100
AcDbLine
 62
7
  6
CONTINUOUS
 10
127.6327854624
 20
121.12625
 11
116.5202854624
 21
121.12625
  0
LINE
  5
282
100
AcDbEntity
  8
SHELL6
100
AcDbLine
 62
7
  6
CONTINUOUS
 10
113.6627854624
 20
121.12625
 11
102.5502854624
 21
121.12625
  0
LINE
  5
283
100
AcDbEntity
  8
SHELL6
100
AcDbLine
 62
7
  6
CONTINUOUS
 10
87.2467854624
 20
121.12625
 11
76.1342854624
 21
121.12625
  0
LINE
  5
284
100
AcDbEntity
  8
SHELL6
100
AcDbLine
 62
7
  6
CONTINUOUS
 10
73.2767854624
 20
121.12625
 11
62.1642854624
 21
121.12625
  0
LINE
  5
285
100
AcDbEntity
  8
SHELL6
100
AcDbLine
 62
7
  6
CONTINUOUS
 10
59.3067854624
 20
121.12625
 11
48.1942854624
 21
121.12625
  0
LINE
  5
286
100
AcDbEntity
  8
SHELL6
100
AcDbLine
 62
7
  6
CONTINUOUS
 10
45.3367854624
 20
121.12625
 11
34.2242854624
 21
121.12625
  0
LINE
  5
287
100
AcDbEntity
  8
SHELL6
100
AcDbLine
 62
7
  6
CONTINUOUS
 10
158.0175354624
 20
122.39625
 11
100.1055354624
 21
122.39625
  0
LINE
  5
288
100
AcDbEntity
  8
SHELL6
100
AcDbLine
 62
7
  6
CONTINUOUS
 10
89.6915354624
 20
122.39625
 11
31.7795354624
 21
122.39625
  0
LINE
  5
289
100
AcDbEntity
  8
SHELL6
100
AcDbLine
 62
7
  6
CONTINUOUS
 10
152.7661661194
 20
123.5075
 11
147.2669048054
 21
123.5075
  0
LINE
  5
28A
100
AcDbEntity
  8
SHELL6
100
AcDbLine
 62
7
  6
CONTINUOUS
 10
138.7961661194
 20
123.5075
 11
133.2969048054
 21
123.5075
  0
LINE
  5
28B
100
AcDbEntity
  8
SHELL6
100
AcDbLine
 62
7
  6
CONTINUOUS
 10
124.8261661194
 20
123.5075
 11
119.3269048054
 21
123.5075
  0
LINE
  5
28C
100
AcDbEntity
  8
SHELL6
100
AcDbLine
 62
7
  6
CONTINUOUS
 10
110.8561661194
 20
123.5075
 11
105.3569048054
 21
123.5075
  0
LINE
  5
28D
100
AcDbEntity
  8
SHELL6
100
AcDbLine
 62
7
  6
CONTINUOUS
 10
84.4401661194
 20
123.5075
 11
78.9409048054
 21
123.5075
  0
LINE
  5
28E
100
AcDbEntity
  8
SHELL6
100
AcDbLine
 62
7
  6
CONTINUOUS
 10
70.4701661194
 20
123.5075
 11
64.9709048054
 21
123.5075
  0
LINE
  5
28F
100
AcDbEntity
  8
SHELL6
100
AcDbLine
 62
7
  6
CONTINUOUS
 10
56.5001661194
 20
123.5075
 11
51.0009048054
 21
123.5075
  0
LINE
  5
290
100
AcDbEntity
  8
SHELL6
100
AcDbLine
 62
7
  6
CONTINUOUS
 10
42.5301661194
 20
123.5075
 11
37.0309048054
 21
123.5075
  0
LINE
  5
291
100
AcDbEntity
  8
SHELL6
100
AcDbLine
 62
7
  6
CONTINUOUS
 10
92.2315354624
 20
156.94025
 11
92.2315354624
 21
90.39225
  0
LINE
  5
292
100
AcDbEntity
  8
SHELL6
100
AcDbLine
 62
7
  6
CONTINUOUS
 10
97.5655354624
 20
156.94025
 11
97.5655354624
 21
90.39225
  0
LINE
  5
293
100
AcDbEntity
  8
SHELL6
100
AcDbLine
 62
7
  6
CONTINUOUS
 10
100.1055354624
 20
141.70025
 11
100.1055354624
 21
103.09225
  0
LINE
  5
294
100
AcDbEntity
  8
SHELL6
100
AcDbLine
 62
7
  6
CONTINUOUS
 10
100.1055354624
 20
156.94025
 11
100.1055354624
 21
141.70025
  0
LINE
  5
295
100
AcDbEntity
  8
SHELL6
100
AcDbLine
 62
7
  6
CONTINUOUS
 10
100.1055354624
 20
103.09225
 11
100.1055354624
 21
90.39225
  0
LINE
  5
296
100
AcDbEntity
  8
SHELL6
100
AcDbLine
 62
7
  6
CONTINUOUS
 10
102.5502854624
 20
122.39625
 11
102.5502854624
 21
121.12625
  0
LINE
  5
297
100
AcDbEntity
  8
SHELL6
100
AcDbLine
 62
7
  6
CONTINUOUS
 10
102.5502854624
 20
103.09225
 11
102.5502854624
 21
101.82225
  0
LINE
  5
298
100
AcDbEntity
  8
SHELL6
100
AcDbLine
 62
7
  6
CONTINUOUS
 10
103.9790354624
 20
103.09225
 11
103.9790354624
 21
101.82225
  0
LINE
  5
299
100
AcDbEntity
  8
SHELL6
100
AcDbLine
 62
7
  6
CONTINUOUS
 10
105.3569048054
 20
123.5075
 11
105.3569048054
 21
121.12625
  0
LINE
  5
29A
100
AcDbEntity
  8
SHELL6
100
AcDbLine
 62
7
  6
CONTINUOUS
 10
105.3569048054
 20
104.2035
 11
105.3569048054
 21
101.82225
  0
LINE
  5
29B
100
AcDbEntity
  8
SHELL6
100
AcDbLine
 62
7
  6
CONTINUOUS
 10
106.7317201339
 20
123.5075
 11
106.7317201339
 21
121.12625
  0
LINE
  5
29C
100
AcDbEntity
  8
SHELL6
100
AcDbLine
 62
7
  6
CONTINUOUS
 10
106.7317201339
 20
104.2035
 11
106.7317201339
 21
101.82225
  0
LINE
  5
29D
100
AcDbEntity
  8
SHELL6
100
AcDbLine
 62
7
  6
CONTINUOUS
 10
158.0175354624
 20
141.70025
 11
100.1055354624
 21
141.70025
  0
LINE
  5
29E
100
AcDbEntity
  8
SHELL6
100
AcDbLine
 62
7
  6
CONTINUOUS
 10
89.6915354624
 20
141.70025
 11
31.7795354624
 21
141.70025
  0
LINE
  5
29F
100
AcDbEntity
  8
SHELL6
100
AcDbLine
 62
7
  6
CONTINUOUS
 10
107.7591870437
 20
108.17225
 11
107.7591870437
 21
101.82225
  0
LINE
  5
2A0
100
AcDbEntity
  8
SHELL6
100
AcDbLine
 62
7
  6
CONTINUOUS
 10
109.4813507909
 20
123.5075
 11
109.4813507909
 21
121.12625
  0
LINE
  5
2A1
100
AcDbEntity
  8
SHELL6
100
AcDbLine
 62
7
  6
CONTINUOUS
 10
109.4813507909
 20
104.2035
 11
109.4813507909
 21
101.82225
  0
LINE
  5
2A2
100
AcDbEntity
  8
SHELL6
100
AcDbLine
 62
7
  6
CONTINUOUS
 10
110.8561661194
 20
123.5075
 11
110.8561661194
 21
121.12625
  0
LINE
  5
2A3
100
AcDbEntity
  8
SHELL6
100
AcDbLine
 62
7
  6
CONTINUOUS
 10
110.8561661194
 20
104.2035
 11
110.8561661194
 21
101.82225
  0
LINE
  5
2A4
100
AcDbEntity
  8
SHELL6
100
AcDbLine
 62
7
  6
CONTINUOUS
 10
111.425361253
 20
108.17225
 11
111.425361253
 21
101.82225
  0
LINE
  5
2A5
100
AcDbEntity
  8
SHELL6
100
AcDbLine
 62
7
  6
CONTINUOUS
 10
113.6627854624
 20
122.39625
 11
113.6627854624
 21
121.12625
  0
LINE
  5
2A6
100
AcDbEntity
  8
SHELL6
100
AcDbLine
 62
7
  6
CONTINUOUS
 10
113.6627854624
 20
103.09225
 11
113.6627854624
 21
101.82225
  0
LINE
  5
2A7
100
AcDbEntity
  8
SHELL6
100
AcDbLine
 62
7
  6
CONTINUOUS
 10
116.5202854624
 20
122.39625
 11
116.5202854624
 21
121.12625
  0
LINE
  5
2A8
100
AcDbEntity
  8
SHELL6
100
AcDbLine
 62
7
  6
CONTINUOUS
 10
116.5202854624
 20
103.09225
 11
116.5202854624
 21
101.82225
  0
LINE
  5
2A9
100
AcDbEntity
  8
SHELL6
100
AcDbLine
 62
7
  6
CONTINUOUS
 10
20.6289354624
 20
150.84425
 11
20.6035354624
 21
150.84425
  0
LINE
  5
2AA
100
AcDbEntity
  8
SHELL6
100
AcDbLine
 62
7
  6
CONTINUOUS
 10
118.7577096717
 20
108.17225
 11
118.7577096717
 21
101.82225
  0
LINE
  5
2AB
100
AcDbEntity
  8
SHELL6
100
AcDbLine
 62
7
  6
CONTINUOUS
 10
119.3269048054
 20
123.5075
 11
119.3269048054
 21
121.12625
  0
LINE
  5
2AC
100
AcDbEntity
  8
SHELL6
100
AcDbLine
 62
7
  6
CONTINUOUS
 10
119.3269048054
 20
104.2035
 11
119.3269048054
 21
101.82225
  0
LINE
  5
2AD
100
AcDbEntity
  8
SHELL6
100
AcDbLine
 62
7
  6
CONTINUOUS
 10
120.7017201339
 20
123.5075
 11
120.7017201339
 21
121.12625
  0
LINE
  5
2AE
100
AcDbEntity
  8
SHELL6
100
AcDbLine
 62
7
  6
CONTINUOUS
 10
120.7017201339
 20
104.2035
 11
120.7017201339
 21
101.82225
  0
LINE
  5
2AF
100
AcDbEntity
  8
SHELL6
100
AcDbLine
 62
7
  6
CONTINUOUS
 10
122.4238838811
 20
108.17225
 11
122.4238838811
 21
101.82225
  0
LINE
  5
2B0
100
AcDbEntity
  8
SHELL6
100
AcDbLine
 62
7
  6
CONTINUOUS
 10
122.7115354624
 20
162.27425
 11
122.7115354624
 21
156.94025
  0
LINE
  5
2B1
100
AcDbEntity
  8
SHELL6
100
AcDbLine
 62
7
  6
CONTINUOUS
 10
122.7115354624
 20
103.11765
 11
122.7115354624
 21
100.57765
  0
LINE
  5
2B2
100
AcDbEntity
  8
SHELL6
100
AcDbLine
 62
7
  6
CONTINUOUS
 10
123.4513507909
 20
123.5075
 11
123.4513507909
 21
121.12625
  0
LINE
  5
2B3
100
AcDbEntity
  8
SHELL6
100
AcDbLine
 62
7
  6
CONTINUOUS
 10
123.4513507909
 20
104.2035
 11
123.4513507909
 21
101.82225
  0
LINE
  5
2B4
100
AcDbEntity
  8
SHELL6
100
AcDbLine
 62
7
  6
CONTINUOUS
 10
160.5575354624
 20
156.94025
 11
158.0175354624
 21
156.94025
  0
LINE
  5
2B5
100
AcDbEntity
  8
SHELL6
100
AcDbLine
 62
7
  6
CONTINUOUS
 10
158.0175354624
 20
156.94025
 11
97.5655354624
 21
156.94025
  0
LINE
  5
2B6
100
AcDbEntity
  8
SHELL6
100
AcDbLine
 62
7
  6
CONTINUOUS
 10
92.2315354624
 20
156.94025
 11
29.2395354624
 21
156.94025
  0
LINE
  5
2B7
100
AcDbEntity
  8
SHELL6
100
AcDbLine
 62
7
  6
CONTINUOUS
 10
124.8261661194
 20
123.5075
 11
124.8261661194
 21
121.12625
  0
LINE
  5
2B8
100
AcDbEntity
  8
SHELL6
100
AcDbLine
 62
7
  6
CONTINUOUS
 10
124.8261661194
 20
104.2035
 11
124.8261661194
 21
101.82225
  0
LINE
  5
2B9
100
AcDbEntity
  8
SHELL6
100
AcDbLine
 62
7
  6
CONTINUOUS
 10
125.7595354624
 20
162.27425
 11
125.7595354624
 21
169.64025
  0
LINE
  5
2BA
100
AcDbEntity
  8
SHELL6
100
AcDbLine
 62
7
  6
CONTINUOUS
 10
126.2040354624
 20
103.09225
 11
126.2040354624
 21
101.82225
  0
LINE
  5
2BB
100
AcDbEntity
  8
SHELL6
100
AcDbLine
 62
7
  6
CONTINUOUS
 10
127.6327854624
 20
122.39625
 11
127.6327854624
 21
121.12625
  0
LINE
  5
2BC
100
AcDbEntity
  8
SHELL6
100
AcDbLine
 62
7
  6
CONTINUOUS
 10
127.6327854624
 20
103.09225
 11
127.6327854624
 21
101.82225
  0
LINE
  5
2BD
100
AcDbEntity
  8
SHELL6
100
AcDbLine
 62
7
  6
CONTINUOUS
 10
20.6289354624
 20
159.7342499975
 11
20.6035354624
 21
159.7342499975
  0
LINE
  5
2BE
100
AcDbEntity
  8
SHELL6
100
AcDbLine
 62
7
  6
CONTINUOUS
 10
135.4115354624
 20
162.27425
 11
122.7115354624
 21
162.27425
  0
LINE
  5
2BF
100
AcDbEntity
  8
SHELL6
100
AcDbLine
 62
7
  6
CONTINUOUS
 10
67.0855354624
 20
162.27425
 11
54.3855354624
 21
162.27425
  0
LINE
  5
2C0
100
AcDbEntity
  8
SHELL6
100
AcDbLine
 62
7
  6
CONTINUOUS
 10
130.4902854624
 20
122.39625
 11
130.4902854624
 21
121.12625
  0
LINE
  5
2C1
100
AcDbEntity
  8
SHELL6
100
AcDbLine
 62
7
  6
CONTINUOUS
 10
130.4902854624
 20
103.09225
 11
130.4902854624
 21
101.82225
  0
LINE
  5
2C2
100
AcDbEntity
  8
SHELL6
100
AcDbLine
 62
7
  6
CONTINUOUS
 10
131.9190354624
 20
103.09225
 11
131.9190354624
 21
101.82225
  0
LINE
  5
2C3
100
AcDbEntity
  8
SHELL6
100
AcDbLine
 62
7
  6
CONTINUOUS
 10
132.3635354624
 20
162.27425
 11
132.3635354624
 21
169.64025
  0
LINE
  5
2C4
100
AcDbEntity
  8
SHELL6
100
AcDbLine
 62
7
  6
CONTINUOUS
 10
133.2969048054
 20
123.5075
 11
133.2969048054
 21
121.12625
  0
LINE
  5
2C5
100
AcDbEntity
  8
SHELL6
100
AcDbLine
 62
7
  6
CONTINUOUS
 10
133.2969048054
 20
104.2035
 11
133.2969048054
 21
101.82225
  0
LINE
  5
2C6
100
AcDbEntity
  8
SHELL6
100
AcDbLine
 62
7
  6
CONTINUOUS
 10
134.6717201339
 20
123.5075
 11
134.6717201339
 21
121.12625
  0
LINE
  5
2C7
100
AcDbEntity
  8
SHELL6
100
AcDbLine
 62
7
  6
CONTINUOUS
 10
134.6717201339
 20
104.2035
 11
134.6717201339
 21
101.82225
  0
LINE
  5
2C8
100
AcDbEntity
  8
SHELL6
100
AcDbLine
 62
7
  6
CONTINUOUS
 10
169.1935354624
 20
169.64025
 11
20.6035354624
 21
169.64025
  0
LINE
  5
2C9
100
AcDbEntity
  8
SHELL6
100
AcDbLine
 62
7
  6
CONTINUOUS
 10
135.4115354624
 20
162.27425
 11
135.4115354624
 21
156.94025
  0
LINE
  5
2CA
100
AcDbEntity
  8
SHELL6
100
AcDbLine
 62
7
  6
CONTINUOUS
 10
135.4115354624
 20
103.11765
 11
135.4115354624
 21
100.57765
  0
LINE
  5
2CB
100
AcDbEntity
  8
SHELL6
100
AcDbLine
 62
7
  6
CONTINUOUS
 10
135.6991870437
 20
108.17225
 11
135.6991870437
 21
101.82225
  0
LINE
  5
2CC
100
AcDbEntity
  8
SHELL6
100
AcDbLine
 62
7
  6
CONTINUOUS
 10
137.4213507909
 20
123.5075
 11
137.4213507909
 21
121.12625
  0
LINE
  5
2CD
100
AcDbEntity
  8
SHELL6
100
AcDbLine
 62
7
  6
CONTINUOUS
 10
137.4213507909
 20
104.2035
 11
137.4213507909
 21
101.82225
  0
LINE
  5
2CE
100
AcDbEntity
  8
SHELL6
100
AcDbLine
 62
7
  6
CONTINUOUS
 10
138.7961661194
 20
123.5075
 11
138.7961661194
 21
121.12625
  0
LINE
  5
2CF
100
AcDbEntity
  8
SHELL6
100
AcDbLine
 62
7
  6
CONTINUOUS
 10
138.7961661194
 20
104.2035
 11
138.7961661194
 21
101.82225
  0
LINE
  5
2D0
100
AcDbEntity
  8
SHELL6
100
AcDbLine
 62
7
  6
CONTINUOUS
 10
139.365361253
 20
108.17225
 11
139.365361253
 21
101.82225
  0
LINE
  5
2D1
100
AcDbEntity
  8
SHELL6
100
AcDbLine
 62
7
  6
CONTINUOUS
 10
141.6027854624
 20
122.39625
 11
141.6027854624
 21
121.12625
  0
LINE
  5
2D2
100
AcDbEntity
  8
SHELL6
100
AcDbLine
 62
7
  6
CONTINUOUS
 10
141.6027854624
 20
103.09225
 11
141.6027854624
 21
101.82225
  0
LINE
  5
2D3
100
AcDbEntity
  8
SHELL6
100
AcDbLine
 62
7
  6
CONTINUOUS
 10
144.4602854624
 20
122.39625
 11
144.4602854624
 21
121.12625
  0
LINE
  5
2D4
100
AcDbEntity
  8
SHELL6
100
AcDbLine
 62
7
  6
CONTINUOUS
 10
144.4602854624
 20
103.09225
 11
144.4602854624
 21
101.82225
  0
LINE
  5
2D5
100
AcDbEntity
  8
SHELL6
100
AcDbLine
 62
7
  6
CONTINUOUS
 10
146.6977096717
 20
108.17225
 11
146.6977096717
 21
101.82225
  0
LINE
  5
2D6
100
AcDbEntity
  8
SHELL6
100
AcDbLine
 62
7
  6
CONTINUOUS
 10
147.2669048054
 20
123.5075
 11
147.2669048054
 21
121.12625
  0
LINE
  5
2D7
100
AcDbEntity
  8
SHELL6
100
AcDbLine
 62
7
  6
CONTINUOUS
 10
147.2669048054
 20
104.2035
 11
147.2669048054
 21
101.82225
  0
LINE
  5
2D8
100
AcDbEntity
  8
SHELL6
100
AcDbLine
 62
7
  6
CONTINUOUS
 10
148.6417201339
 20
123.5075
 11
148.6417201339
 21
121.12625
  0
LINE
  5
2D9
100
AcDbEntity
  8
SHELL6
100
AcDbLine
 62
7
  6
CONTINUOUS
 10
148.6417201339
 20
104.2035
 11
148.6417201339
 21
101.82225
  0
LINE
  5
2DA
100
AcDbEntity
  8
SHELL6
100
AcDbLine
 62
7
  6
CONTINUOUS
 10
150.3638838811
 20
108.17225
 11
150.3638838811
 21
101.82225
  0
LINE
  5
2DB
100
AcDbEntity
  8
SHELL6
100
AcDbLine
 62
7
  6
CONTINUOUS
 10
151.3913507909
 20
123.5075
 11
151.3913507909
 21
121.12625
  0
LINE
  5
2DC
100
AcDbEntity
  8
SHELL6
100
AcDbLine
 62
7
  6
CONTINUOUS
 10
151.3913507909
 20
104.2035
 11
151.3913507909
 21
101.82225
  0
LINE
  5
2DD
100
AcDbEntity
  8
SHELL6
100
AcDbLine
 62
7
  6
CONTINUOUS
 10
152.7661661194
 20
123.5075
 11
152.7661661194
 21
121.12625
  0
LINE
  5
2DE
100
AcDbEntity
  8
SHELL6
100
AcDbLine
 62
7
  6
CONTINUOUS
 10
152.7661661194
 20
104.2035
 11
152.7661661194
 21
101.82225
  0
LINE
  5
2DF
100
AcDbEntity
  8
SHELL6
100
AcDbLine
 62
7
  6
CONTINUOUS
 10
154.1440354624
 20
103.09225
 11
154.1440354624
 21
101.82225
  0
LINE
  5
2E0
100
AcDbEntity
  8
SHELL6
100
AcDbLine
 62
7
  6
CONTINUOUS
 10
155.5727854624
 20
122.39625
 11
155.5727854624
 21
121.12625
  0
LINE
  5
2E1
100
AcDbEntity
  8
SHELL6
100
AcDbLine
 62
7
  6
CONTINUOUS
 10
155.5727854624
 20
103.09225
 11
155.5727854624
 21
101.82225
  0
LINE
  5
2E2
100
AcDbEntity
  8
SHELL6
100
AcDbLine
 62
7
  6
CONTINUOUS
 10
158.0175354624
 20
141.70025
 11
158.0175354624
 21
103.09225
  0
LINE
  5
2E3
100
AcDbEntity
  8
SHELL6
100
AcDbLine
 62
7
  6
CONTINUOUS
 10
158.0175354624
 20
156.94025
 11
158.0175354624
 21
141.70025
  0
LINE
  5
2E4
100
AcDbEntity
  8
SHELL6
100
AcDbLine
 62
7
  6
CONTINUOUS
 10
158.0175354624
 20
103.09225
 11
158.0175354624
 21
90.39225
  0
LINE
  5
2E5
100
AcDbEntity
  8
SHELL6
100
AcDbLine
 62
7
  6
CONTINUOUS
 10
160.5575354624
 20
156.94025
 11
160.5575354624
 21
90.39225
  0
LINE
  5
2E6
100
AcDbEntity
  8
SHELL6
100
AcDbLine
 62
7
  6
CONTINUOUS
 10
169.1935354624
 20
169.64025
 11
169.1935354624
 21
90.3922500025
  0
CIRCLE
  5
2E7
100
AcDbEntity
  8
SHELL6
100
AcDbCircle
 62
7
  6
CONTINUOUS
 10
81.6905354624
 20
112.74425
 40
5.68325
  0
CIRCLE
  5
2E8
100
AcDbEntity
  8
SHELL6
100
AcDbCircle
 62
7
  6
CONTINUOUS
 10
67.7205354624
 20
112.74425
 40
5.68325
  0
CIRCLE
  5
2E9
100
AcDbEntity
  8
SHELL6
100
AcDbCircle
 62
7
  6
CONTINUOUS
 10
53.7505354624
 20
112.74425
 40
5.68325
  0
CIRCLE
  5
2EA
100
AcDbEntity
  8
SHELL6
100
AcDbCircle
 62
7
  6
CONTINUOUS
 10
39.7805354624
 20
112.74425
 40
5.68325
  0
CIRCLE
  5
2EB
100
AcDbEntity
  8
SHELL6
100
AcDbCircle
 62
7
  6
CONTINUOUS
 10
74.7055354624
 20
122.39625
 40
11.1252
  0
CIRCLE
  5
2EC
100
AcDbEntity
  8
SHELL6
100
AcDbCircle
 62
7
  6
CONTINUOUS
 10
46.7655354624
 20
122.39625
 40
11.1252
  0
CIRCLE
  5
2ED
100
AcDbEntity
  8
SHELL6
100
AcDbCircle
 62
7
  6
CONTINUOUS
 10
81.6905354624
 20
132.04825
 40
5.68325
  0
CIRCLE
  5
2EE
100
AcDbEntity
  8
SHELL6
100
AcDbCircle
 62
7
  6
CONTINUOUS
 10
67.7205354624
 20
132.04825
 40
5.68325
  0
CIRCLE
  5
2EF
100
AcDbEntity
  8
SHELL6
100
AcDbCircle
 62
7
  6
CONTINUOUS
 10
53.7505354624
 20
132.04825
 40
5.68325
  0
CIRCLE
  5
2F0
100
AcDbEntity
  8
SHELL6
100
AcDbCircle
 62
7
  6
CONTINUOUS
 10
39.7805354624
 20
132.04825
 40
5.68325
  0
CIRCLE
  5
2F1
100
AcDbEntity
  8
SHELL6
100
AcDbCircle
 62
7
  6
CONTINUOUS
 10
150.0165354624
 20
112.74425
 40
5.68325
  0
CIRCLE
  5
2F2
100
AcDbEntity
  8
SHELL6
100
AcDbCircle
 62
7
  6
CONTINUOUS
 10
136.0465354624
 20
112.74425
 40
5.68325
  0
CIRCLE
  5
2F3
100
AcDbEntity
  8
SHELL6
100
AcDbCircle
 62
7
  6
CONTINUOUS
 10
122.0765354624
 20
112.74425
 40
5.68325
  0
CIRCLE
  5
2F4
100
AcDbEntity
  8
SHELL6
100
AcDbCircle
 62
7
  6
CONTINUOUS
 10
108.1065354624
 20
112.74425
 40
5.68325
  0
CIRCLE
  5
2F5
100
AcDbEntity
  8
SHELL6
100
AcDbCircle
 62
7
  6
CONTINUOUS
 10
143.0315354624
 20
122.39625
 40
11.1252
  0
CIRCLE
  5
2F6
100
AcDbEntity
  8
SHELL6
100
AcDbCircle
 62
7
  6
CONTINUOUS
 10
115.0915354624
 20
122.39625
 40
11.1252
  0
CIRCLE
  5
2F7
100
AcDbEntity
  8
SHELL6
100
AcDbCircle
 62
7
  6
CONTINUOUS
 10
150.0165354624
 20
132.04825
 40
5.68325
  0
CIRCLE
  5
2F8
100
AcDbEntity
  8
SHELL6
100
AcDbCircle
 62
7
  6
CONTINUOUS
 10
136.0465354624
 20
132.04825
 40
5.68325
  0
CIRCLE
  5
2F9
100
AcDbEntity
  8
SHELL6
100
AcDbCircle
 62
7
  6
CONTINUOUS
 10
122.0765354624
 20
132.04825
 40
5.68325
  0
CIRCLE
  5
2FA
100
AcDbEntity
  8
SHELL6
100
AcDbCircle
 62
7
  6
CONTINUOUS
 10
108.1065354624
 20
132.04825
 40
5.68325
  0
ENDSEC
  0
SECTION
  2
OBJECTS
  0
DICTIONARY
  5
C
100
AcDbDictionary
280
0
281
1
  3
ACAD_GROUP
350
D
  3
ACAD_MLINESTYLE
350
17
  3
ACAD_LAYOUT
350
1A
  3
ACAD_PLOTSETTINGS
350
19
  3
ACAD_PLOTSTYLENAME
350
E
  0
DICTIONARY
  5
D
102
{ACAD_REACTORS
330
C
102
}
100
AcDbDictionary
280
0
281
1
  0
ACDBDICTIONARYWDFLT
  5
E
102
{ACAD_REACTORS
330
C
102
}
100
AcDbDictionary
281
1
  3
Normal
350
F
100
AcDbDictionaryWithDefault
340
F
  0
DICTIONARY
  5
17
102
{ACAD_REACTORS
330
C
102
}
100
AcDbDictionary
280
0
281
1
  3
Standard
350
18
  0
DICTIONARY
  5
19
102
{ACAD_REACTORS
330
C
102
}
100
AcDbDictionary
281
1
  0
DICTIONARY
  5
1A
102
{ACAD_REACTORS
330
C
102
}
100
AcDbDictionary
281
1
  3
Model
350
2FB
  3
Layout1
350
2FC
  0
ACDBPLACEHOLDER
  5
F
102
{ACAD_REACTORS
330
E
102
}
  0
MLINESTYLE
  5
18
102
{ACAD_REACTORS
330
17
102
}
100
AcDbMlineStyle
  2
STANDARD
 70
0
  3

 62
256
 51
90.0
 52
90.0
 71
2
 49
0.5
 62
256
  6
BYLAYER
 49
-0.5
 62
256
  6
BYLAYER
  0
LAYOUT
  5
2FB
102
{ACAD_REACTORS
330
1A
102
}
100
AcDbPlotSettings
  1

  2
none_device
  4

  6

 40
0.0
 41
0.0
 42
0.0
 43
0.0
 44
210.0
 45
297.0
 46
0.0
 47
0.0
 48
0.0
 49
0.0
140
0.0
141
0.0
142
1.0
143
1.0
 70
1024
 72
1
 73
0
 74
0
  7

 75
0
147
1.0
148
0.0
149
0.0
100
AcDbLayout
  1
Model
 70
0
 71
0
 10
0.0
 20
0.0
 11
210.0
 21
297.0
 12
0.0
 22
0.0
 32
0.0
 14
0.0
 24
0.0
 34
0.0
 15
0.0
 25
0.0
 35
0.0
146
0.0
 13
0.0
 23
0.0
 33
0.0
 16
1.0
 26
0.0
 36
0.0
 17
0.0
 27
1.0
 37
0.0
 76
0
330
211
345
0
346
0
  0
LAYOUT
  5
2FC
102
{ACAD_REACTORS
330
1A
102
}
100
AcDbPlotSettings
  1

  2
none_device
  4

  6

 40
0.0
 41
0.0
 42
0.0
 43
0.0
 44
210.0
 45
297.0
 46
0.0
 47
0.0
 48
0.0
 49
0.0
140
0.0
141
0.0
142
1.0
143
1.0
 70
0
 72
1
 73
0
 74
0
  7

 75
0
147
1.0
148
0.0
149
0.0
100
AcDbLayout
  1
Layout1
 70
0
 71
1
 10
0.0
 20
0.0
 11
210.0
 21
297.0
 12
0.0
 22
0.0
 32
0.0
 14
0.0
 24
0.0
 34
0.0
 15
0.0
 25
0.0
 35
0.0
146
0.0
 13
0.0
 23
0.0
 33
0.0
 16
1.0
 26
0.0
 36
0.0
 17
0.0
 27
1.0
 37
0.0
 76
0
330
212
345
0
346
0
  0
ENDSEC
  0
EOF
