999
DXF file: C:\Users\sesa63760\Dev\_Creo\CAD\MCADID0005802_3D-CAD\mcadid0005802_3d-simplified_2.dxf
999
Pro/ENGINEER 2019471 by Parametric Technology Corporation
  0
SECTION
  2
HEADER
  9
$ACADVER
  1
AC1024
  9
$DWGCODEPAGE
  3
ANSI_1252
  9
$EXTMAX
 10
37.5049404723
 20
53.0427015251
 30
0.0
  9
$EXTMIN
 10
0.0
 20
0.0
 30
0.0
  9
$LIMMIN
 10
0.0
 20
0.0
  9
$LIMMAX
 10
37.5049404723
 20
53.0427015251
  9
$VIEWCTR
 10
18.7524702361
 20
26.5213507625
  9
$VIEWSIZE
 40
53.0427015251
  9
$CLAYER
  8
0
  9
$LTSCALE
 40
3.4575983216
  9
$CELTYPE
  6
BYLAYER
  9
$DIMSCALE
 40
1.0
  9
$DIMASZ
 40
0.4464873866
  9
$DIMEXO
 40
1.0
  9
$DIMDLI
 40
2.3888861131
  9
$DIMEXE
 40
1.0
  9
$DIMCEN
 40
0.5657888163
  9
$DIMLFAC
 40
1.0
  9
$DIMBLK
  1
_FILLED
  9
$DIMALT
 70
0
  9
$DIMALTF
 40
0.0393700787
  9
$DIMTXT
 40
0.6250823412
  9
$DIMTOL
 70
1
  9
$DIMLIM
 70
0
  9
$DIMTFAC
 40
1.0
  9
$DIMTP
 40
0.01
  9
$DIMTM
 40
0.01
  9
$DIMGAP
 40
0.625
  9
$DIMDSEP
 70
46
  9
$AUNITS
 70
0
  9
$PDMODE
 70
3
  9
$PDSIZE
 40
0.3125
  9
$HANDSEED
  5
25E
  9
$TILEMODE
 70
1
  9
$MEASUREMENT
 70
1
  9
$INSUNITS
 70
4
  0
ENDSEC
  0
SECTION
  2
CLASSES
  0
CLASS
  1
ACDBDICTIONARYWDFLT
  2
AcDbDictionaryWithDefault
  3
AutoCAD 2000
 90
0
 91
1
280
0
281
0
  0
CLASS
  1
ACDBPLACEHOLDER
  2
AcDbPlaceHolder
  3
AutoCAD 2000
 90
0
 91
1
280
0
281
0
  0
CLASS
  1
LAYOUT
  2
AcDbLayout
  3
AutoCAD 2000
 90
0
 91
0
280
0
281
0
  0
ENDSEC
  0
SECTION
  2
TABLES
  0
TABLE
  2
VPORT
  5
8
100
AcDbSymbolTable
 70
2
  0
VPORT
  5
1F4
100
AcDbSymbolTableRecord
100
AcDbViewportTableRecord
  2
*ACTIVE
 70
0
 10
0.0
 20
0.0
 11
1.0
 21
1.0
 12
18.7524702361
 22
26.5213507625
 13
0.0
 23
0.0
 14
1.0
 24
1.0
 15
0.0
 25
0.0
 16
0.0
 26
0.0
 36
1.0
 17
0.0
 27
0.0
 37
0.0
 40
53.0427015251
 41
0.7070707071
 42
50.0
 43
0.0
 44
0.0
 50
0.0
 51
0.0
 71
0
 72
100
 73
1
 74
1
 75
0
 76
0
 77
0
 78
0
  0
ENDTAB
  0
TABLE
  2
LTYPE
  5
5
100
AcDbSymbolTable
 70
6
  0
LTYPE
  5
14
100
AcDbSymbolTableRecord
100
AcDbLinetypeTableRecord
  2
BYBLOCK
 70
0
  3

 72
65
 73
0
 40
0.0
  0
LTYPE
  5
15
100
AcDbSymbolTableRecord
100
AcDbLinetypeTableRecord
  2
BYLAYER
 70
0
  3

 72
65
 73
0
 40
0.0
  0
LTYPE
  5
16
100
AcDbSymbolTableRecord
100
AcDbLinetypeTableRecord
  2
CONTINUOUS
 70
64
  3
Solid line
 72
65
 73
0
 40
0.0
  0
LTYPE
  5
1F5
100
AcDbSymbolTableRecord
100
AcDbLinetypeTableRecord
  2
CENTER
 70
64
  3
____ _ ____ _ ____ _ ____ _ ____ _ ____ _ ____
 72
65
 73
4
 40
0.6
 49
0.375
 74
0
 49
-0.075
 74
0
 49
0.075
 74
0
 49
-0.075
 74
0
  0
LTYPE
  5
1F6
100
AcDbSymbolTableRecord
100
AcDbLinetypeTableRecord
  2
HIDDEN
 70
64
  3
- - - - - - - - - - - - - - - - - - - -
 72
65
 73
2
 40
0.2
 49
0.1
 74
0
 49
-0.1
 74
0
  0
LTYPE
  5
1F7
100
AcDbSymbolTableRecord
100
AcDbLinetypeTableRecord
  2
PHANTOM
 70
64
  3
_____ _ _ _____ _ _ _____ _ _ _____
 72
65
 73
6
 40
0.8
 49
0.45
 74
0
 49
-0.05
 74
0
 49
0.1
 74
0
 49
-0.05
 74
0
 49
0.1
 74
0
 49
-0.05
 74
0
  0
LTYPE
  5
1F8
100
AcDbSymbolTableRecord
100
AcDbLinetypeTableRecord
  2
DOT
 70
64
  3
. . . . . . . . . . . . . . . . . . . .
 72
65
 73
2
 40
0.2
 49
0.1
 74
0
 49
-0.1
 74
0
  0
LTYPE
  5
1F9
100
AcDbSymbolTableRecord
100
AcDbLinetypeTableRecord
  2
DASHED
 70
64
  3
- - - - - - - - - - - - - - - - - - - -
 72
65
 73
2
 40
0.2
 49
0.1
 74
0
 49
-0.1
 74
0
  0
ENDTAB
  0
TABLE
  2
LAYER
  5
2
100
AcDbSymbolTable
 70
36
  0
LAYER
  5
10
100
AcDbSymbolTableRecord
100
AcDbLayerTableRecord
  2
0
 70
0
 62
7
  6
CONTINUOUS
370
-3
390
F
  0
LAYER
  5
1FA
100
AcDbSymbolTableRecord
100
AcDbLayerTableRecord
  2
DEFAULT_1
 70
0
 62
7
  6
CENTER
370
-3
390
F
  0
LAYER
  5
1FB
100
AcDbSymbolTableRecord
100
AcDbLayerTableRecord
  2
DEFAULT_2
 70
0
 62
7
  6
HIDDEN
370
-3
390
F
  0
LAYER
  5
1FC
100
AcDbSymbolTableRecord
100
AcDbLayerTableRecord
  2
DEFAULT_3
 70
0
 62
7
  6
PHANTOM
370
-3
390
F
  0
LAYER
  5
1FD
100
AcDbSymbolTableRecord
100
AcDbLayerTableRecord
  2
00_COMPONENTS
 70
0
 62
7
  6
CONTINUOUS
370
-3
390
F
  0
LAYER
  5
1FE
100
AcDbSymbolTableRecord
100
AcDbLayerTableRecord
  2
01_1_DEFAULT_DATUMS
 70
0
 62
7
  6
CONTINUOUS
370
-3
390
F
  0
LAYER
  5
1FF
100
AcDbSymbolTableRecord
100
AcDbLayerTableRecord
  2
01_PLANES
 70
0
 62
7
  6
CONTINUOUS
370
-3
390
F
  0
LAYER
  5
200
100
AcDbSymbolTableRecord
100
AcDbLayerTableRecord
  2
02_COORD_SYS
 70
0
 62
7
  6
CONTINUOUS
370
-3
390
F
  0
LAYER
  5
201
100
AcDbSymbolTableRecord
100
AcDbLayerTableRecord
  2
03_AXES
 70
0
 62
7
  6
CONTINUOUS
370
-3
390
F
  0
LAYER
  5
202
100
AcDbSymbolTableRecord
100
AcDbLayerTableRecord
  2
04_POINTS
 70
0
 62
7
  6
CONTINUOUS
370
-3
390
F
  0
LAYER
  5
203
100
AcDbSymbolTableRecord
100
AcDbLayerTableRecord
  2
05_CURVES
 70
0
 62
7
  6
CONTINUOUS
370
-3
390
F
  0
LAYER
  5
204
100
AcDbSymbolTableRecord
100
AcDbLayerTableRecord
  2
06_SURFS
 70
0
 62
7
  6
CONTINUOUS
370
-3
390
F
  0
LAYER
  5
205
100
AcDbSymbolTableRecord
100
AcDbLayerTableRecord
  2
07_COSMETICS
 70
0
 62
7
  6
CONTINUOUS
370
-3
390
F
  0
LAYER
  5
206
100
AcDbSymbolTableRecord
100
AcDbLayerTableRecord
  2
10_NOTES
 70
0
 62
7
  6
CONTINUOUS
370
-3
390
F
  0
LAYER
  5
207
100
AcDbSymbolTableRecord
100
AcDbLayerTableRecord
  2
11_NOTES_PUB
 70
0
 62
7
  6
CONTINUOUS
370
-3
390
F
  0
LAYER
  5
208
100
AcDbSymbolTableRecord
100
AcDbLayerTableRecord
  2
13_REF_GTOL
 70
0
 62
7
  6
CONTINUOUS
370
-3
390
F
  0
LAYER
  5
209
100
AcDbSymbolTableRecord
100
AcDbLayerTableRecord
  2
16_MISC
 70
0
 62
7
  6
CONTINUOUS
370
-3
390
F
  0
LAYER
  5
20A
100
AcDbSymbolTableRecord
100
AcDbLayerTableRecord
  2
17_NO_PRINT
 70
0
 62
7
  6
CONTINUOUS
370
-3
390
F
  0
LAYER
  5
20B
100
AcDbSymbolTableRecord
100
AcDbLayerTableRecord
  2
18_DATUM_CAMS_JOINTS
 70
0
 62
7
  6
CONTINUOUS
370
-3
390
F
  0
LAYER
  5
20C
100
AcDbSymbolTableRecord
100
AcDbLayerTableRecord
  2
19_DATUM_FUNCTIONAL
 70
0
 62
7
  6
CONTINUOUS
370
-3
390
F
  0
LAYER
  5
20D
100
AcDbSymbolTableRecord
100
AcDbLayerTableRecord
  2
20_DATUM_KINEMATIC_SCHEME
 70
0
 62
7
  6
CONTINUOUS
370
-3
390
F
  0
ENDTAB
  0
TABLE
  2
STYLE
  5
3
100
AcDbSymbolTable
 70
1
  0
STYLE
  5
11
100
AcDbSymbolTableRecord
100
AcDbTextStyleTableRecord
  2
STANDARD
 70
0
 40
0.0
 41
1.0
 50
0.0
 71
0
 42
0.2
  3
ARIAL.TTF
  4

  0
STYLE
  5
20E
100
AcDbSymbolTableRecord
100
AcDbTextStyleTableRecord
  2
TEXTSTYLE_1
 70
0
 40
0.0
 41
0.8
 50
0.0
 71
0
 42
0.2
  3
gdt
  4

  0
ENDTAB
  0
TABLE
  2
VIEW
  5
6
100
AcDbSymbolTable
 70
0
  0
ENDTAB
  0
TABLE
  2
UCS
  5
7
100
AcDbSymbolTable
 70
0
  0
ENDTAB
  0
TABLE
  2
APPID
  5
9
100
AcDbSymbolTable
 70
1
  0
APPID
  5
20F
100
AcDbSymbolTableRecord
100
AcDbRegAppTableRecord
  2
ACAD
 70
0
  0
ENDTAB
  0
TABLE
  2
BLOCK_RECORD
  5
1
100
AcDbSymbolTable
 70
0
  0
BLOCK_RECORD
  5
210
100
AcDbSymbolTableRecord
100
AcDbBlockTableRecord
  2
*Model_Space
  0
BLOCK_RECORD
  5
211
100
AcDbSymbolTableRecord
100
AcDbBlockTableRecord
  2
*Paper_Space
  0
BLOCK_RECORD
  5
212
100
AcDbSymbolTableRecord
100
AcDbBlockTableRecord
  2
_FILLED
  0
ENDTAB
  0
TABLE
  2
DIMSTYLE
  5
A
100
AcDbSymbolTable
 70
1
100
AcDbDimStyleTable
 71
0
  0
DIMSTYLE
105
213
100
AcDbSymbolTableRecord
100
AcDbDimStyleTableRecord
  2
STANDARD
 70
0
  3

  4

 40
1.0
 41
0.4464873866
 42
1.0
 43
0.38
 44
1.0
 45
0.0
 46
0.0
 47
0.01
 48
0.01
140
0.6250823412
141
0.09
142
0.0
143
25.4
144
1.0
145
0.0
146
1.0
147
0.625
 71
1
 72
0
 73
0
 74
0
 75
0
 76
0
 77
1
 78
8
 79
2
170
0
171
1
172
0
173
0
174
0
175
0
176
0
177
0
178
0
270
2
179
2
271
2
272
2
273
2
274
2
275
0
280
0
281
0
282
0
283
1
284
8
285
0
286
0
287
3
288
0
340
11
278
46
341
212
342
212
343
212
344
212
  0
ENDTAB
  0
ENDSEC
  0
SECTION
  2
BLOCKS
  0
BLOCK
  5
20
100
AcDbEntity
  8
0
100
AcDbBlockBegin
  2
*Model_Space
 70
0
 10
0.0
 20
0.0
 30
0.0
  3
*Model_Space
  1

  0
ENDBLK
  5
21
100
AcDbEntity
  8
0
100
AcDbBlockEnd
  0
BLOCK
  5
1C
100
AcDbEntity
  8
0
100
AcDbBlockBegin
  2
*Paper_Space
 70
0
 10
0.0
 20
0.0
 30
0.0
  3
*Paper_Space
  1

  0
ENDBLK
  5
1D
100
AcDbEntity
  8
0
100
AcDbBlockEnd
  0
BLOCK
  5
214
100
AcDbEntity
  8
0
100
AcDbBlockBegin
  2
_FILLED
 70
64
 10
0.0
 20
0.0
  3
_FILLED
  1

  0
SOLID
  5
215
100
AcDbEntity
  8
0
  6
BYBLOCK
 62
0
100
AcDbTrace
 10
0.0
 20
0.0
 11
-1.0
 21
0.25
 12
-1.0
 22
-0.25
 13
-1.0
 23
-0.25
  0
ENDBLK
  5
216
100
AcDbEntity
  8
0
  6
BYBLOCK
 62
0
100
AcDbBlockEnd
  0
ENDSEC
  0
SECTION
  2
ENTITIES
  0
LINE
  5
217
100
AcDbEntity
  8
0
100
AcDbLine
 62
7
  6
BYLAYER
 10
5.2121652252
 20
43.7989651417
 11
8.3298566789
 21
45.5989651417
  0
LINE
  5
218
100
AcDbEntity
  8
0
100
AcDbLine
 62
7
  6
BYLAYER
 10
5.1121652252
 20
5.7989651417
 11
32.9121652252
 21
5.7989651417
  0
LINE
  5
219
100
AcDbEntity
  8
0
100
AcDbLine
 62
7
  6
BYLAYER
 10
32.4121652252
 20
6.6806000452
 11
25.5121652252
 21
6.6806000452
  0
LINE
  5
21A
100
AcDbEntity
  8
0
100
AcDbLine
 62
7
  6
BYLAYER
 10
24.0121652252
 20
6.6806000452
 11
14.0121652252
 21
6.6806000452
  0
LINE
  5
21B
100
AcDbEntity
  8
0
100
AcDbLine
 62
7
  6
BYLAYER
 10
12.5121652252
 20
6.6806000452
 11
5.6121652252
 21
6.6806000452
  0
LINE
  5
21C
100
AcDbEntity
  8
0
100
AcDbLine
 62
7
  6
BYLAYER
 10
32.9121652252
 20
6.9450905163
 11
5.1121652252
 21
6.9450905163
  0
LINE
  5
21D
100
AcDbEntity
  8
0
100
AcDbLine
 62
7
  6
BYLAYER
 10
33.8871652252
 20
8.2989651417
 11
24.0871652252
 21
8.2989651417
  0
LINE
  5
21E
100
AcDbEntity
  8
0
100
AcDbLine
 62
7
  6
BYLAYER
 10
33.8871652252
 20
9.7989651417
 11
24.0871652252
 21
9.7989651417
  0
LINE
  5
21F
100
AcDbEntity
  8
0
100
AcDbLine
 62
7
  6
BYLAYER
 10
5.1121652252
 20
10.906081219
 11
13.0621652252
 21
10.906081219
  0
LINE
  5
220
100
AcDbEntity
  8
0
100
AcDbLine
 62
7
  6
BYLAYER
 10
14.9621652252
 20
10.906081219
 11
23.0621652252
 21
10.906081219
  0
LINE
  5
221
100
AcDbEntity
  8
0
100
AcDbLine
 62
7
  6
BYLAYER
 10
4.1121652252
 20
11.5989651417
 11
4.1121652252
 21
34.7989651417
  0
LINE
  5
222
100
AcDbEntity
  8
0
100
AcDbLine
 62
7
  6
BYLAYER
 10
4.9621652252
 20
11.5989651417
 11
4.9621652252
 21
19.3989651417
  0
LINE
  5
223
100
AcDbEntity
  8
0
100
AcDbLine
 62
7
  6
BYLAYER
 10
5.1121652252
 20
5.7989651417
 11
5.1121652252
 21
11.5989651417
  0
LINE
  5
224
100
AcDbEntity
  8
0
100
AcDbLine
 62
7
  6
BYLAYER
 10
5.2121652252
 20
34.7989651417
 11
5.2121652252
 21
43.7989651417
  0
LINE
  5
225
100
AcDbEntity
  8
0
100
AcDbLine
 62
7
  6
BYLAYER
 10
5.6121652252
 20
5.7989651417
 11
5.6121652252
 21
6.6806000452
  0
LINE
  5
226
100
AcDbEntity
  8
0
100
AcDbLine
 62
7
  6
BYLAYER
 10
33.9121652252
 20
11.5989651417
 11
33.8871652252
 21
11.5989651417
  0
LINE
  5
227
100
AcDbEntity
  8
0
100
AcDbLine
 62
7
  6
BYLAYER
 10
4.1121652252
 20
11.5989651417
 11
5.1121652252
 21
11.5989651417
  0
LINE
  5
228
100
AcDbEntity
  8
0
100
AcDbLine
 62
7
  6
BYLAYER
 10
13.0621652252
 20
12.1989651417
 11
4.9621652252
 21
12.1989651417
  0
LINE
  5
229
100
AcDbEntity
  8
0
100
AcDbLine
 62
7
  6
BYLAYER
 10
14.9621652252
 20
12.1989651417
 11
23.0621652252
 21
12.1989651417
  0
LINE
  5
22A
100
AcDbEntity
  8
0
100
AcDbLine
 62
7
  6
BYLAYER
 10
8.9166904865
 20
23.9554270302
 11
8.9127466381
 21
24.6171946024
  0
LINE
  5
22B
100
AcDbEntity
  8
0
100
AcDbLine
 62
7
  6
BYLAYER
 10
13.0621652252
 20
15.206081219
 11
14.5019588033
 21
15.206081219
  0
LINE
  5
22C
100
AcDbEntity
  8
0
100
AcDbLine
 62
7
  6
BYLAYER
 10
23.5223716472
 20
15.206081219
 11
24.0871652252
 21
15.206081219
  0
LINE
  5
22D
100
AcDbEntity
  8
0
100
AcDbLine
 62
7
  6
BYLAYER
 10
10.4428321766
 20
19.5733886895
 11
10.4460602039
 21
19.0317340641
  0
LINE
  5
22E
100
AcDbEntity
  8
0
100
AcDbLine
 62
7
  6
BYLAYER
 10
4.1121652252
 20
16.9435187801
 11
4.9621652252
 21
16.9435187801
  0
LINE
  5
22F
100
AcDbEntity
  8
0
100
AcDbLine
 62
7
  6
BYLAYER
 10
33.8871652252
 20
16.9435187801
 11
33.9121652252
 21
16.9435187801
  0
LINE
  5
230
100
AcDbEntity
  8
0
100
AcDbLine
 62
7
  6
BYLAYER
 10
4.1121652252
 20
19.3989651417
 11
4.9621652252
 21
19.3989651417
  0
LINE
  5
231
100
AcDbEntity
  8
0
100
AcDbLine
 62
7
  6
BYLAYER
 10
33.8871652252
 20
19.3989651417
 11
33.9121652252
 21
19.3989651417
  0
LINE
  5
232
100
AcDbEntity
  8
0
100
AcDbLine
 62
7
  6
BYLAYER
 10
12.5121652252
 20
6.6806000452
 11
12.5121652252
 21
5.7989651417
  0
LINE
  5
233
100
AcDbEntity
  8
0
100
AcDbLine
 62
7
  6
BYLAYER
 10
13.0621652252
 20
10.906081219
 11
13.0621652252
 21
16.0758270545
  0
LINE
  5
234
100
AcDbEntity
  8
0
100
AcDbLine
 62
7
  6
BYLAYER
 10
14.0121652252
 20
5.7989651417
 11
14.0121652252
 21
6.6806000452
  0
LINE
  5
235
100
AcDbEntity
  8
0
100
AcDbLine
 62
7
  6
BYLAYER
 10
14.9621652252
 20
14.9919785187
 11
14.9621652252
 21
10.906081219
  0
LINE
  5
236
100
AcDbEntity
  8
0
100
AcDbLine
 62
7
  6
BYLAYER
 10
23.0621652252
 20
10.906081219
 11
23.0621652252
 21
14.9919785187
  0
LINE
  5
237
100
AcDbEntity
  8
0
100
AcDbLine
 62
7
  6
BYLAYER
 10
24.0121652252
 20
6.6806000452
 11
24.0121652252
 21
5.7989651417
  0
LINE
  5
238
100
AcDbEntity
  8
0
100
AcDbLine
 62
7
  6
BYLAYER
 10
24.0871652252
 20
40.2989651417
 11
24.0871652252
 21
8.2989651417
  0
LINE
  5
239
100
AcDbEntity
  8
0
100
AcDbLine
 62
7
  6
BYLAYER
 10
25.5121652252
 20
5.7989651417
 11
25.5121652252
 21
6.6806000452
  0
LINE
  5
23A
100
AcDbEntity
  8
0
100
AcDbLine
 62
7
  6
BYLAYER
 10
4.1121652252
 20
34.7989651417
 11
5.2121652252
 21
34.7989651417
  0
LINE
  5
23B
100
AcDbEntity
  8
0
100
AcDbLine
 62
7
  6
BYLAYER
 10
33.8871652252
 20
34.7989651417
 11
33.9121652252
 21
34.7989651417
  0
LINE
  5
23C
100
AcDbEntity
  8
0
100
AcDbLine
 62
7
  6
BYLAYER
 10
5.2121652252
 20
36.3989651417
 11
24.0871652252
 21
36.3989651417
  0
LINE
  5
23D
100
AcDbEntity
  8
0
100
AcDbLine
 62
7
  6
BYLAYER
 10
5.2121652252
 20
36.7989651417
 11
24.0871652252
 21
36.7989651417
  0
LINE
  5
23E
100
AcDbEntity
  8
0
100
AcDbLine
 62
7
  6
BYLAYER
 10
32.4121652252
 20
6.6806000452
 11
32.4121652252
 21
5.7989651417
  0
LINE
  5
23F
100
AcDbEntity
  8
0
100
AcDbLine
 62
7
  6
BYLAYER
 10
24.0871652252
 20
38.7989651417
 11
33.8871652252
 21
38.7989651417
  0
LINE
  5
240
100
AcDbEntity
  8
0
100
AcDbLine
 62
7
  6
BYLAYER
 10
32.8121652252
 20
40.2989651417
 11
32.8121652252
 21
43.7989651417
  0
LINE
  5
241
100
AcDbEntity
  8
0
100
AcDbLine
 62
7
  6
BYLAYER
 10
32.9121652252
 20
5.7989651417
 11
32.9121652252
 21
8.2989651417
  0
LINE
  5
242
100
AcDbEntity
  8
0
100
AcDbLine
 62
7
  6
BYLAYER
 10
33.8871652252
 20
8.2989651417
 11
33.8871652252
 21
40.2989651417
  0
LINE
  5
243
100
AcDbEntity
  8
0
100
AcDbLine
 62
7
  6
BYLAYER
 10
33.9121652252
 20
11.5989651417
 11
33.9121652252
 21
34.7989651417
  0
LINE
  5
244
100
AcDbEntity
  8
0
100
AcDbLine
 62
7
  6
BYLAYER
 10
33.8871652252
 20
40.2989651417
 11
24.0871652252
 21
40.2989651417
  0
LINE
  5
245
100
AcDbEntity
  8
0
100
AcDbLine
 62
7
  6
BYLAYER
 10
5.2121652252
 20
42.3268901232
 11
32.8121652252
 21
42.3268901232
  0
LINE
  5
246
100
AcDbEntity
  8
0
100
AcDbLine
 62
7
  6
BYLAYER
 10
5.2121652252
 20
43.5989651417
 11
32.8121652252
 21
43.5989651417
  0
LINE
  5
247
100
AcDbEntity
  8
0
100
AcDbLine
 62
7
  6
BYLAYER
 10
29.6944737716
 20
45.5989651417
 11
22.8295596246
 21
45.5989651417
  0
LINE
  5
248
100
AcDbEntity
  8
0
100
AcDbLine
 62
7
  6
BYLAYER
 10
15.1947708259
 20
45.5989651417
 11
8.3298566789
 21
45.5989651417
  0
LINE
  5
249
100
AcDbEntity
  8
0
100
AcDbLine
 62
7
  6
BYLAYER
 10
29.6944737716
 20
45.5989651417
 11
32.8121652252
 21
43.7989651417
  0
ARC
  5
24A
100
AcDbEntity
  8
0
100
AcDbCircle
 62
7
  6
BYLAYER
 10
19.0121652252
 20
24.2989651417
 40
10.15
100
AcDbArc
 50
59.679139128
 51
300.005660695
  0
ARC
  5
24B
100
AcDbEntity
  8
0
100
AcDbCircle
 62
7
  6
BYLAYER
 10
19.0121652252
 20
24.2989651417
 40
9.9015438624
100
AcDbArc
 50
58.8614549817
 51
301.1332409885
  0
ARC
  5
24C
100
AcDbEntity
  8
0
100
AcDbCircle
 62
7
  6
BYLAYER
 10
19.0121652252
 20
41.2989651417
 40
5.75
100
AcDbArc
 50
48.4024161073
 51
131.5975838926
  0
ARC
  5
24D
100
AcDbEntity
  8
0
100
AcDbCircle
 62
7
  6
BYLAYER
 10
28.9948407386
 20
33.2331678822
 40
3.0487331561
100
AcDbArc
 50
238.2406898473
 51
269.8573081999
  0
ARC
  5
24E
100
AcDbEntity
  8
0
100
AcDbCircle
 62
7
  6
BYLAYER
 10
28.9394628194
 20
32.5238131221
 40
2.9455341093
100
AcDbArc
 50
265.4897301862
 51
269.9992610747
  0
ARC
  5
24F
100
AcDbEntity
  8
0
100
AcDbCircle
 62
7
  6
BYLAYER
 10
28.9572440961
 20
32.7478596724
 40
2.9455316149
100
AcDbArc
 50
85.4897263219
 51
89.9992429375
  0
ARC
  5
250
100
AcDbEntity
  8
0
100
AcDbCircle
 62
7
  6
BYLAYER
 10
28.8777775108
 20
33.1376894959
 40
2.8906211276
100
AcDbArc
 50
180.7281481414
 51
185.2277750349
  0
ARC
  5
251
100
AcDbEntity
  8
0
100
AcDbCircle
 62
7
  6
BYLAYER
 10
29.0980163446
 20
33.1200855248
 40
2.889322643
100
AcDbArc
 50
345.7571707204
 51
351.0512065172
  0
SPLINE
  5
252
100
AcDbEntity
  8
0
100
AcDbSpline
 62
7
  6
BYLAYER
 70
0
 71
3
 72
15
 73
11
 74
0
 42
0.0000001
 43
0.0000001
 44
0.0000000001
 40
0.0
 40
0.0
 40
0.0
 40
0.0
 40
0.125003109
 40
0.2500084736
 40
0.3750124209
 40
0.500011608
 40
0.6250088879
 40
0.7500126614
 40
0.8750110261
 40
1.0
 40
1.0
 40
1.0
 40
1.0
 10
25.9572132193
 20
32.8718355813
 30
0.0
 10
25.9720356456
 20
33.0595865176
 30
0.0
 10
26.0359347692
 20
33.4332865598
 30
0.0
 10
26.2314448848
 20
33.9665795336
 30
0.0
 10
26.5207179479
 20
34.455655803
 30
0.0
 10
26.8947791003
 20
34.8833954956
 30
0.0
 10
27.341634394
 20
35.2345096433
 30
0.0
 10
27.8464260997
 20
35.4958117296
 30
0.0
 10
28.3913343514
 20
35.6570312636
 30
0.0
 10
28.7689691901
 20
35.6933913538
 30
0.0
 10
28.9572830161
 20
35.693391287
 30
0.0
  0
SPLINE
  5
253
100
AcDbEntity
  8
0
100
AcDbSpline
 62
7
  6
BYLAYER
 70
0
 71
3
 72
15
 73
11
 74
0
 42
0.0000001
 43
0.0000001
 44
0.0000000001
 40
0.0
 40
0.0
 40
0.0
 40
0.0
 40
0.1249925824
 40
0.2499839458
 40
0.374984708
 40
0.4999796711
 40
0.6249794467
 40
0.7499865832
 40
0.8749951845
 40
1.0
 40
1.0
 40
1.0
 40
1.0
 10
29.188874373
 20
35.68426971
 30
0.0
 10
29.3861942668
 20
35.6687011948
 30
0.0
 10
29.7788256879
 20
35.5973929663
 30
0.0
 10
30.3334835518
 20
35.3748457395
 30
0.0
 10
30.8329571655
 20
35.0463581971
 30
0.0
 10
31.2577405649
 20
34.6258954407
 30
0.0
 10
31.5923662653
 20
34.1307554095
 30
0.0
 10
31.8251620155
 20
33.5803571504
 30
0.0
 10
31.9484642702
 20
32.9958785528
 30
0.0
 10
31.9550727961
 20
32.5971732118
 30
0.0
 10
31.9394934598
 20
32.39983474
 30
0.0
  0
SPLINE
  5
254
100
AcDbEntity
  8
0
100
AcDbSpline
 62
7
  6
BYLAYER
 70
0
 71
3
 72
15
 73
11
 74
0
 42
0.0000001
 43
0.0000001
 44
0.0000000001
 40
0.0
 40
0.0
 40
0.0
 40
0.0
 40
0.1258294565
 40
0.2515157231
 40
0.3768698157
 40
0.5019412902
 40
0.6267685179
 40
0.7513592367
 40
0.8757522384
 40
1.0
 40
1.0
 40
1.0
 40
1.0
 10
27.3901505458
 20
30.6409588536
 30
0.0
 10
27.2929884849
 20
30.7012098035
 30
0.0
 10
27.1054734961
 20
30.8328460759
 30
0.0
 10
26.8488367851
 20
31.0606081184
 30
0.0
 10
26.6204277028
 20
31.3158190537
 30
0.0
 10
26.4233241282
 20
31.5949446241
 30
0.0
 10
26.2600248907
 20
31.8943209533
 30
0.0
 10
26.1327936069
 20
32.2100662782
 30
0.0
 10
26.0432237397
 20
32.5378971536
 30
0.0
 10
26.0094635631
 20
32.7618890882
 30
0.0
 10
25.9991803668
 20
32.8743095683
 30
0.0
  0
SPLINE
  5
255
100
AcDbEntity
  8
0
100
AcDbSpline
 62
7
  6
BYLAYER
 70
0
 71
3
 72
15
 73
11
 74
0
 42
0.0000001
 43
0.0000001
 44
0.0000000001
 40
0.0
 40
0.0
 40
0.0
 40
0.0
 40
0.1249925825
 40
0.2499839457
 40
0.3749847081
 40
0.4999796711
 40
0.6249794467
 40
0.7499865832
 40
0.8749951845
 40
1.0
 40
1.0
 40
1.0
 40
1.0
 10
28.7078325444
 20
29.5874005822
 30
0.0
 10
28.5105126389
 20
29.6029690774
 30
0.0
 10
28.1178811959
 20
29.6742773022
 30
0.0
 10
27.5632232868
 20
29.8968244933
 30
0.0
 10
27.0637496303
 20
30.2253120278
 30
0.0
 10
26.6389661898
 20
30.6457747858
 30
0.0
 10
26.3043404553
 20
31.1409148311
 30
0.0
 10
26.0715446798
 20
31.6913131127
 30
0.0
 10
25.9482424102
 20
32.2757917383
 30
0.0
 10
25.9416338822
 20
32.6744970996
 30
0.0
 10
25.9572132193
 20
32.8718355813
 30
0.0
  0
SPLINE
  5
256
100
AcDbEntity
  8
0
100
AcDbSpline
 62
7
  6
BYLAYER
 70
0
 71
3
 72
15
 73
11
 74
0
 42
0.0000001
 43
0.0000001
 44
0.0000000001
 40
0.0
 40
0.0
 40
0.0
 40
0.0
 40
0.1238800316
 40
0.2480034913
 40
0.372457154
 40
0.4972897358
 40
0.6225151387
 40
0.7480842597
 40
0.8739677387
 40
1.0
 40
1.0
 40
1.0
 40
1.0
 10
31.898526147
 20
32.4092197274
 30
0.0
 10
31.8584806485
 20
32.2514507015
 30
0.0
 10
31.7513978336
 20
31.9417481786
 30
0.0
 10
31.5150748604
 20
31.5106887336
 30
0.0
 10
31.2093376514
 20
31.1239967028
 30
0.0
 10
30.8426670673
 20
30.7924295278
 30
0.0
 10
30.4251488481
 20
30.5250549578
 30
0.0
 10
29.9682165656
 20
30.329075395
 30
0.0
 10
29.4845593695
 20
30.209986519
 30
0.0
 10
29.1528471172
 20
30.1839209758
 30
0.0
 10
28.9872479555
 20
30.1844045536
 30
0.0
  0
SPLINE
  5
257
100
AcDbEntity
  8
0
100
AcDbSpline
 62
7
  6
BYLAYER
 70
0
 71
3
 72
11
 73
7
 74
0
 42
0.0000001
 43
0.0000001
 44
0.0000000001
 40
0.0
 40
0.0
 40
0.0
 40
0.0
 40
0.2507354859
 40
0.5009742468
 40
0.7506504184
 40
1.0
 40
1.0
 40
1.0
 40
1.0
 10
31.1084855688
 20
17.1341358352
 30
0.0
 10
31.2200320894
 20
17.0242839569
 30
0.0
 10
31.4259046676
 20
16.7867342218
 30
0.0
 10
31.6739908225
 20
16.3868159657
 30
0.0
 10
31.855016463
 20
15.9533384056
 30
0.0
 10
31.9281003776
 20
15.6488232639
 30
0.0
 10
31.9521606082
 20
15.4950020564
 30
0.0
  0
SPLINE
  5
258
100
AcDbEntity
  8
0
100
AcDbSpline
 62
7
  6
BYLAYER
 70
0
 71
3
 72
11
 73
7
 74
0
 42
0.0000001
 43
0.0000001
 44
0.0000000001
 40
0.0
 40
0.0
 40
0.0
 40
0.0
 40
0.250644136
 40
0.5010059745
 40
0.7508452426
 40
1.0
 40
1.0
 40
1.0
 40
1.0
 10
28.9871652394
 20
17.9994663747
 30
0.0
 10
29.1831709494
 20
17.9994663736
 30
0.0
 10
29.5760087213
 20
17.96143341
 30
0.0
 10
30.1420230998
 20
17.7923627806
 30
0.0
 10
30.6638408794
 20
17.5179349827
 30
0.0
 10
30.9696616859
 20
17.2708506714
 30
0.0
 10
31.1084855688
 20
17.1341358352
 30
0.0
  0
SPLINE
  5
259
100
AcDbEntity
  8
0
100
AcDbSpline
 62
7
  6
BYLAYER
 70
0
 71
3
 72
15
 73
11
 74
0
 42
0.0000001
 43
0.0000001
 44
0.0000000001
 40
0.0
 40
0.0
 40
0.0
 40
0.0
 40
0.1240493008
 40
0.248305192
 40
0.3728484618
 40
0.4977225218
 40
0.6229329461
 40
0.7484318902
 40
0.8741656666
 40
1.0
 40
1.0
 40
1.0
 40
1.0
 10
26.0206204985
 20
15.484958556
 30
0.0
 10
26.0470434341
 20
15.6578392326
 30
0.0
 10
26.1314418416
 20
15.9998925609
 30
0.0
 10
26.3477926716
 20
16.4819137332
 30
0.0
 10
26.6472759168
 20
16.918776533
 30
0.0
 10
27.0203688543
 20
17.2965354446
 30
0.0
 10
27.4553026383
 20
17.6033570093
 30
0.0
 10
27.9384155829
 20
17.8296759519
 30
0.0
 10
28.4543124888
 20
17.9683198818
 30
0.0
 10
28.8097603997
 20
17.9994663757
 30
0.0
 10
28.9871652394
 20
17.9994663747
 30
0.0
  0
SPLINE
  5
25A
100
AcDbEntity
  8
0
100
AcDbSpline
 62
7
  6
BYLAYER
 70
0
 71
3
 72
15
 73
11
 74
0
 42
0.0000001
 43
0.0000001
 44
0.0000000001
 40
0.0
 40
0.0
 40
0.0
 40
0.0
 40
0.1250031092
 40
0.2500084739
 40
0.3750124214
 40
0.5000116087
 40
0.6250088886
 40
0.7500126625
 40
0.8750110259
 40
1.0
 40
1.0
 40
1.0
 40
1.0
 10
31.9394934598
 20
32.39983474
 30
0.0
 10
31.9246710372
 20
32.2120838516
 30
0.0
 10
31.8607719389
 20
31.8383839046
 30
0.0
 10
31.6652619111
 20
31.305091055
 30
0.0
 10
31.3759889803
 20
30.8160148782
 30
0.0
 10
31.0019279958
 20
30.3882752339
 30
0.0
 10
30.5550728935
 20
30.0371610817
 30
0.0
 10
30.0502813903
 20
29.7758589251
 30
0.0
 10
29.5053733319
 20
29.6146392762
 30
0.0
 10
29.1277386097
 20
29.5782790131
 30
0.0
 10
28.9394248318
 20
29.5782790131
 30
0.0
  0
ELLIPSE
  5
25B
100
AcDbEntity
  8
0
100
AcDbEllipse
 62
7
  6
BYLAYER
 10
28.9871652252
 20
15.9126192614
 30
0.0
 11
0.0
 21
3.0462798357
 31
0.0
 40
0.984807753
 41
0.0
 42
6.2831853072
  0
ENDSEC
  0
SECTION
  2
OBJECTS
  0
DICTIONARY
  5
C
100
AcDbDictionary
280
0
281
1
  3
ACAD_GROUP
350
D
  3
ACAD_MLINESTYLE
350
17
  3
ACAD_LAYOUT
350
1A
  3
ACAD_PLOTSETTINGS
350
19
  3
ACAD_PLOTSTYLENAME
350
E
  0
DICTIONARY
  5
D
102
{ACAD_REACTORS
330
C
102
}
100
AcDbDictionary
280
0
281
1
  0
ACDBDICTIONARYWDFLT
  5
E
102
{ACAD_REACTORS
330
C
102
}
100
AcDbDictionary
281
1
  3
Normal
350
F
100
AcDbDictionaryWithDefault
340
F
  0
DICTIONARY
  5
17
102
{ACAD_REACTORS
330
C
102
}
100
AcDbDictionary
280
0
281
1
  3
Standard
350
18
  0
DICTIONARY
  5
19
102
{ACAD_REACTORS
330
C
102
}
100
AcDbDictionary
281
1
  0
DICTIONARY
  5
1A
102
{ACAD_REACTORS
330
C
102
}
100
AcDbDictionary
281
1
  3
Model
350
25C
  3
Layout1
350
25D
  0
ACDBPLACEHOLDER
  5
F
102
{ACAD_REACTORS
330
E
102
}
  0
MLINESTYLE
  5
18
102
{ACAD_REACTORS
330
17
102
}
100
AcDbMlineStyle
  2
STANDARD
 70
0
  3

 62
256
 51
90.0
 52
90.0
 71
2
 49
0.5
 62
256
  6
BYLAYER
 49
-0.5
 62
256
  6
BYLAYER
  0
LAYOUT
  5
25C
102
{ACAD_REACTORS
330
1A
102
}
100
AcDbPlotSettings
  1

  2
none_device
  4

  6

 40
0.0
 41
0.0
 42
0.0
 43
0.0
 44
210.0
 45
297.0
 46
0.0
 47
0.0
 48
0.0
 49
0.0
140
0.0
141
0.0
142
1.0
143
1.0
 70
1024
 72
1
 73
0
 74
0
  7

 75
0
147
1.0
148
0.0
149
0.0
100
AcDbLayout
  1
Model
 70
0
 71
0
 10
0.0
 20
0.0
 11
210.0
 21
297.0
 12
0.0
 22
0.0
 32
0.0
 14
0.0
 24
0.0
 34
0.0
 15
0.0
 25
0.0
 35
0.0
146
0.0
 13
0.0
 23
0.0
 33
0.0
 16
1.0
 26
0.0
 36
0.0
 17
0.0
 27
1.0
 37
0.0
 76
0
330
210
345
0
346
0
  0
LAYOUT
  5
25D
102
{ACAD_REACTORS
330
1A
102
}
100
AcDbPlotSettings
  1

  2
none_device
  4

  6

 40
0.0
 41
0.0
 42
0.0
 43
0.0
 44
210.0
 45
297.0
 46
0.0
 47
0.0
 48
0.0
 49
0.0
140
0.0
141
0.0
142
1.0
143
1.0
 70
0
 72
1
 73
0
 74
0
  7

 75
0
147
1.0
148
0.0
149
0.0
100
AcDbLayout
  1
Layout1
 70
0
 71
1
 10
0.0
 20
0.0
 11
210.0
 21
297.0
 12
0.0
 22
0.0
 32
0.0
 14
0.0
 24
0.0
 34
0.0
 15
0.0
 25
0.0
 35
0.0
146
0.0
 13
0.0
 23
0.0
 33
0.0
 16
1.0
 26
0.0
 36
0.0
 17
0.0
 27
1.0
 37
0.0
 76
0
330
211
345
0
346
0
  0
ENDSEC
  0
EOF
