999
DXF file: C:\Users\sesa63760\Dev\_Creo\CAD\MCADID0005413_3D-CAD\drw0001_3.dxf
999
Pro/ENGINEER 2019471 by Parametric Technology Corporation
  0
SECTION
  2
HEADER
  9
$ACADVER
  1
AC1024
  9
$DWGCODEPAGE
  3
ANSI_1252
  9
$EXTMAX
 10
88.6123206251
 20
125.3231391698
 30
0.0
  9
$EXTMIN
 10
0.0
 20
0.0
 30
0.0
  9
$LIMMIN
 10
0.0
 20
0.0
  9
$LIMMAX
 10
88.6123206251
 20
125.3231391698
  9
$VIEWCTR
 10
44.3061603125
 20
62.6615695849
  9
$VIEWSIZE
 40
125.3231391698
  9
$CLAYER
  8
0
  9
$LTSCALE
 40
8.1692120348
  9
$CELTYPE
  6
BYLAYER
  9
$DIMSCALE
 40
1.0
  9
$DIMASZ
 40
1.0549085789
  9
$DIMEXO
 40
1.0
  9
$DIMDLI
 40
5.6441828604
  9
$DIMEXE
 40
1.0
  9
$DIMCEN
 40
1.3367801511
  9
$DIMLFAC
 40
1.0
  9
$DIMBLK
  1
_FILLED
  9
$DIMALT
 70
0
  9
$DIMALTF
 40
0.0393700787
  9
$DIMTXT
 40
1.4768720104
  9
$DIMTOL
 70
1
  9
$DIMLIM
 70
0
  9
$DIMTFAC
 40
1.0
  9
$DIMTP
 40
0.01
  9
$DIMTM
 40
0.01
  9
$DIMGAP
 40
0.625
  9
$DIMDSEP
 70
46
  9
$AUNITS
 70
0
  9
$PDMODE
 70
3
  9
$PDSIZE
 40
0.3125
  9
$HANDSEED
  5
358
  9
$TILEMODE
 70
1
  9
$MEASUREMENT
 70
1
  9
$INSUNITS
 70
4
  0
ENDSEC
  0
SECTION
  2
CLASSES
  0
CLASS
  1
ACDBDICTIONARYWDFLT
  2
AcDbDictionaryWithDefault
  3
AutoCAD 2000
 90
0
 91
1
280
0
281
0
  0
CLASS
  1
ACDBPLACEHOLDER
  2
AcDbPlaceHolder
  3
AutoCAD 2000
 90
0
 91
1
280
0
281
0
  0
CLASS
  1
LAYOUT
  2
AcDbLayout
  3
AutoCAD 2000
 90
0
 91
0
280
0
281
0
  0
ENDSEC
  0
SECTION
  2
TABLES
  0
TABLE
  2
VPORT
  5
8
100
AcDbSymbolTable
 70
2
  0
VPORT
  5
1F4
100
AcDbSymbolTableRecord
100
AcDbViewportTableRecord
  2
*ACTIVE
 70
0
 10
0.0
 20
0.0
 11
1.0
 21
1.0
 12
44.3061603125
 22
62.6615695849
 13
0.0
 23
0.0
 14
1.0
 24
1.0
 15
0.0
 25
0.0
 16
0.0
 26
0.0
 36
1.0
 17
0.0
 27
0.0
 37
0.0
 40
125.3231391698
 41
0.7070707071
 42
50.0
 43
0.0
 44
0.0
 50
0.0
 51
0.0
 71
0
 72
100
 73
1
 74
1
 75
0
 76
0
 77
0
 78
0
  0
ENDTAB
  0
TABLE
  2
LTYPE
  5
5
100
AcDbSymbolTable
 70
6
  0
LTYPE
  5
14
100
AcDbSymbolTableRecord
100
AcDbLinetypeTableRecord
  2
BYBLOCK
 70
0
  3

 72
65
 73
0
 40
0.0
  0
LTYPE
  5
15
100
AcDbSymbolTableRecord
100
AcDbLinetypeTableRecord
  2
BYLAYER
 70
0
  3

 72
65
 73
0
 40
0.0
  0
LTYPE
  5
16
100
AcDbSymbolTableRecord
100
AcDbLinetypeTableRecord
  2
CONTINUOUS
 70
64
  3
Solid line
 72
65
 73
0
 40
0.0
  0
LTYPE
  5
1F5
100
AcDbSymbolTableRecord
100
AcDbLinetypeTableRecord
  2
CENTER
 70
64
  3
____ _ ____ _ ____ _ ____ _ ____ _ ____ _ ____
 72
65
 73
4
 40
0.6
 49
0.375
 74
0
 49
-0.075
 74
0
 49
0.075
 74
0
 49
-0.075
 74
0
  0
LTYPE
  5
1F6
100
AcDbSymbolTableRecord
100
AcDbLinetypeTableRecord
  2
HIDDEN
 70
64
  3
- - - - - - - - - - - - - - - - - - - -
 72
65
 73
2
 40
0.2
 49
0.1
 74
0
 49
-0.1
 74
0
  0
LTYPE
  5
1F7
100
AcDbSymbolTableRecord
100
AcDbLinetypeTableRecord
  2
PHANTOM
 70
64
  3
_____ _ _ _____ _ _ _____ _ _ _____
 72
65
 73
6
 40
0.8
 49
0.45
 74
0
 49
-0.05
 74
0
 49
0.1
 74
0
 49
-0.05
 74
0
 49
0.1
 74
0
 49
-0.05
 74
0
  0
LTYPE
  5
1F8
100
AcDbSymbolTableRecord
100
AcDbLinetypeTableRecord
  2
DOT
 70
64
  3
. . . . . . . . . . . . . . . . . . . .
 72
65
 73
2
 40
0.2
 49
0.1
 74
0
 49
-0.1
 74
0
  0
LTYPE
  5
1F9
100
AcDbSymbolTableRecord
100
AcDbLinetypeTableRecord
  2
DASHED
 70
64
  3
- - - - - - - - - - - - - - - - - - - -
 72
65
 73
2
 40
0.2
 49
0.1
 74
0
 49
-0.1
 74
0
  0
ENDTAB
  0
TABLE
  2
LAYER
  5
2
100
AcDbSymbolTable
 70
36
  0
LAYER
  5
10
100
AcDbSymbolTableRecord
100
AcDbLayerTableRecord
  2
0
 70
0
 62
7
  6
CONTINUOUS
370
-3
390
F
  0
LAYER
  5
1FA
100
AcDbSymbolTableRecord
100
AcDbLayerTableRecord
  2
DEFAULT_1
 70
0
 62
7
  6
CENTER
370
-3
390
F
  0
LAYER
  5
1FB
100
AcDbSymbolTableRecord
100
AcDbLayerTableRecord
  2
DEFAULT_2
 70
0
 62
7
  6
HIDDEN
370
-3
390
F
  0
LAYER
  5
1FC
100
AcDbSymbolTableRecord
100
AcDbLayerTableRecord
  2
DEFAULT_3
 70
0
 62
7
  6
PHANTOM
370
-3
390
F
  0
LAYER
  5
1FD
100
AcDbSymbolTableRecord
100
AcDbLayerTableRecord
  2
00_COMPONENTS
 70
0
 62
7
  6
CONTINUOUS
370
-3
390
F
  0
LAYER
  5
1FE
100
AcDbSymbolTableRecord
100
AcDbLayerTableRecord
  2
01_1_DEFAULT_DATUMS
 70
0
 62
7
  6
CONTINUOUS
370
-3
390
F
  0
LAYER
  5
1FF
100
AcDbSymbolTableRecord
100
AcDbLayerTableRecord
  2
01_PLANES
 70
0
 62
7
  6
CONTINUOUS
370
-3
390
F
  0
LAYER
  5
200
100
AcDbSymbolTableRecord
100
AcDbLayerTableRecord
  2
02_COORD_SYS
 70
0
 62
7
  6
CONTINUOUS
370
-3
390
F
  0
LAYER
  5
201
100
AcDbSymbolTableRecord
100
AcDbLayerTableRecord
  2
03_AXES
 70
0
 62
7
  6
CONTINUOUS
370
-3
390
F
  0
LAYER
  5
202
100
AcDbSymbolTableRecord
100
AcDbLayerTableRecord
  2
04_POINTS
 70
0
 62
7
  6
CONTINUOUS
370
-3
390
F
  0
LAYER
  5
203
100
AcDbSymbolTableRecord
100
AcDbLayerTableRecord
  2
05_CURVES
 70
0
 62
7
  6
CONTINUOUS
370
-3
390
F
  0
LAYER
  5
204
100
AcDbSymbolTableRecord
100
AcDbLayerTableRecord
  2
06_SURFS
 70
0
 62
7
  6
CONTINUOUS
370
-3
390
F
  0
LAYER
  5
205
100
AcDbSymbolTableRecord
100
AcDbLayerTableRecord
  2
07_COSMETICS
 70
0
 62
7
  6
CONTINUOUS
370
-3
390
F
  0
LAYER
  5
206
100
AcDbSymbolTableRecord
100
AcDbLayerTableRecord
  2
10_NOTES
 70
0
 62
7
  6
CONTINUOUS
370
-3
390
F
  0
LAYER
  5
207
100
AcDbSymbolTableRecord
100
AcDbLayerTableRecord
  2
11_NOTES_PUB
 70
0
 62
7
  6
CONTINUOUS
370
-3
390
F
  0
LAYER
  5
208
100
AcDbSymbolTableRecord
100
AcDbLayerTableRecord
  2
13_REF_GTOL
 70
0
 62
7
  6
CONTINUOUS
370
-3
390
F
  0
LAYER
  5
209
100
AcDbSymbolTableRecord
100
AcDbLayerTableRecord
  2
16_MISC
 70
0
 62
7
  6
CONTINUOUS
370
-3
390
F
  0
LAYER
  5
20A
100
AcDbSymbolTableRecord
100
AcDbLayerTableRecord
  2
17_NO_PRINT
 70
0
 62
7
  6
CONTINUOUS
370
-3
390
F
  0
LAYER
  5
20B
100
AcDbSymbolTableRecord
100
AcDbLayerTableRecord
  2
18_DATUM_CAMS_JOINTS
 70
0
 62
7
  6
CONTINUOUS
370
-3
390
F
  0
LAYER
  5
20C
100
AcDbSymbolTableRecord
100
AcDbLayerTableRecord
  2
19_DATUM_FUNCTIONAL
 70
0
 62
7
  6
CONTINUOUS
370
-3
390
F
  0
LAYER
  5
20D
100
AcDbSymbolTableRecord
100
AcDbLayerTableRecord
  2
20_DATUM_KINEMATIC_SCHEME
 70
0
 62
7
  6
CONTINUOUS
370
-3
390
F
  0
ENDTAB
  0
TABLE
  2
STYLE
  5
3
100
AcDbSymbolTable
 70
1
  0
STYLE
  5
11
100
AcDbSymbolTableRecord
100
AcDbTextStyleTableRecord
  2
STANDARD
 70
0
 40
0.0
 41
1.0
 50
0.0
 71
0
 42
0.2
  3
ARIAL.TTF
  4

  0
STYLE
  5
20E
100
AcDbSymbolTableRecord
100
AcDbTextStyleTableRecord
  2
TEXTSTYLE_1
 70
0
 40
0.0
 41
0.8
 50
0.0
 71
0
 42
0.2
  3
gdt
  4

  0
ENDTAB
  0
TABLE
  2
VIEW
  5
6
100
AcDbSymbolTable
 70
0
  0
ENDTAB
  0
TABLE
  2
UCS
  5
7
100
AcDbSymbolTable
 70
0
  0
ENDTAB
  0
TABLE
  2
APPID
  5
9
100
AcDbSymbolTable
 70
1
  0
APPID
  5
20F
100
AcDbSymbolTableRecord
100
AcDbRegAppTableRecord
  2
ACAD
 70
0
  0
ENDTAB
  0
TABLE
  2
BLOCK_RECORD
  5
1
100
AcDbSymbolTable
 70
0
  0
BLOCK_RECORD
  5
210
100
AcDbSymbolTableRecord
100
AcDbBlockTableRecord
  2
*Model_Space
  0
BLOCK_RECORD
  5
211
100
AcDbSymbolTableRecord
100
AcDbBlockTableRecord
  2
*Paper_Space
  0
BLOCK_RECORD
  5
212
100
AcDbSymbolTableRecord
100
AcDbBlockTableRecord
  2
_FILLED
  0
ENDTAB
  0
TABLE
  2
DIMSTYLE
  5
A
100
AcDbSymbolTable
 70
1
100
AcDbDimStyleTable
 71
0
  0
DIMSTYLE
105
213
100
AcDbSymbolTableRecord
100
AcDbDimStyleTableRecord
  2
STANDARD
 70
0
  3

  4

 40
1.0
 41
1.0549085789
 42
1.0
 43
0.38
 44
1.0
 45
0.0
 46
0.0
 47
0.01
 48
0.01
140
1.4768720104
141
0.09
142
0.0
143
25.4
144
1.0
145
0.0
146
1.0
147
0.625
 71
1
 72
0
 73
0
 74
0
 75
0
 76
0
 77
1
 78
8
 79
2
170
0
171
1
172
0
173
0
174
0
175
0
176
0
177
0
178
0
270
2
179
2
271
2
272
2
273
2
274
2
275
0
280
0
281
0
282
0
283
1
284
8
285
0
286
0
287
3
288
0
340
11
278
46
341
212
342
212
343
212
344
212
  0
ENDTAB
  0
ENDSEC
  0
SECTION
  2
BLOCKS
  0
BLOCK
  5
20
100
AcDbEntity
  8
0
100
AcDbBlockBegin
  2
*Model_Space
 70
0
 10
0.0
 20
0.0
 30
0.0
  3
*Model_Space
  1

  0
ENDBLK
  5
21
100
AcDbEntity
  8
0
100
AcDbBlockEnd
  0
BLOCK
  5
1C
100
AcDbEntity
  8
0
100
AcDbBlockBegin
  2
*Paper_Space
 70
0
 10
0.0
 20
0.0
 30
0.0
  3
*Paper_Space
  1

  0
ENDBLK
  5
1D
100
AcDbEntity
  8
0
100
AcDbBlockEnd
  0
BLOCK
  5
214
100
AcDbEntity
  8
0
100
AcDbBlockBegin
  2
_FILLED
 70
64
 10
0.0
 20
0.0
  3
_FILLED
  1

  0
SOLID
  5
215
100
AcDbEntity
  8
0
  6
BYBLOCK
 62
0
100
AcDbTrace
 10
0.0
 20
0.0
 11
-1.0
 21
0.25
 12
-1.0
 22
-0.25
 13
-1.0
 23
-0.25
  0
ENDBLK
  5
216
100
AcDbEntity
  8
0
  6
BYBLOCK
 62
0
100
AcDbBlockEnd
  0
ENDSEC
  0
SECTION
  2
ENTITIES
  0
LINE
  5
217
100
AcDbEntity
  8
0
100
AcDbLine
 62
7
  6
BYLAYER
 10
10.4827186678
 20
93.7371851793
 11
10.4838240928
 21
32.1686322987
  0
LINE
  5
218
100
AcDbEntity
  8
0
100
AcDbLine
 62
7
  6
BYLAYER
 10
80.5834090252
 20
32.1698754861
 11
51.733639071
 21
32.1693638473
  0
LINE
  5
219
100
AcDbEntity
  8
0
100
AcDbLine
 62
7
  6
BYLAYER
 10
39.433629071
 20
32.1691457116
 11
10.4838240928
 21
32.1686322987
  0
LINE
  5
21A
100
AcDbEntity
  8
0
100
AcDbLine
 62
7
  6
BYLAYER
 10
15.333630392
 20
42.8190039848
 11
15.3336303956
 21
55.1191017399
  0
LINE
  5
21B
100
AcDbEntity
  8
0
100
AcDbLine
 62
7
  6
BYLAYER
 10
15.5836290798
 20
42.8188844696
 11
15.5836290798
 21
50.0188844695
  0
LINE
  5
21C
100
AcDbEntity
  8
0
100
AcDbLine
 62
7
  6
BYLAYER
 10
15.7336289958
 20
48.4188844695
 11
15.7336289958
 21
49.3188844695
  0
LINE
  5
21D
100
AcDbEntity
  8
0
100
AcDbLine
 62
7
  6
BYLAYER
 10
16.4336289958
 20
47.9188844695
 11
16.4336289958
 21
48.4188844695
  0
LINE
  5
21E
100
AcDbEntity
  8
0
100
AcDbLine
 62
7
  6
BYLAYER
 10
17.3836151222
 20
93.6874047672
 11
17.3836151222
 21
93.7680115225
  0
LINE
  5
21F
100
AcDbEntity
  8
0
100
AcDbLine
 62
7
  6
BYLAYER
 10
17.8336289958
 20
48.4188844695
 11
17.8336289958
 21
47.9188844695
  0
LINE
  5
220
100
AcDbEntity
  8
0
100
AcDbLine
 62
7
  6
BYLAYER
 10
51.5836356572
 20
32.3689179842
 11
39.5836356572
 21
32.3689179842
  0
LINE
  5
221
100
AcDbEntity
  8
0
100
AcDbLine
 62
7
  6
BYLAYER
 10
37.883629071
 20
34.7189179842
 11
39.433629071
 21
34.7189179842
  0
LINE
  5
222
100
AcDbEntity
  8
0
100
AcDbLine
 62
7
  6
BYLAYER
 10
51.733639071
 20
34.7189179842
 11
53.283629071
 21
34.7189179842
  0
LINE
  5
223
100
AcDbEntity
  8
0
100
AcDbLine
 62
7
  6
BYLAYER
 10
53.0836356572
 20
34.8689179842
 11
51.5836356572
 21
34.8689179842
  0
LINE
  5
224
100
AcDbEntity
  8
0
100
AcDbLine
 62
7
  6
BYLAYER
 10
38.0836356572
 20
34.8689179842
 11
39.5836356572
 21
34.8689179842
  0
LINE
  5
225
100
AcDbEntity
  8
0
100
AcDbLine
 62
7
  6
BYLAYER
 10
18.133650021
 20
93.5144321532
 11
18.133650021
 21
93.459861715
  0
LINE
  5
226
100
AcDbEntity
  8
0
100
AcDbLine
 62
7
  6
BYLAYER
 10
18.5336289958
 20
49.3188844695
 11
18.5336289958
 21
48.4188844695
  0
LINE
  5
227
100
AcDbEntity
  8
0
100
AcDbLine
 62
7
  6
BYLAYER
 10
18.6836289958
 20
47.9188844695
 11
18.6836289958
 21
43.4188844695
  0
LINE
  5
228
100
AcDbEntity
  8
0
100
AcDbLine
 62
7
  6
BYLAYER
 10
19.1336289958
 20
43.4188844695
 11
19.1336289958
 21
47.9188844695
  0
LINE
  5
229
100
AcDbEntity
  8
0
100
AcDbLine
 62
7
  6
BYLAYER
 10
19.2836289958
 20
48.4188844695
 11
19.2836289958
 21
49.3188844695
  0
LINE
  5
22A
100
AcDbEntity
  8
0
100
AcDbLine
 62
7
  6
BYLAYER
 10
19.9836289958
 20
47.9188844695
 11
19.9836289958
 21
48.4188844695
  0
LINE
  5
22B
100
AcDbEntity
  8
0
100
AcDbLine
 62
7
  6
BYLAYER
 10
53.2836290701
 20
37.368963503
 11
37.8836290718
 21
37.3688724654
  0
LINE
  5
22C
100
AcDbEntity
  8
0
100
AcDbLine
 62
7
  6
BYLAYER
 10
21.3836289958
 20
48.4188844695
 11
21.3836289958
 21
47.9188844695
  0
LINE
  5
22D
100
AcDbEntity
  8
0
100
AcDbLine
 62
7
  6
BYLAYER
 10
22.0058386794
 20
93.3224757187
 11
22.0058386794
 21
93.2834791275
  0
LINE
  5
22E
100
AcDbEntity
  8
0
100
AcDbLine
 62
7
  6
BYLAYER
 10
22.0836289958
 20
49.3188844695
 11
22.0836289958
 21
48.4188844695
  0
LINE
  5
22F
100
AcDbEntity
  8
0
100
AcDbLine
 62
7
  6
BYLAYER
 10
22.2336289958
 20
47.9188844695
 11
22.2336289958
 21
43.4188844695
  0
LINE
  5
230
100
AcDbEntity
  8
0
100
AcDbLine
 62
7
  6
BYLAYER
 10
22.6836289958
 20
43.4188844695
 11
22.6836289958
 21
47.9188844695
  0
LINE
  5
231
100
AcDbEntity
  8
0
100
AcDbLine
 62
7
  6
BYLAYER
 10
22.8336289958
 20
48.4188844695
 11
22.8336289958
 21
49.3188844695
  0
LINE
  5
232
100
AcDbEntity
  8
0
100
AcDbLine
 62
7
  6
BYLAYER
 10
23.5336289958
 20
47.9188844695
 11
23.5336289958
 21
48.4188844695
  0
LINE
  5
233
100
AcDbEntity
  8
0
100
AcDbLine
 62
7
  6
BYLAYER
 10
80.5834699779
 20
39.7695421102
 11
10.4836893158
 21
39.7682989194
  0
LINE
  5
234
100
AcDbEntity
  8
0
100
AcDbLine
 62
7
  6
BYLAYER
 10
80.5834706405
 20
39.7982342173
 11
10.4836893364
 21
39.7969910264
  0
LINE
  5
235
100
AcDbEntity
  8
0
100
AcDbLine
 62
7
  6
BYLAYER
 10
24.9336289958
 20
48.4188844695
 11
24.9336289958
 21
47.9188844695
  0
LINE
  5
236
100
AcDbEntity
  8
0
100
AcDbLine
 62
7
  6
BYLAYER
 10
25.6336289958
 20
49.3188844695
 11
25.6336289958
 21
48.4188844695
  0
LINE
  5
237
100
AcDbEntity
  8
0
100
AcDbLine
 62
7
  6
BYLAYER
 10
25.7836289958
 20
47.9188844695
 11
25.7836289958
 21
43.4188844695
  0
LINE
  5
238
100
AcDbEntity
  8
0
100
AcDbLine
 62
7
  6
BYLAYER
 10
26.2336289958
 20
43.4188844695
 11
26.2336289958
 21
47.9188844695
  0
LINE
  5
239
100
AcDbEntity
  8
0
100
AcDbLine
 62
7
  6
BYLAYER
 10
26.3836289958
 20
48.4188844695
 11
26.3836289958
 21
49.3188844695
  0
LINE
  5
23A
100
AcDbEntity
  8
0
100
AcDbLine
 62
7
  6
BYLAYER
 10
27.0836289958
 20
47.9188844695
 11
27.0836289958
 21
48.4188844695
  0
LINE
  5
23B
100
AcDbEntity
  8
0
100
AcDbLine
 62
7
  6
BYLAYER
 10
73.8585326933
 20
93.7101966946
 11
73.9396053189
 21
93.738372883
  0
LINE
  5
23C
100
AcDbEntity
  8
0
100
AcDbLine
 62
7
  6
BYLAYER
 10
73.2115821612
 20
93.4902702733
 11
73.8585326933
 21
93.7101966946
  0
LINE
  5
23D
100
AcDbEntity
  8
0
100
AcDbLine
 62
7
  6
BYLAYER
 10
73.7834407366
 20
93.7680900305
 11
73.033725863
 21
93.514590648
  0
LINE
  5
23E
100
AcDbEntity
  8
0
100
AcDbLine
 62
7
  6
BYLAYER
 10
73.2441514468
 20
93.5855090544
 11
73.033725863
 21
93.514590648
  0
LINE
  5
23F
100
AcDbEntity
  8
0
100
AcDbLine
 62
7
  6
BYLAYER
 10
80.5834951478
 20
42.8201372941
 11
76.0135406175
 21
42.8192057598
  0
LINE
  5
240
100
AcDbEntity
  8
0
100
AcDbLine
 62
7
  6
BYLAYER
 10
76.0135406175
 20
42.8190110324
 11
10.483636075
 21
42.8188941001
  0
LINE
  5
241
100
AcDbEntity
  8
0
100
AcDbLine
 62
7
  6
BYLAYER
 10
73.1836289958
 20
43.4188844695
 11
72.3836289958
 21
43.4188844695
  0
LINE
  5
242
100
AcDbEntity
  8
0
100
AcDbLine
 62
7
  6
BYLAYER
 10
71.9336289958
 20
43.4188844695
 11
71.1336289958
 21
43.4188844695
  0
LINE
  5
243
100
AcDbEntity
  8
0
100
AcDbLine
 62
7
  6
BYLAYER
 10
69.6336289958
 20
43.4188844695
 11
68.8336289958
 21
43.4188844695
  0
LINE
  5
244
100
AcDbEntity
  8
0
100
AcDbLine
 62
7
  6
BYLAYER
 10
68.3836289958
 20
43.4188844695
 11
67.5836289958
 21
43.4188844695
  0
LINE
  5
245
100
AcDbEntity
  8
0
100
AcDbLine
 62
7
  6
BYLAYER
 10
66.0836289958
 20
43.4188844695
 11
65.2836289958
 21
43.4188844695
  0
LINE
  5
246
100
AcDbEntity
  8
0
100
AcDbLine
 62
7
  6
BYLAYER
 10
64.8336289958
 20
43.4188844695
 11
64.0336289958
 21
43.4188844695
  0
LINE
  5
247
100
AcDbEntity
  8
0
100
AcDbLine
 62
7
  6
BYLAYER
 10
62.5336289958
 20
43.4188844695
 11
61.7336289958
 21
43.4188844695
  0
LINE
  5
248
100
AcDbEntity
  8
0
100
AcDbLine
 62
7
  6
BYLAYER
 10
61.2836289958
 20
43.4188844695
 11
60.4836289958
 21
43.4188844695
  0
LINE
  5
249
100
AcDbEntity
  8
0
100
AcDbLine
 62
7
  6
BYLAYER
 10
58.9836289958
 20
43.4188844695
 11
58.1836289958
 21
43.4188844695
  0
LINE
  5
24A
100
AcDbEntity
  8
0
100
AcDbLine
 62
7
  6
BYLAYER
 10
57.7336289958
 20
43.4188844695
 11
56.9336289958
 21
43.4188844695
  0
LINE
  5
24B
100
AcDbEntity
  8
0
100
AcDbLine
 62
7
  6
BYLAYER
 10
55.4336289958
 20
43.4188844695
 11
54.6336289958
 21
43.4188844695
  0
LINE
  5
24C
100
AcDbEntity
  8
0
100
AcDbLine
 62
7
  6
BYLAYER
 10
54.1836289958
 20
43.4188844695
 11
53.3836289958
 21
43.4188844695
  0
LINE
  5
24D
100
AcDbEntity
  8
0
100
AcDbLine
 62
7
  6
BYLAYER
 10
51.8836289958
 20
43.4188844695
 11
51.0836289958
 21
43.4188844695
  0
LINE
  5
24E
100
AcDbEntity
  8
0
100
AcDbLine
 62
7
  6
BYLAYER
 10
50.6336289958
 20
43.4188844695
 11
49.8336289958
 21
43.4188844695
  0
LINE
  5
24F
100
AcDbEntity
  8
0
100
AcDbLine
 62
7
  6
BYLAYER
 10
48.3336289958
 20
43.4188844695
 11
47.5336289958
 21
43.4188844695
  0
LINE
  5
250
100
AcDbEntity
  8
0
100
AcDbLine
 62
7
  6
BYLAYER
 10
47.0836289958
 20
43.4188844695
 11
46.2836289958
 21
43.4188844695
  0
LINE
  5
251
100
AcDbEntity
  8
0
100
AcDbLine
 62
7
  6
BYLAYER
 10
44.7836289958
 20
43.4188844695
 11
43.9836289958
 21
43.4188844695
  0
LINE
  5
252
100
AcDbEntity
  8
0
100
AcDbLine
 62
7
  6
BYLAYER
 10
43.5336289958
 20
43.4188844695
 11
42.7336289958
 21
43.4188844695
  0
LINE
  5
253
100
AcDbEntity
  8
0
100
AcDbLine
 62
7
  6
BYLAYER
 10
41.2336289958
 20
43.4188844695
 11
40.4336289958
 21
43.4188844695
  0
LINE
  5
254
100
AcDbEntity
  8
0
100
AcDbLine
 62
7
  6
BYLAYER
 10
39.9836289958
 20
43.4188844695
 11
39.1836289958
 21
43.4188844695
  0
LINE
  5
255
100
AcDbEntity
  8
0
100
AcDbLine
 62
7
  6
BYLAYER
 10
37.6836289958
 20
43.4188844695
 11
36.8836289958
 21
43.4188844695
  0
LINE
  5
256
100
AcDbEntity
  8
0
100
AcDbLine
 62
7
  6
BYLAYER
 10
36.4336289958
 20
43.4188844696
 11
35.6336289958
 21
43.4188844696
  0
LINE
  5
257
100
AcDbEntity
  8
0
100
AcDbLine
 62
7
  6
BYLAYER
 10
34.1336289958
 20
43.4188844696
 11
33.3336289958
 21
43.4188844696
  0
LINE
  5
258
100
AcDbEntity
  8
0
100
AcDbLine
 62
7
  6
BYLAYER
 10
32.8836289958
 20
43.4188844696
 11
32.0836289958
 21
43.4188844696
  0
LINE
  5
259
100
AcDbEntity
  8
0
100
AcDbLine
 62
7
  6
BYLAYER
 10
30.5836289958
 20
43.4188844696
 11
29.7836289958
 21
43.4188844696
  0
LINE
  5
25A
100
AcDbEntity
  8
0
100
AcDbLine
 62
7
  6
BYLAYER
 10
29.3336289958
 20
43.4188844696
 11
28.5336289958
 21
43.4188844696
  0
LINE
  5
25B
100
AcDbEntity
  8
0
100
AcDbLine
 62
7
  6
BYLAYER
 10
27.0336289958
 20
43.4188844696
 11
26.2336289958
 21
43.4188844696
  0
LINE
  5
25C
100
AcDbEntity
  8
0
100
AcDbLine
 62
7
  6
BYLAYER
 10
25.7836289958
 20
43.4188844695
 11
24.9836289958
 21
43.4188844695
  0
LINE
  5
25D
100
AcDbEntity
  8
0
100
AcDbLine
 62
7
  6
BYLAYER
 10
23.4836289958
 20
43.4188844695
 11
22.6836289958
 21
43.4188844695
  0
LINE
  5
25E
100
AcDbEntity
  8
0
100
AcDbLine
 62
7
  6
BYLAYER
 10
22.2336289958
 20
43.4188844695
 11
21.4336289958
 21
43.4188844695
  0
LINE
  5
25F
100
AcDbEntity
  8
0
100
AcDbLine
 62
7
  6
BYLAYER
 10
19.9336289958
 20
43.4188844695
 11
19.1336289958
 21
43.4188844695
  0
LINE
  5
260
100
AcDbEntity
  8
0
100
AcDbLine
 62
7
  6
BYLAYER
 10
16.3836289958
 20
43.4188844695
 11
15.5836290798
 21
43.4188844695
  0
LINE
  5
261
100
AcDbEntity
  8
0
100
AcDbLine
 62
7
  6
BYLAYER
 10
17.8836289958
 20
43.4188844695
 11
18.6836289958
 21
43.4188844695
  0
LINE
  5
262
100
AcDbEntity
  8
0
100
AcDbLine
 62
7
  6
BYLAYER
 10
74.6836289958
 20
43.4188844695
 11
75.4836289958
 21
43.4188844695
  0
LINE
  5
263
100
AcDbEntity
  8
0
100
AcDbLine
 62
7
  6
BYLAYER
 10
15.5836290798
 20
44.2189181854
 11
15.333630392
 21
44.2189183105
  0
LINE
  5
264
100
AcDbEntity
  8
0
100
AcDbLine
 62
7
  6
BYLAYER
 10
28.4836289958
 20
48.4188844695
 11
28.4836289958
 21
47.9188844695
  0
LINE
  5
265
100
AcDbEntity
  8
0
100
AcDbLine
 62
7
  6
BYLAYER
 10
29.1836289958
 20
49.3188844695
 11
29.1836289958
 21
48.4188844695
  0
LINE
  5
266
100
AcDbEntity
  8
0
100
AcDbLine
 62
7
  6
BYLAYER
 10
29.3336289958
 20
47.9188844695
 11
29.3336289958
 21
43.4188844695
  0
LINE
  5
267
100
AcDbEntity
  8
0
100
AcDbLine
 62
7
  6
BYLAYER
 10
29.7836289958
 20
43.4188844695
 11
29.7836289958
 21
47.9188844695
  0
LINE
  5
268
100
AcDbEntity
  8
0
100
AcDbLine
 62
7
  6
BYLAYER
 10
29.9336289958
 20
48.4188844695
 11
29.9336289958
 21
49.3188844695
  0
LINE
  5
269
100
AcDbEntity
  8
0
100
AcDbLine
 62
7
  6
BYLAYER
 10
30.6336289958
 20
47.9188844695
 11
30.6336289958
 21
48.4188844695
  0
LINE
  5
26A
100
AcDbEntity
  8
0
100
AcDbLine
 62
7
  6
BYLAYER
 10
32.0336289958
 20
48.4188844695
 11
32.0336289958
 21
47.9188844695
  0
LINE
  5
26B
100
AcDbEntity
  8
0
100
AcDbLine
 62
7
  6
BYLAYER
 10
32.7336289958
 20
49.3188844695
 11
32.7336289958
 21
48.4188844695
  0
LINE
  5
26C
100
AcDbEntity
  8
0
100
AcDbLine
 62
7
  6
BYLAYER
 10
32.8836289958
 20
47.9188844695
 11
32.8836289958
 21
43.4188844695
  0
LINE
  5
26D
100
AcDbEntity
  8
0
100
AcDbLine
 62
7
  6
BYLAYER
 10
33.3336289958
 20
43.4188844695
 11
33.3336289958
 21
47.9188844695
  0
LINE
  5
26E
100
AcDbEntity
  8
0
100
AcDbLine
 62
7
  6
BYLAYER
 10
33.4836289958
 20
48.4188844695
 11
33.4836289958
 21
49.3188844695
  0
LINE
  5
26F
100
AcDbEntity
  8
0
100
AcDbLine
 62
7
  6
BYLAYER
 10
16.4336289958
 20
47.9188844695
 11
15.5836290798
 21
47.9188844695
  0
LINE
  5
270
100
AcDbEntity
  8
0
100
AcDbLine
 62
7
  6
BYLAYER
 10
17.8336289958
 20
47.9188844695
 11
18.6836289958
 21
47.9188844695
  0
LINE
  5
271
100
AcDbEntity
  8
0
100
AcDbLine
 62
7
  6
BYLAYER
 10
19.1336289958
 20
47.9188844695
 11
19.9836289958
 21
47.9188844695
  0
LINE
  5
272
100
AcDbEntity
  8
0
100
AcDbLine
 62
7
  6
BYLAYER
 10
21.3836289958
 20
47.9188844695
 11
22.2336289958
 21
47.9188844695
  0
LINE
  5
273
100
AcDbEntity
  8
0
100
AcDbLine
 62
7
  6
BYLAYER
 10
22.6836289958
 20
47.9188844695
 11
23.5336289958
 21
47.9188844695
  0
LINE
  5
274
100
AcDbEntity
  8
0
100
AcDbLine
 62
7
  6
BYLAYER
 10
24.9336289958
 20
47.9188844695
 11
25.7836289958
 21
47.9188844695
  0
LINE
  5
275
100
AcDbEntity
  8
0
100
AcDbLine
 62
7
  6
BYLAYER
 10
26.2336289958
 20
47.9188844695
 11
27.0836289958
 21
47.9188844695
  0
LINE
  5
276
100
AcDbEntity
  8
0
100
AcDbLine
 62
7
  6
BYLAYER
 10
28.4836289958
 20
47.9188844695
 11
29.3336289958
 21
47.9188844695
  0
LINE
  5
277
100
AcDbEntity
  8
0
100
AcDbLine
 62
7
  6
BYLAYER
 10
29.7836289958
 20
47.9188844695
 11
30.6336289958
 21
47.9188844695
  0
LINE
  5
278
100
AcDbEntity
  8
0
100
AcDbLine
 62
7
  6
BYLAYER
 10
32.0336289958
 20
47.9188844695
 11
32.8836289958
 21
47.9188844695
  0
LINE
  5
279
100
AcDbEntity
  8
0
100
AcDbLine
 62
7
  6
BYLAYER
 10
33.3336289958
 20
47.9188844695
 11
34.1836289958
 21
47.9188844695
  0
LINE
  5
27A
100
AcDbEntity
  8
0
100
AcDbLine
 62
7
  6
BYLAYER
 10
35.5836289958
 20
47.9188844695
 11
36.4336289958
 21
47.9188844695
  0
LINE
  5
27B
100
AcDbEntity
  8
0
100
AcDbLine
 62
7
  6
BYLAYER
 10
36.8836289958
 20
47.9188844695
 11
37.7336289958
 21
47.9188844695
  0
LINE
  5
27C
100
AcDbEntity
  8
0
100
AcDbLine
 62
7
  6
BYLAYER
 10
39.1336289958
 20
47.9188844695
 11
39.9836289958
 21
47.9188844695
  0
LINE
  5
27D
100
AcDbEntity
  8
0
100
AcDbLine
 62
7
  6
BYLAYER
 10
40.4336289958
 20
47.9188844695
 11
41.2836289958
 21
47.9188844695
  0
LINE
  5
27E
100
AcDbEntity
  8
0
100
AcDbLine
 62
7
  6
BYLAYER
 10
42.6836289958
 20
47.9188844695
 11
43.5336289958
 21
47.9188844695
  0
LINE
  5
27F
100
AcDbEntity
  8
0
100
AcDbLine
 62
7
  6
BYLAYER
 10
43.9836289958
 20
47.9188844695
 11
44.8336289958
 21
47.9188844695
  0
LINE
  5
280
100
AcDbEntity
  8
0
100
AcDbLine
 62
7
  6
BYLAYER
 10
46.2336289958
 20
47.9188844695
 11
47.0836289958
 21
47.9188844695
  0
LINE
  5
281
100
AcDbEntity
  8
0
100
AcDbLine
 62
7
  6
BYLAYER
 10
47.5336289958
 20
47.9188844695
 11
48.3836289958
 21
47.9188844695
  0
LINE
  5
282
100
AcDbEntity
  8
0
100
AcDbLine
 62
7
  6
BYLAYER
 10
49.7836289958
 20
47.9188844695
 11
50.6336289958
 21
47.9188844695
  0
LINE
  5
283
100
AcDbEntity
  8
0
100
AcDbLine
 62
7
  6
BYLAYER
 10
51.0836289958
 20
47.9188844695
 11
51.9336289958
 21
47.9188844695
  0
LINE
  5
284
100
AcDbEntity
  8
0
100
AcDbLine
 62
7
  6
BYLAYER
 10
53.3336289958
 20
47.9188844695
 11
54.1836289958
 21
47.9188844695
  0
LINE
  5
285
100
AcDbEntity
  8
0
100
AcDbLine
 62
7
  6
BYLAYER
 10
54.6336289958
 20
47.9188844695
 11
55.4836289958
 21
47.9188844695
  0
LINE
  5
286
100
AcDbEntity
  8
0
100
AcDbLine
 62
7
  6
BYLAYER
 10
56.8836289958
 20
47.9188844695
 11
57.7336289958
 21
47.9188844695
  0
LINE
  5
287
100
AcDbEntity
  8
0
100
AcDbLine
 62
7
  6
BYLAYER
 10
58.1836289958
 20
47.9188844695
 11
59.0336289958
 21
47.9188844695
  0
LINE
  5
288
100
AcDbEntity
  8
0
100
AcDbLine
 62
7
  6
BYLAYER
 10
60.4336289958
 20
47.9188844695
 11
61.2836289958
 21
47.9188844695
  0
LINE
  5
289
100
AcDbEntity
  8
0
100
AcDbLine
 62
7
  6
BYLAYER
 10
61.7336289958
 20
47.9188844695
 11
62.5836289958
 21
47.9188844695
  0
LINE
  5
28A
100
AcDbEntity
  8
0
100
AcDbLine
 62
7
  6
BYLAYER
 10
63.9836289958
 20
47.9188844695
 11
64.8336289958
 21
47.9188844695
  0
LINE
  5
28B
100
AcDbEntity
  8
0
100
AcDbLine
 62
7
  6
BYLAYER
 10
65.2836289958
 20
47.9188844695
 11
66.1336289958
 21
47.9188844695
  0
LINE
  5
28C
100
AcDbEntity
  8
0
100
AcDbLine
 62
7
  6
BYLAYER
 10
67.5336289958
 20
47.9188844695
 11
68.3836289958
 21
47.9188844695
  0
LINE
  5
28D
100
AcDbEntity
  8
0
100
AcDbLine
 62
7
  6
BYLAYER
 10
68.8336289958
 20
47.9188844695
 11
69.6836289958
 21
47.9188844695
  0
LINE
  5
28E
100
AcDbEntity
  8
0
100
AcDbLine
 62
7
  6
BYLAYER
 10
71.0836289958
 20
47.9188844695
 11
71.9336289958
 21
47.9188844695
  0
LINE
  5
28F
100
AcDbEntity
  8
0
100
AcDbLine
 62
7
  6
BYLAYER
 10
72.3836289958
 20
47.9188844695
 11
73.2336289958
 21
47.9188844695
  0
LINE
  5
290
100
AcDbEntity
  8
0
100
AcDbLine
 62
7
  6
BYLAYER
 10
74.6336289958
 20
47.9188844695
 11
75.4836289958
 21
47.9188844695
  0
LINE
  5
291
100
AcDbEntity
  8
0
100
AcDbLine
 62
7
  6
BYLAYER
 10
75.3336289958
 20
48.4188844695
 11
74.6336289958
 21
48.4188844695
  0
LINE
  5
292
100
AcDbEntity
  8
0
100
AcDbLine
 62
7
  6
BYLAYER
 10
73.2336289958
 20
48.4188844695
 11
72.5336289958
 21
48.4188844695
  0
LINE
  5
293
100
AcDbEntity
  8
0
100
AcDbLine
 62
7
  6
BYLAYER
 10
71.7836289958
 20
48.4188844695
 11
71.0836289958
 21
48.4188844695
  0
LINE
  5
294
100
AcDbEntity
  8
0
100
AcDbLine
 62
7
  6
BYLAYER
 10
69.6836289958
 20
48.4188844695
 11
68.9836289958
 21
48.4188844695
  0
LINE
  5
295
100
AcDbEntity
  8
0
100
AcDbLine
 62
7
  6
BYLAYER
 10
68.2336289958
 20
48.4188844695
 11
67.5336289958
 21
48.4188844695
  0
LINE
  5
296
100
AcDbEntity
  8
0
100
AcDbLine
 62
7
  6
BYLAYER
 10
66.1336289958
 20
48.4188844695
 11
65.4336289958
 21
48.4188844695
  0
LINE
  5
297
100
AcDbEntity
  8
0
100
AcDbLine
 62
7
  6
BYLAYER
 10
64.6836289958
 20
48.4188844695
 11
63.9836289958
 21
48.4188844695
  0
LINE
  5
298
100
AcDbEntity
  8
0
100
AcDbLine
 62
7
  6
BYLAYER
 10
62.5836289958
 20
48.4188844695
 11
61.8836289958
 21
48.4188844695
  0
LINE
  5
299
100
AcDbEntity
  8
0
100
AcDbLine
 62
7
  6
BYLAYER
 10
61.1336289958
 20
48.4188844695
 11
60.4336289958
 21
48.4188844695
  0
LINE
  5
29A
100
AcDbEntity
  8
0
100
AcDbLine
 62
7
  6
BYLAYER
 10
59.0336289958
 20
48.4188844695
 11
58.3336289958
 21
48.4188844695
  0
LINE
  5
29B
100
AcDbEntity
  8
0
100
AcDbLine
 62
7
  6
BYLAYER
 10
57.5836289958
 20
48.4188844695
 11
56.8836289958
 21
48.4188844695
  0
LINE
  5
29C
100
AcDbEntity
  8
0
100
AcDbLine
 62
7
  6
BYLAYER
 10
55.4836289958
 20
48.4188844695
 11
54.7836289958
 21
48.4188844695
  0
LINE
  5
29D
100
AcDbEntity
  8
0
100
AcDbLine
 62
7
  6
BYLAYER
 10
54.0336289958
 20
48.4188844695
 11
53.3336289958
 21
48.4188844695
  0
LINE
  5
29E
100
AcDbEntity
  8
0
100
AcDbLine
 62
7
  6
BYLAYER
 10
51.9336289958
 20
48.4188844695
 11
51.2336289958
 21
48.4188844695
  0
LINE
  5
29F
100
AcDbEntity
  8
0
100
AcDbLine
 62
7
  6
BYLAYER
 10
50.4836289958
 20
48.4188844695
 11
49.7836289958
 21
48.4188844695
  0
LINE
  5
2A0
100
AcDbEntity
  8
0
100
AcDbLine
 62
7
  6
BYLAYER
 10
48.3836289958
 20
48.4188844695
 11
47.6836289958
 21
48.4188844695
  0
LINE
  5
2A1
100
AcDbEntity
  8
0
100
AcDbLine
 62
7
  6
BYLAYER
 10
46.9336289958
 20
48.4188844695
 11
46.2336289958
 21
48.4188844695
  0
LINE
  5
2A2
100
AcDbEntity
  8
0
100
AcDbLine
 62
7
  6
BYLAYER
 10
44.8336289958
 20
48.4188844695
 11
44.1336289958
 21
48.4188844695
  0
LINE
  5
2A3
100
AcDbEntity
  8
0
100
AcDbLine
 62
7
  6
BYLAYER
 10
43.3836289958
 20
48.4188844695
 11
42.6836289958
 21
48.4188844695
  0
LINE
  5
2A4
100
AcDbEntity
  8
0
100
AcDbLine
 62
7
  6
BYLAYER
 10
41.2836289958
 20
48.4188844695
 11
40.5836289958
 21
48.4188844695
  0
LINE
  5
2A5
100
AcDbEntity
  8
0
100
AcDbLine
 62
7
  6
BYLAYER
 10
39.8336289958
 20
48.4188844695
 11
39.1336289958
 21
48.4188844695
  0
LINE
  5
2A6
100
AcDbEntity
  8
0
100
AcDbLine
 62
7
  6
BYLAYER
 10
37.7336289958
 20
48.4188844695
 11
37.0336289958
 21
48.4188844695
  0
LINE
  5
2A7
100
AcDbEntity
  8
0
100
AcDbLine
 62
7
  6
BYLAYER
 10
36.2836289958
 20
48.4188844695
 11
35.5836289958
 21
48.4188844695
  0
LINE
  5
2A8
100
AcDbEntity
  8
0
100
AcDbLine
 62
7
  6
BYLAYER
 10
34.1836289958
 20
48.4188844695
 11
33.4836289958
 21
48.4188844695
  0
LINE
  5
2A9
100
AcDbEntity
  8
0
100
AcDbLine
 62
7
  6
BYLAYER
 10
32.7336289958
 20
48.4188844695
 11
32.0336289958
 21
48.4188844695
  0
LINE
  5
2AA
100
AcDbEntity
  8
0
100
AcDbLine
 62
7
  6
BYLAYER
 10
30.6336289958
 20
48.4188844695
 11
29.9336289958
 21
48.4188844695
  0
LINE
  5
2AB
100
AcDbEntity
  8
0
100
AcDbLine
 62
7
  6
BYLAYER
 10
29.1836289958
 20
48.4188844695
 11
28.4836289958
 21
48.4188844695
  0
LINE
  5
2AC
100
AcDbEntity
  8
0
100
AcDbLine
 62
7
  6
BYLAYER
 10
27.0836289958
 20
48.4188844695
 11
26.3836289958
 21
48.4188844695
  0
LINE
  5
2AD
100
AcDbEntity
  8
0
100
AcDbLine
 62
7
  6
BYLAYER
 10
25.6336289958
 20
48.4188844695
 11
24.9336289958
 21
48.4188844695
  0
LINE
  5
2AE
100
AcDbEntity
  8
0
100
AcDbLine
 62
7
  6
BYLAYER
 10
23.5336289958
 20
48.4188844695
 11
22.8336289958
 21
48.4188844695
  0
LINE
  5
2AF
100
AcDbEntity
  8
0
100
AcDbLine
 62
7
  6
BYLAYER
 10
22.0836289958
 20
48.4188844695
 11
21.3836289958
 21
48.4188844695
  0
LINE
  5
2B0
100
AcDbEntity
  8
0
100
AcDbLine
 62
7
  6
BYLAYER
 10
19.9836289958
 20
48.4188844695
 11
19.2836289958
 21
48.4188844695
  0
LINE
  5
2B1
100
AcDbEntity
  8
0
100
AcDbLine
 62
7
  6
BYLAYER
 10
18.5336289958
 20
48.4188844695
 11
17.8336289958
 21
48.4188844695
  0
LINE
  5
2B2
100
AcDbEntity
  8
0
100
AcDbLine
 62
7
  6
BYLAYER
 10
16.4336289958
 20
48.4188844695
 11
15.7336289958
 21
48.4188844695
  0
LINE
  5
2B3
100
AcDbEntity
  8
0
100
AcDbLine
 62
7
  6
BYLAYER
 10
57.5836289958
 20
49.3188844695
 11
54.7836289958
 21
49.3188844695
  0
LINE
  5
2B4
100
AcDbEntity
  8
0
100
AcDbLine
 62
7
  6
BYLAYER
 10
15.7336289958
 20
49.3188844695
 11
18.5336289958
 21
49.3188844695
  0
LINE
  5
2B5
100
AcDbEntity
  8
0
100
AcDbLine
 62
7
  6
BYLAYER
 10
19.2836289958
 20
49.3188844695
 11
22.0836289958
 21
49.3188844695
  0
LINE
  5
2B6
100
AcDbEntity
  8
0
100
AcDbLine
 62
7
  6
BYLAYER
 10
22.8336289958
 20
49.3188844695
 11
25.6336289958
 21
49.3188844695
  0
LINE
  5
2B7
100
AcDbEntity
  8
0
100
AcDbLine
 62
7
  6
BYLAYER
 10
26.3836289958
 20
49.3188844695
 11
29.1836289958
 21
49.3188844695
  0
LINE
  5
2B8
100
AcDbEntity
  8
0
100
AcDbLine
 62
7
  6
BYLAYER
 10
29.9336289958
 20
49.3188844695
 11
32.7336289958
 21
49.3188844695
  0
LINE
  5
2B9
100
AcDbEntity
  8
0
100
AcDbLine
 62
7
  6
BYLAYER
 10
33.4836289958
 20
49.3188844695
 11
36.2836289958
 21
49.3188844695
  0
LINE
  5
2BA
100
AcDbEntity
  8
0
100
AcDbLine
 62
7
  6
BYLAYER
 10
37.0336289958
 20
49.3188844695
 11
39.8336289958
 21
49.3188844695
  0
LINE
  5
2BB
100
AcDbEntity
  8
0
100
AcDbLine
 62
7
  6
BYLAYER
 10
40.5836289958
 20
49.3188844695
 11
43.3836289958
 21
49.3188844695
  0
LINE
  5
2BC
100
AcDbEntity
  8
0
100
AcDbLine
 62
7
  6
BYLAYER
 10
44.1336289958
 20
49.3188844695
 11
46.9336289958
 21
49.3188844695
  0
LINE
  5
2BD
100
AcDbEntity
  8
0
100
AcDbLine
 62
7
  6
BYLAYER
 10
47.6836289958
 20
49.3188844695
 11
50.4836289958
 21
49.3188844695
  0
LINE
  5
2BE
100
AcDbEntity
  8
0
100
AcDbLine
 62
7
  6
BYLAYER
 10
51.2336289958
 20
49.3188844695
 11
54.0336289958
 21
49.3188844695
  0
LINE
  5
2BF
100
AcDbEntity
  8
0
100
AcDbLine
 62
7
  6
BYLAYER
 10
58.3336289958
 20
49.3188844695
 11
61.1336289958
 21
49.3188844695
  0
LINE
  5
2C0
100
AcDbEntity
  8
0
100
AcDbLine
 62
7
  6
BYLAYER
 10
61.8836289958
 20
49.3188844695
 11
64.6836289958
 21
49.3188844695
  0
LINE
  5
2C1
100
AcDbEntity
  8
0
100
AcDbLine
 62
7
  6
BYLAYER
 10
65.4336289958
 20
49.3188844695
 11
68.2336289958
 21
49.3188844695
  0
LINE
  5
2C2
100
AcDbEntity
  8
0
100
AcDbLine
 62
7
  6
BYLAYER
 10
68.9836289958
 20
49.3188844695
 11
71.7836289958
 21
49.3188844695
  0
LINE
  5
2C3
100
AcDbEntity
  8
0
100
AcDbLine
 62
7
  6
BYLAYER
 10
72.5336289958
 20
49.3188844695
 11
75.3336289958
 21
49.3188844695
  0
LINE
  5
2C4
100
AcDbEntity
  8
0
100
AcDbLine
 62
7
  6
BYLAYER
 10
75.4836289958
 20
50.0188844695
 11
15.333630392
 21
50.0188776861
  0
LINE
  5
2C5
100
AcDbEntity
  8
0
100
AcDbLine
 62
7
  6
BYLAYER
 10
34.1836289958
 20
47.9188844695
 11
34.1836289958
 21
48.4188844695
  0
LINE
  5
2C6
100
AcDbEntity
  8
0
100
AcDbLine
 62
7
  6
BYLAYER
 10
35.5836289958
 20
48.4188844695
 11
35.5836289958
 21
47.9188844695
  0
LINE
  5
2C7
100
AcDbEntity
  8
0
100
AcDbLine
 62
7
  6
BYLAYER
 10
36.2836289958
 20
49.3188844695
 11
36.2836289958
 21
48.4188844695
  0
LINE
  5
2C8
100
AcDbEntity
  8
0
100
AcDbLine
 62
7
  6
BYLAYER
 10
36.4336289958
 20
47.9188844695
 11
36.4336289958
 21
43.4188844695
  0
LINE
  5
2C9
100
AcDbEntity
  8
0
100
AcDbLine
 62
7
  6
BYLAYER
 10
59.4835346213
 20
51.0189217927
 11
39.4835346213
 21
51.0189618939
  0
LINE
  5
2CA
100
AcDbEntity
  8
0
100
AcDbLine
 62
7
  6
BYLAYER
 10
60.4835428423
 20
51.0189943855
 11
75.4835428422
 21
51.0189342337
  0
LINE
  5
2CB
100
AcDbEntity
  8
0
100
AcDbLine
 62
7
  6
BYLAYER
 10
80.5835701387
 20
52.170108225
 11
76.0105385982
 21
52.1700271242
  0
LINE
  5
2CC
100
AcDbEntity
  8
0
100
AcDbLine
 62
7
  6
BYLAYER
 10
15.333630392
 20
52.1689510441
 11
10.4834702571
 21
52.1688650285
  0
LINE
  5
2CD
100
AcDbEntity
  8
0
100
AcDbLine
 62
7
  6
BYLAYER
 10
36.8836289958
 20
43.4188844695
 11
36.8836289958
 21
47.9188844695
  0
LINE
  5
2CE
100
AcDbEntity
  8
0
100
AcDbLine
 62
7
  6
BYLAYER
 10
37.0336289958
 20
48.4188844695
 11
37.0336289958
 21
49.3188844695
  0
LINE
  5
2CF
100
AcDbEntity
  8
0
100
AcDbLine
 62
7
  6
BYLAYER
 10
37.7336289958
 20
47.9188844695
 11
37.7336289958
 21
48.4188844695
  0
LINE
  5
2D0
100
AcDbEntity
  8
0
100
AcDbLine
 62
7
  6
BYLAYER
 10
37.8836290718
 20
37.3688724654
 11
37.883629071
 21
34.7189179842
  0
LINE
  5
2D1
100
AcDbEntity
  8
0
100
AcDbLine
 62
7
  6
BYLAYER
 10
38.0836356572
 20
37.3689179842
 11
38.0836356572
 21
34.8689179842
  0
LINE
  5
2D2
100
AcDbEntity
  8
0
100
AcDbLine
 62
7
  6
BYLAYER
 10
39.1336289958
 20
48.4188844695
 11
39.1336289958
 21
47.9188844695
  0
LINE
  5
2D3
100
AcDbEntity
  8
0
100
AcDbLine
 62
7
  6
BYLAYER
 10
39.433629071
 20
34.7189179842
 11
39.433629071
 21
32.1691457116
  0
LINE
  5
2D4
100
AcDbEntity
  8
0
100
AcDbLine
 62
7
  6
BYLAYER
 10
39.4835346213
 20
51.0189618939
 11
39.4835326163
 21
50.0189662102
  0
LINE
  5
2D5
100
AcDbEntity
  8
0
100
AcDbLine
 62
7
  6
BYLAYER
 10
39.5836356572
 20
32.3689179842
 11
39.5836356572
 21
34.8689179842
  0
LINE
  5
2D6
100
AcDbEntity
  8
0
100
AcDbLine
 62
7
  6
BYLAYER
 10
15.3336303956
 20
55.1191017399
 11
76.0095918209
 21
55.11910174
  0
LINE
  5
2D7
100
AcDbEntity
  8
0
100
AcDbLine
 62
7
  6
BYLAYER
 10
39.8336289958
 20
49.3188844695
 11
39.8336289958
 21
48.4188844695
  0
LINE
  5
2D8
100
AcDbEntity
  8
0
100
AcDbLine
 62
7
  6
BYLAYER
 10
39.9836289958
 20
47.9188844695
 11
39.9836289958
 21
43.4188844695
  0
LINE
  5
2D9
100
AcDbEntity
  8
0
100
AcDbLine
 62
7
  6
BYLAYER
 10
40.4336289958
 20
43.4188844695
 11
40.4336289958
 21
47.9188844695
  0
LINE
  5
2DA
100
AcDbEntity
  8
0
100
AcDbLine
 62
7
  6
BYLAYER
 10
40.5836289958
 20
48.4188844695
 11
40.5836289958
 21
49.3188844695
  0
LINE
  5
2DB
100
AcDbEntity
  8
0
100
AcDbLine
 62
7
  6
BYLAYER
 10
41.2836289958
 20
47.9188844695
 11
41.2836289958
 21
48.4188844695
  0
LINE
  5
2DC
100
AcDbEntity
  8
0
100
AcDbLine
 62
7
  6
BYLAYER
 10
42.6836289958
 20
48.4188844695
 11
42.6836289958
 21
47.9188844695
  0
LINE
  5
2DD
100
AcDbEntity
  8
0
100
AcDbLine
 62
7
  6
BYLAYER
 10
43.3836289958
 20
49.3188844695
 11
43.3836289958
 21
48.4188844695
  0
LINE
  5
2DE
100
AcDbEntity
  8
0
100
AcDbLine
 62
7
  6
BYLAYER
 10
43.5336289958
 20
47.9188844695
 11
43.5336289958
 21
43.4188844695
  0
LINE
  5
2DF
100
AcDbEntity
  8
0
100
AcDbLine
 62
7
  6
BYLAYER
 10
43.9836289958
 20
43.4188844695
 11
43.9836289958
 21
47.9188844695
  0
LINE
  5
2E0
100
AcDbEntity
  8
0
100
AcDbLine
 62
7
  6
BYLAYER
 10
44.1336289958
 20
48.4188844695
 11
44.1336289958
 21
49.3188844695
  0
LINE
  5
2E1
100
AcDbEntity
  8
0
100
AcDbLine
 62
7
  6
BYLAYER
 10
44.8336289958
 20
47.9188844695
 11
44.8336289958
 21
48.4188844695
  0
LINE
  5
2E2
100
AcDbEntity
  8
0
100
AcDbLine
 62
7
  6
BYLAYER
 10
10.4833200772
 20
60.6150017516
 11
80.5836375609
 21
60.6162449519
  0
LINE
  5
2E3
100
AcDbEntity
  8
0
100
AcDbLine
 62
7
  6
BYLAYER
 10
80.5836391576
 20
61.1714782598
 11
10.4833067339
 21
61.1702350592
  0
LINE
  5
2E4
100
AcDbEntity
  8
0
100
AcDbLine
 62
7
  6
BYLAYER
 10
46.2336289958
 20
48.4188844695
 11
46.2336289958
 21
47.9188844695
  0
LINE
  5
2E5
100
AcDbEntity
  8
0
100
AcDbLine
 62
7
  6
BYLAYER
 10
46.9336289958
 20
49.3188844695
 11
46.9336289958
 21
48.4188844695
  0
LINE
  5
2E6
100
AcDbEntity
  8
0
100
AcDbLine
 62
7
  6
BYLAYER
 10
47.0836289958
 20
47.9188844695
 11
47.0836289958
 21
43.4188844695
  0
LINE
  5
2E7
100
AcDbEntity
  8
0
100
AcDbLine
 62
7
  6
BYLAYER
 10
47.5336289958
 20
43.4188844695
 11
47.5336289958
 21
47.9188844695
  0
LINE
  5
2E8
100
AcDbEntity
  8
0
100
AcDbLine
 62
7
  6
BYLAYER
 10
47.6836289958
 20
48.4188844695
 11
47.6836289958
 21
49.3188844695
  0
LINE
  5
2E9
100
AcDbEntity
  8
0
100
AcDbLine
 62
7
  6
BYLAYER
 10
48.3836289958
 20
47.9188844695
 11
48.3836289958
 21
48.4188844695
  0
LINE
  5
2EA
100
AcDbEntity
  8
0
100
AcDbLine
 62
7
  6
BYLAYER
 10
49.7836289958
 20
48.4188844695
 11
49.7836289958
 21
47.9188844695
  0
LINE
  5
2EB
100
AcDbEntity
  8
0
100
AcDbLine
 62
7
  6
BYLAYER
 10
50.4836289958
 20
49.3188844695
 11
50.4836289958
 21
48.4188844695
  0
LINE
  5
2EC
100
AcDbEntity
  8
0
100
AcDbLine
 62
7
  6
BYLAYER
 10
50.6336289958
 20
47.9188844695
 11
50.6336289958
 21
43.4188844695
  0
LINE
  5
2ED
100
AcDbEntity
  8
0
100
AcDbLine
 62
7
  6
BYLAYER
 10
51.0836289958
 20
43.4188844695
 11
51.0836289958
 21
47.9188844695
  0
LINE
  5
2EE
100
AcDbEntity
  8
0
100
AcDbLine
 62
7
  6
BYLAYER
 10
51.2336289958
 20
48.4188844695
 11
51.2336289958
 21
49.3188844695
  0
LINE
  5
2EF
100
AcDbEntity
  8
0
100
AcDbLine
 62
7
  6
BYLAYER
 10
51.5836356572
 20
32.3689179842
 11
51.5836356572
 21
34.8689179842
  0
LINE
  5
2F0
100
AcDbEntity
  8
0
100
AcDbLine
 62
7
  6
BYLAYER
 10
51.733639071
 20
34.7189179842
 11
51.733639071
 21
32.1693638473
  0
LINE
  5
2F1
100
AcDbEntity
  8
0
100
AcDbLine
 62
7
  6
BYLAYER
 10
51.9336289958
 20
47.9188844695
 11
51.9336289958
 21
48.4188844695
  0
LINE
  5
2F2
100
AcDbEntity
  8
0
100
AcDbLine
 62
7
  6
BYLAYER
 10
53.0836356572
 20
37.3689179842
 11
53.0836356572
 21
34.8689179842
  0
LINE
  5
2F3
100
AcDbEntity
  8
0
100
AcDbLine
 62
7
  6
BYLAYER
 10
53.283629071
 20
34.7189179842
 11
53.2836290701
 21
37.368963503
  0
LINE
  5
2F4
100
AcDbEntity
  8
0
100
AcDbLine
 62
7
  6
BYLAYER
 10
53.3336289958
 20
48.4188844695
 11
53.3336289958
 21
47.9188844695
  0
LINE
  5
2F5
100
AcDbEntity
  8
0
100
AcDbLine
 62
7
  6
BYLAYER
 10
54.0336289958
 20
49.3188844695
 11
54.0336289958
 21
48.4188844695
  0
LINE
  5
2F6
100
AcDbEntity
  8
0
100
AcDbLine
 62
7
  6
BYLAYER
 10
54.1836289958
 20
47.9188844695
 11
54.1836289958
 21
43.4188844695
  0
LINE
  5
2F7
100
AcDbEntity
  8
0
100
AcDbLine
 62
7
  6
BYLAYER
 10
54.6336289958
 20
43.4188844695
 11
54.6336289958
 21
47.9188844695
  0
LINE
  5
2F8
100
AcDbEntity
  8
0
100
AcDbLine
 62
7
  6
BYLAYER
 10
54.7836289958
 20
48.4188844695
 11
54.7836289958
 21
49.3188844695
  0
LINE
  5
2F9
100
AcDbEntity
  8
0
100
AcDbLine
 62
7
  6
BYLAYER
 10
55.4836289958
 20
47.9188844695
 11
55.4836289958
 21
48.4188844695
  0
LINE
  5
2FA
100
AcDbEntity
  8
0
100
AcDbLine
 62
7
  6
BYLAYER
 10
56.8836289958
 20
48.4188844695
 11
56.8836289958
 21
47.9188844695
  0
LINE
  5
2FB
100
AcDbEntity
  8
0
100
AcDbLine
 62
7
  6
BYLAYER
 10
57.5836289958
 20
49.3188844695
 11
57.5836289958
 21
48.4188844695
  0
LINE
  5
2FC
100
AcDbEntity
  8
0
100
AcDbLine
 62
7
  6
BYLAYER
 10
57.7336289958
 20
47.9188844695
 11
57.7336289958
 21
43.4188844695
  0
LINE
  5
2FD
100
AcDbEntity
  8
0
100
AcDbLine
 62
7
  6
BYLAYER
 10
58.1836289958
 20
43.4188844695
 11
58.1836289958
 21
47.9188844695
  0
LINE
  5
2FE
100
AcDbEntity
  8
0
100
AcDbLine
 62
7
  6
BYLAYER
 10
58.3336289958
 20
48.4188844695
 11
58.3336289958
 21
49.3188844695
  0
LINE
  5
2FF
100
AcDbEntity
  8
0
100
AcDbLine
 62
7
  6
BYLAYER
 10
59.0336289958
 20
47.9188844695
 11
59.0336289958
 21
48.4188844695
  0
LINE
  5
300
100
AcDbEntity
  8
0
100
AcDbLine
 62
7
  6
BYLAYER
 10
59.4835346213
 20
51.0189217927
 11
59.4835326162
 21
50.018926109
  0
LINE
  5
301
100
AcDbEntity
  8
0
100
AcDbLine
 62
7
  6
BYLAYER
 10
60.4336289958
 20
48.4188844695
 11
60.4336289958
 21
47.9188844695
  0
LINE
  5
302
100
AcDbEntity
  8
0
100
AcDbLine
 62
7
  6
BYLAYER
 10
60.4835388324
 20
50.0190390721
 11
60.4835428423
 21
51.0189943855
  0
LINE
  5
303
100
AcDbEntity
  8
0
100
AcDbLine
 62
7
  6
BYLAYER
 10
61.1336289958
 20
49.3188844695
 11
61.1336289958
 21
48.4188844695
  0
LINE
  5
304
100
AcDbEntity
  8
0
100
AcDbLine
 62
7
  6
BYLAYER
 10
61.2836289958
 20
47.9188844695
 11
61.2836289958
 21
43.4188844695
  0
LINE
  5
305
100
AcDbEntity
  8
0
100
AcDbLine
 62
7
  6
BYLAYER
 10
61.7336289958
 20
43.4188844695
 11
61.7336289958
 21
47.9188844695
  0
LINE
  5
306
100
AcDbEntity
  8
0
100
AcDbLine
 62
7
  6
BYLAYER
 10
61.8836289958
 20
48.4188844695
 11
61.8836289958
 21
49.3188844695
  0
LINE
  5
307
100
AcDbEntity
  8
0
100
AcDbLine
 62
7
  6
BYLAYER
 10
62.5836289958
 20
47.9188844695
 11
62.5836289958
 21
48.4188844695
  0
LINE
  5
308
100
AcDbEntity
  8
0
100
AcDbLine
 62
7
  6
BYLAYER
 10
63.9836289958
 20
48.4188844695
 11
63.9836289958
 21
47.9188844695
  0
LINE
  5
309
100
AcDbEntity
  8
0
100
AcDbLine
 62
7
  6
BYLAYER
 10
80.5837941427
 20
80.4952487841
 11
10.4829640348
 21
80.4940055747
  0
LINE
  5
30A
100
AcDbEntity
  8
0
100
AcDbLine
 62
7
  6
BYLAYER
 10
80.5837955155
 20
80.974767123
 11
10.4829525035
 21
80.9735239133
  0
LINE
  5
30B
100
AcDbEntity
  8
0
100
AcDbLine
 62
7
  6
BYLAYER
 10
64.6836289958
 20
49.3188844695
 11
64.6836289958
 21
48.4188844695
  0
LINE
  5
30C
100
AcDbEntity
  8
0
100
AcDbLine
 62
7
  6
BYLAYER
 10
64.8336289958
 20
47.9188844695
 11
64.8336289958
 21
43.4188844695
  0
LINE
  5
30D
100
AcDbEntity
  8
0
100
AcDbLine
 62
7
  6
BYLAYER
 10
65.2836289958
 20
43.4188844695
 11
65.2836289958
 21
47.9188844695
  0
LINE
  5
30E
100
AcDbEntity
  8
0
100
AcDbLine
 62
7
  6
BYLAYER
 10
65.4336289958
 20
48.4188844695
 11
65.4336289958
 21
49.3188844695
  0
LINE
  5
30F
100
AcDbEntity
  8
0
100
AcDbLine
 62
7
  6
BYLAYER
 10
66.1336289958
 20
47.9188844695
 11
66.1336289958
 21
48.4188844695
  0
LINE
  5
310
100
AcDbEntity
  8
0
100
AcDbLine
 62
7
  6
BYLAYER
 10
67.5336289958
 20
48.4188844695
 11
67.5336289958
 21
47.9188844695
  0
LINE
  5
311
100
AcDbEntity
  8
0
100
AcDbLine
 62
7
  6
BYLAYER
 10
17.2277763601
 20
93.7373716426
 11
17.3202086357
 21
93.7090598257
  0
LINE
  5
312
100
AcDbEntity
  8
0
100
AcDbLine
 62
7
  6
BYLAYER
 10
17.2277762368
 20
93.7373716424
 11
17.3488208194
 21
93.6994933013
  0
LINE
  5
313
100
AcDbEntity
  8
0
100
AcDbLine
 62
7
  6
BYLAYER
 10
18.1336499493
 20
93.5144323009
 11
17.3836102203
 21
93.7680005341
  0
LINE
  5
314
100
AcDbEntity
  8
0
100
AcDbLine
 62
7
  6
BYLAYER
 10
17.4671404757
 20
93.7396911607
 11
17.3838269416
 21
93.76801154
  0
LWPOLYLINE
  5
315
100
AcDbEntity
  8
0
100
AcDbPolyline
 62
7
  6
BYLAYER
 90
3
 70
0
 10
17.3202086357
 20
93.7090598257
 10
17.5693906995
 20
93.6239572996
 10
17.9749902659
 20
93.4826859525
  0
LINE
  5
316
100
AcDbEntity
  8
0
100
AcDbLine
 62
7
  6
BYLAYER
 10
17.3488208194
 20
93.6994933013
 11
17.9749902659
 21
93.4826859525
  0
LINE
  5
317
100
AcDbEntity
  8
0
100
AcDbLine
 62
7
  6
BYLAYER
 10
68.2336289958
 20
49.3188844695
 11
68.2336289958
 21
48.4188844695
  0
LINE
  5
318
100
AcDbEntity
  8
0
100
AcDbLine
 62
7
  6
BYLAYER
 10
68.3836289958
 20
47.9188844695
 11
68.3836289958
 21
43.4188844695
  0
LINE
  5
319
100
AcDbEntity
  8
0
100
AcDbLine
 62
7
  6
BYLAYER
 10
68.8336289958
 20
43.4188844695
 11
68.8336289958
 21
47.9188844695
  0
LINE
  5
31A
100
AcDbEntity
  8
0
100
AcDbLine
 62
7
  6
BYLAYER
 10
68.9836289958
 20
48.4188844695
 11
68.9836289958
 21
49.3188844695
  0
LINE
  5
31B
100
AcDbEntity
  8
0
100
AcDbLine
 62
7
  6
BYLAYER
 10
69.1613991965
 20
93.3225902937
 11
69.1613991965
 21
93.2850083174
  0
LINE
  5
31C
100
AcDbEntity
  8
0
100
AcDbLine
 62
7
  6
BYLAYER
 10
69.6836289958
 20
47.9188844695
 11
69.6836289958
 21
48.4188844695
  0
LINE
  5
31D
100
AcDbEntity
  8
0
100
AcDbLine
 62
7
  6
BYLAYER
 10
71.0836289958
 20
48.4188844695
 11
71.0836289958
 21
47.9188844695
  0
LINE
  5
31E
100
AcDbEntity
  8
0
100
AcDbLine
 62
7
  6
BYLAYER
 10
71.7836289958
 20
49.3188844695
 11
71.7836289958
 21
48.4188844695
  0
LINE
  5
31F
100
AcDbEntity
  8
0
100
AcDbLine
 62
7
  6
BYLAYER
 10
71.9336289958
 20
47.9188844695
 11
71.9336289958
 21
43.4188844695
  0
LINE
  5
320
100
AcDbEntity
  8
0
100
AcDbLine
 62
7
  6
BYLAYER
 10
72.3836289958
 20
43.4188844695
 11
72.3836289958
 21
47.9188844695
  0
LINE
  5
321
100
AcDbEntity
  8
0
100
AcDbLine
 62
7
  6
BYLAYER
 10
72.5336289958
 20
48.4188844695
 11
72.5336289958
 21
49.3188844695
  0
LINE
  5
322
100
AcDbEntity
  8
0
100
AcDbLine
 62
7
  6
BYLAYER
 10
73.033725863
 20
93.514590648
 11
73.033725863
 21
93.4627556195
  0
LINE
  5
323
100
AcDbEntity
  8
0
100
AcDbLine
 62
7
  6
BYLAYER
 10
73.2336289958
 20
47.9188844695
 11
73.2336289958
 21
48.4188844695
  0
LINE
  5
324
100
AcDbEntity
  8
0
100
AcDbLine
 62
7
  6
BYLAYER
 10
73.7836529529
 20
93.6846232344
 11
73.7836529529
 21
93.7680899992
  0
LINE
  5
325
100
AcDbEntity
  8
0
100
AcDbLine
 62
7
  6
BYLAYER
 10
80.5838638065
 20
89.4943958722
 11
10.4828013621
 21
89.4931526586
  0
LINE
  5
326
100
AcDbEntity
  8
0
100
AcDbLine
 62
7
  6
BYLAYER
 10
76.0095918209
 20
55.11910174
 11
76.0135406175
 21
42.8192057598
  0
LINE
  5
327
100
AcDbEntity
  8
0
100
AcDbLine
 62
7
  6
BYLAYER
 10
74.6336289958
 20
48.4188844695
 11
74.6336289958
 21
47.9188844695
  0
LINE
  5
328
100
AcDbEntity
  8
0
100
AcDbLine
 62
7
  6
BYLAYER
 10
75.3336289958
 20
49.3188844695
 11
75.3336289958
 21
48.4188844695
  0
LINE
  5
329
100
AcDbEntity
  8
0
100
AcDbLine
 62
7
  6
BYLAYER
 10
75.4836289958
 20
42.8188844696
 11
75.4835428422
 21
51.0189342337
  0
LINE
  5
32A
100
AcDbEntity
  8
0
100
AcDbLine
 62
7
  6
BYLAYER
 10
69.260889746
 20
93.7667945476
 11
69.5095393021
 21
93.7680840825
  0
LINE
  5
32B
100
AcDbEntity
  8
0
100
AcDbLine
 62
7
  6
BYLAYER
 10
80.5839013323
 20
91.6221327485
 11
10.4827632948
 21
91.6208895336
  0
LINE
  5
32C
100
AcDbEntity
  8
0
100
AcDbLine
 62
7
  6
BYLAYER
 10
80.5839111248
 20
92.8713080917
 11
10.482740497
 21
92.8700648762
  0
LINE
  5
32D
100
AcDbEntity
  8
0
100
AcDbLine
 62
7
  6
BYLAYER
 10
80.5838892944
 20
93.7384952373
 11
73.9395564108
 21
93.7383774028
  0
LINE
  5
32E
100
AcDbEntity
  8
0
100
AcDbLine
 62
7
  6
BYLAYER
 10
17.2277504019
 20
93.7373716422
 11
10.4827186666
 21
93.7372520218
  0
LINE
  5
32F
100
AcDbEntity
  8
0
100
AcDbLine
 62
7
  6
BYLAYER
 10
17.3836151726
 20
93.7680115397
 11
66.9590968716
 21
93.7680805331
  0
LINE
  5
330
100
AcDbEntity
  8
0
100
AcDbLine
 62
7
  6
BYLAYER
 10
69.5095610614
 20
93.7680840826
 11
73.78365286
 21
93.7680900308
  0
LINE
  5
331
100
AcDbEntity
  8
0
100
AcDbLine
 62
7
  6
BYLAYER
 10
21.3578542871
 20
93.2841607783
 11
22.0049041757
 21
93.2834791275
  0
LINE
  5
332
100
AcDbEntity
  8
0
100
AcDbLine
 62
7
  6
BYLAYER
 10
66.9590969559
 20
93.7680805319
 11
67.2047998983
 21
93.7668054591
  0
LINE
  5
333
100
AcDbEntity
  8
0
100
AcDbLine
 62
7
  6
BYLAYER
 10
80.5834090252
 20
32.1698754861
 11
80.5838917768
 21
93.7384283948
  0
ARC
  5
334
100
AcDbEntity
  8
0
100
AcDbCircle
 62
7
  6
BYLAYER
 10
45.0102397422
 20
17773.4966191457
 40
17680.2281071805
100
AcDbArc
 50
269.9254472845
 51
270.078268623
  0
ARC
  5
335
100
AcDbEntity
  8
0
100
AcDbCircle
 62
7
  6
BYLAYER
 10
45.5416628802
 20
17372.8834062722
 40
17279.5769591657
100
AcDbArc
 50
269.9219596745
 51
270.0783185624
  0
ARC
  5
336
100
AcDbEntity
  8
0
100
AcDbCircle
 62
7
  6
BYLAYER
 10
68.2340163309
 20
314.5176911213
 40
220.7532849294
100
AcDbArc
 50
269.7328693367
 51
270.2665225343
  0
ARC
  5
337
100
AcDbEntity
  8
0
100
AcDbCircle
 62
7
  6
BYLAYER
 10
22.0890055141
 20
155.4344841628
 40
62.1120641235
100
AcDbArc
 50
269.3087040931
 51
269.9232820525
  0
ARC
  5
338
100
AcDbEntity
  8
0
100
AcDbCircle
 62
7
  6
BYLAYER
 10
73.9336289958
 20
42.4188844696
 40
1.25
100
AcDbArc
 50
53.130102354
 51
126.8698976461
  0
ARC
  5
339
100
AcDbEntity
  8
0
100
AcDbCircle
 62
7
  6
BYLAYER
 10
17.1336289958
 20
42.4188844696
 40
1.25
100
AcDbArc
 50
53.1301023541
 51
126.869897646
  0
ARC
  5
33A
100
AcDbEntity
  8
0
100
AcDbCircle
 62
7
  6
BYLAYER
 10
70.3836289958
 20
42.4188844696
 40
1.25
100
AcDbArc
 50
53.130102354
 51
126.869897646
  0
ARC
  5
33B
100
AcDbEntity
  8
0
100
AcDbCircle
 62
7
  6
BYLAYER
 10
66.8336289958
 20
42.4188844696
 40
1.25
100
AcDbArc
 50
53.130102354
 51
126.869897646
  0
ARC
  5
33C
100
AcDbEntity
  8
0
100
AcDbCircle
 62
7
  6
BYLAYER
 10
63.2836289958
 20
42.4188844696
 40
1.25
100
AcDbArc
 50
53.130102354
 51
126.869897646
  0
ARC
  5
33D
100
AcDbEntity
  8
0
100
AcDbCircle
 62
7
  6
BYLAYER
 10
59.7336289958
 20
42.4188844696
 40
1.25
100
AcDbArc
 50
53.130102354
 51
126.869897646
  0
ARC
  5
33E
100
AcDbEntity
  8
0
100
AcDbCircle
 62
7
  6
BYLAYER
 10
56.1836289958
 20
42.4188844696
 40
1.25
100
AcDbArc
 50
53.130102354
 51
126.869897646
  0
ARC
  5
33F
100
AcDbEntity
  8
0
100
AcDbCircle
 62
7
  6
BYLAYER
 10
52.6336289958
 20
42.4188844696
 40
1.25
100
AcDbArc
 50
53.130102354
 51
126.869897646
  0
ARC
  5
340
100
AcDbEntity
  8
0
100
AcDbCircle
 62
7
  6
BYLAYER
 10
49.0836289958
 20
42.4188844696
 40
1.25
100
AcDbArc
 50
53.130102354
 51
126.869897646
  0
ARC
  5
341
100
AcDbEntity
  8
0
100
AcDbCircle
 62
7
  6
BYLAYER
 10
45.5336289958
 20
42.4188844696
 40
1.25
100
AcDbArc
 50
53.130102354
 51
126.869897646
  0
ARC
  5
342
100
AcDbEntity
  8
0
100
AcDbCircle
 62
7
  6
BYLAYER
 10
41.9836289958
 20
42.4188844696
 40
1.25
100
AcDbArc
 50
53.130102354
 51
126.869897646
  0
ARC
  5
343
100
AcDbEntity
  8
0
100
AcDbCircle
 62
7
  6
BYLAYER
 10
38.4336289958
 20
42.4188844696
 40
1.25
100
AcDbArc
 50
53.130102354
 51
126.869897646
  0
ARC
  5
344
100
AcDbEntity
  8
0
100
AcDbCircle
 62
7
  6
BYLAYER
 10
34.8836289958
 20
42.4188844696
 40
1.25
100
AcDbArc
 50
53.130102354
 51
126.869897646
  0
ARC
  5
345
100
AcDbEntity
  8
0
100
AcDbCircle
 62
7
  6
BYLAYER
 10
31.3336289958
 20
42.4188844696
 40
1.25
100
AcDbArc
 50
53.130102354
 51
126.869897646
  0
ARC
  5
346
100
AcDbEntity
  8
0
100
AcDbCircle
 62
7
  6
BYLAYER
 10
27.7836289958
 20
42.4188844696
 40
1.25
100
AcDbArc
 50
53.1301023541
 51
126.869897646
  0
ARC
  5
347
100
AcDbEntity
  8
0
100
AcDbCircle
 62
7
  6
BYLAYER
 10
24.2336289958
 20
42.4188844696
 40
1.25
100
AcDbArc
 50
53.1301023541
 51
126.869897646
  0
ARC
  5
348
100
AcDbEntity
  8
0
100
AcDbCircle
 62
7
  6
BYLAYER
 10
20.6836289958
 20
42.4188844696
 40
1.25
100
AcDbArc
 50
53.1301023541
 51
126.869897646
  0
SPLINE
  5
349
100
AcDbEntity
  8
0
100
AcDbSpline
 62
7
  6
BYLAYER
 70
0
 71
3
 72
11
 73
7
 74
0
 42
0.0000001
 43
0.0000001
 44
0.0000000001
 40
0.0
 40
0.0
 40
0.0
 40
0.0
 40
0.0787329506
 40
0.2681609654
 40
0.5752060944
 40
1.0
 40
1.0
 40
1.0
 40
1.0
 10
66.9590917358
 20
93.6862874624
 30
0.0
 10
66.9590917358
 20
93.6850429947
 30
0.0
 10
66.9642565179
 20
93.682984367
 30
0.0
 10
66.9720526567
 20
93.6811356927
 30
0.0
 10
66.9870376023
 20
93.6787558878
 30
0.0
 10
66.9983390272
 20
93.6774743765
 30
0.0
 10
67.0050168805
 20
93.6767750464
 30
0.0
  0
SPLINE
  5
34A
100
AcDbEntity
  8
0
100
AcDbSpline
 62
7
  6
BYLAYER
 70
0
 71
3
 72
9
 73
5
 74
0
 42
0.0000001
 43
0.0000001
 44
0.0000000001
 40
0.0
 40
0.0
 40
0.0
 40
0.0
 40
0.406647737
 40
1.0
 40
1.0
 40
1.0
 40
1.0
 10
67.0050168805
 20
93.6767750464
 30
0.0
 10
67.0320203948
 20
93.6739471358
 30
0.0
 10
67.0986573334
 20
93.6693650631
 30
0.0
 10
67.1653424472
 20
93.6661234579
 30
0.0
 10
67.2049246978
 20
93.664461348
 30
0.0
  0
SPLINE
  5
34B
100
AcDbEntity
  8
0
100
AcDbSpline
 62
7
  6
BYLAYER
 70
0
 71
3
 72
11
 73
7
 74
0
 42
0.0000001
 43
0.0000001
 44
0.0000000001
 40
0.0
 40
0.0
 40
0.0
 40
0.0
 40
0.2194180975
 40
0.4995040418
 40
0.7798372722
 40
1.0
 40
1.0
 40
1.0
 40
1.0
 10
67.2049246978
 20
93.664461348
 30
0.0
 10
67.3551871492
 20
93.6581516332
 30
0.0
 10
67.69751665
 20
93.6504038981
 30
0.0
 10
68.232032375
 20
93.6463445933
 30
0.0
 10
68.7670593085
 20
93.6503439301
 30
0.0
 10
69.1100690497
 20
93.658059497
 30
0.0
 10
69.2608434063
 20
93.6643436404
 30
0.0
  0
SPLINE
  5
34C
100
AcDbEntity
  8
0
100
AcDbSpline
 62
7
  6
BYLAYER
 70
0
 71
3
 72
9
 73
5
 74
0
 42
0.0000001
 43
0.0000001
 44
0.0000000001
 40
0.0
 40
0.0
 40
0.0
 40
0.0
 40
0.5945491692
 40
1.0
 40
1.0
 40
1.0
 40
1.0
 10
69.2608434063
 20
93.6643436404
 30
0.0
 10
69.3011928048
 20
93.666025368
 30
0.0
 10
69.3690329786
 20
93.6693067677
 30
0.0
 10
69.4368258481
 20
93.6739539153
 30
0.0
 10
69.4642141725
 20
93.676840577
 30
0.0
  0
SPLINE
  5
34D
100
AcDbEntity
  8
0
100
AcDbSpline
 62
7
  6
BYLAYER
 70
0
 71
3
 72
11
 73
7
 74
0
 42
0.0000001
 43
0.0000001
 44
0.0000000001
 40
0.0
 40
0.0
 40
0.0
 40
0.0
 40
0.4246744793
 40
0.7316600402
 40
0.9211026517
 40
1.0
 40
1.0
 40
1.0
 40
1.0
 10
69.4642141725
 20
93.676840577
 30
0.0
 10
69.4708087826
 20
93.6775356326
 30
0.0
 10
69.4819713444
 20
93.6788084584
 30
0.0
 10
69.4967646595
 20
93.6811755891
 30
0.0
 10
69.5044748133
 20
93.6830085103
 30
0.0
 10
69.5095663398
 20
93.6850604204
 30
0.0
 10
69.5095663398
 20
93.6862923738
 30
0.0
  0
LINE
  5
34E
100
AcDbEntity
  8
0
100
AcDbLine
 62
7
  6
BYLAYER
 10
73.2115250863
 20
93.4901857083
 11
73.1923676875
 21
93.4837359804
  0
SPLINE
  5
34F
100
AcDbEntity
  8
0
100
AcDbSpline
 62
7
  6
BYLAYER
 70
0
 71
3
 72
17
 73
13
 74
0
 42
0.0000001
 43
0.0000001
 44
0.0000000001
 40
0.0
 40
0.0
 40
0.0
 40
0.0
 40
0.0174817918
 40
0.0421665588
 40
0.0739612576
 40
0.1127021557
 40
0.2101094387
 40
0.3321487302
 40
0.4758592733
 40
0.6377399953
 40
0.8139513216
 40
1.0
 40
1.0
 40
1.0
 40
1.0
 10
17.9749902659
 20
93.4826859525
 30
0.0
 10
17.9936516577
 20
93.4761601086
 30
0.0
 10
18.0400142261
 20
93.4644828537
 30
0.0
 10
18.1222162549
 20
93.4491037216
 30
0.0
 10
18.2287996892
 20
93.4335242478
 30
0.0
 10
18.4173731764
 20
93.4108967742
 30
0.0
 10
18.7082111656
 20
93.3845364423
 30
0.0
 10
19.1179333477
 20
93.3562946795
 30
0.0
 10
19.600883201
 20
93.3309831343
 30
0.0
 10
20.1453331905
 20
93.3096983954
 30
0.0
 10
20.7378546134
 20
93.2934602914
 30
0.0
 10
21.1474728357
 20
93.2866117182
 30
0.0
 10
21.3578542871
 20
93.2841607783
 30
0.0
  0
SPLINE
  5
350
100
AcDbEntity
  8
0
100
AcDbSpline
 62
7
  6
BYLAYER
 70
0
 71
3
 72
18
 73
14
 74
0
 42
0.0000001
 43
0.0000001
 44
0.0000000001
 40
0.0
 40
0.0
 40
0.0
 40
0.0
 40
0.1797223978
 40
0.3536601681
 40
0.5160828371
 40
0.6620002479
 40
0.7868073077
 40
0.840039262
 40
0.8865802843
 40
0.9261089442
 40
0.9583236784
 40
0.9830006457
 40
1.0
 40
1.0
 40
1.0
 40
1.0
 10
69.1622224707
 20
93.2850083174
 30
0.0
 10
69.4042265998
 20
93.2851150523
 30
0.0
 10
69.8804490828
 20
93.2880418549
 30
0.0
 10
70.5752841486
 20
93.3003129909
 30
0.0
 10
71.2244215686
 20
93.3197240143
 30
0.0
 10
71.8071379151
 20
93.3451165071
 30
0.0
 10
72.2426155678
 20
93.3711225362
 30
0.0
 10
72.5441321908
 20
93.3943868209
 30
0.0
 10
72.7309439771
 20
93.4114252077
 30
0.0
 10
72.8892737942
 20
93.4287592999
 30
0.0
 10
73.0179971568
 20
93.4460667974
 30
0.0
 10
73.1159765898
 20
93.4632096709
 30
0.0
 10
73.1707340115
 20
93.4762557634
 30
0.0
 10
73.1923676875
 20
93.4837359804
 30
0.0
  0
SPLINE
  5
351
100
AcDbEntity
  8
0
100
AcDbSpline
 62
7
  6
BYLAYER
 70
0
 71
3
 72
9
 73
5
 74
0
 42
0.0000001
 43
0.0000001
 44
0.0000000001
 40
0.0
 40
0.0
 40
0.0
 40
0.0
 40
0.3951294391
 40
1.0
 40
1.0
 40
1.0
 40
1.0
 10
69.4729701042
 20
93.6943524102
 30
0.0
 10
69.4455286002
 20
93.6972644277
 30
0.0
 10
69.3757694555
 20
93.7014008867
 30
0.0
 10
69.3059961295
 20
93.7041598133
 30
0.0
 10
69.2637748358
 20
93.7055373697
 30
0.0
  0
SPLINE
  5
352
100
AcDbEntity
  8
0
100
AcDbSpline
 62
7
  6
BYLAYER
 70
0
 71
3
 72
11
 73
7
 74
0
 42
0.0000001
 43
0.0000001
 44
0.0000000001
 40
0.0
 40
0.0
 40
0.0
 40
0.0
 40
0.2194044383
 40
0.4995019219
 40
0.7798477964
 40
1.0
 40
1.0
 40
1.0
 40
1.0
 10
69.2637748358
 20
93.7055373697
 30
0.0
 10
69.1134766224
 20
93.7104411575
 30
0.0
 10
68.77112975
 20
93.7156814542
 30
0.0
 10
68.2366340604
 20
93.7183254961
 30
0.0
 10
67.7016253438
 20
93.7157206845
 30
0.0
 10
67.3585957622
 20
93.7105059985
 30
0.0
 10
67.2077839129
 20
93.7056284634
 30
0.0
  0
SPLINE
  5
353
100
AcDbEntity
  8
0
100
AcDbSpline
 62
7
  6
BYLAYER
 70
0
 71
3
 72
9
 73
5
 74
0
 42
0.0000001
 43
0.0000001
 44
0.0000000001
 40
0.0
 40
0.0
 40
0.0
 40
0.0
 40
0.6059475898
 40
1.0
 40
1.0
 40
1.0
 40
1.0
 10
67.2077839129
 20
93.7056284634
 30
0.0
 10
67.1648180746
 20
93.7042388684
 30
0.0
 10
67.0939413286
 20
93.7014513702
 30
0.0
 10
67.0230760165
 20
93.6972718926
 30
0.0
 10
66.9952784193
 20
93.6943036189
 30
0.0
  0
SPLINE
  5
354
100
AcDbEntity
  8
0
100
AcDbSpline
 62
7
  6
BYLAYER
 70
0
 71
3
 72
17
 73
13
 74
0
 42
0.0000001
 43
0.0000001
 44
0.0000000001
 40
0.0
 40
0.0
 40
0.0
 40
0.0
 40
0.186020576
 40
0.3618436789
 40
0.5234182987
 40
0.6668698976
 40
0.7887877802
 40
0.8863117204
 40
0.9252132021
 40
0.9572161886
 40
0.9821750626
 40
1.0
 40
1.0
 40
1.0
 40
1.0
 10
21.3396174388
 20
93.3269409238
 30
0.0
 10
21.1402778387
 20
93.3293540433
 30
0.0
 10
20.7525462823
 20
93.3359684116
 30
0.0
 10
20.1918124467
 20
93.3514327503
 30
0.0
 10
19.6768775779
 20
93.3715431973
 30
0.0
 10
19.2199331599
 20
93.3953792088
 30
0.0
 10
18.8319246242
 20
93.4219543779
 30
0.0
 10
18.5561265461
 20
93.4467557274
 30
0.0
 10
18.3768789119
 20
93.4680428787
 30
0.0
 10
18.2751715504
 20
93.4827481411
 30
0.0
 10
18.196359771
 20
93.4972780343
 30
0.0
 10
18.1517434875
 20
93.5083058732
 30
0.0
 10
18.1336499493
 20
93.5144323009
 30
0.0
  0
SPLINE
  5
355
100
AcDbEntity
  8
0
100
AcDbSpline
 62
7
  6
BYLAYER
 70
0
 71
3
 72
17
 73
13
 74
0
 42
0.0000001
 43
0.0000001
 44
0.0000000001
 40
0.0
 40
0.0
 40
0.0
 40
0.0
 40
0.017249524
 40
0.0420985676
 40
0.0744245413
 40
0.1140134456
 40
0.2137212677
 40
0.338264381
 40
0.483884473
 40
0.6460638843
 40
0.8199585436
 40
1.0
 40
1.0
 40
1.0
 40
1.0
 10
73.033725863
 20
93.514590648
 30
0.0
 10
73.0125799712
 20
93.5074552089
 30
0.0
 10
72.9594182748
 20
93.4949236566
 30
0.0
 10
72.8645683084
 20
93.4784656003
 30
0.0
 10
72.7404395631
 20
93.461858666
 30
0.0
 10
72.519695373
 20
93.4378318952
 30
0.0
 10
72.1793917331
 20
93.4103056537
 30
0.0
 10
71.7017004231
 20
93.3816295441
 30
0.0
 10
71.1428482299
 20
93.3571949254
 30
0.0
 10
70.5199068396
 20
93.3382877113
 30
0.0
 10
69.8522561802
 20
93.3260912597
 30
0.0
 10
69.3943355253
 20
93.3229125473
 30
0.0
 10
69.1613991961
 20
93.322590216
 30
0.0
  0
ENDSEC
  0
SECTION
  2
OBJECTS
  0
DICTIONARY
  5
C
100
AcDbDictionary
280
0
281
1
  3
ACAD_GROUP
350
D
  3
ACAD_MLINESTYLE
350
17
  3
ACAD_LAYOUT
350
1A
  3
ACAD_PLOTSETTINGS
350
19
  3
ACAD_PLOTSTYLENAME
350
E
  0
DICTIONARY
  5
D
102
{ACAD_REACTORS
330
C
102
}
100
AcDbDictionary
280
0
281
1
  0
ACDBDICTIONARYWDFLT
  5
E
102
{ACAD_REACTORS
330
C
102
}
100
AcDbDictionary
281
1
  3
Normal
350
F
100
AcDbDictionaryWithDefault
340
F
  0
DICTIONARY
  5
17
102
{ACAD_REACTORS
330
C
102
}
100
AcDbDictionary
280
0
281
1
  3
Standard
350
18
  0
DICTIONARY
  5
19
102
{ACAD_REACTORS
330
C
102
}
100
AcDbDictionary
281
1
  0
DICTIONARY
  5
1A
102
{ACAD_REACTORS
330
C
102
}
100
AcDbDictionary
281
1
  3
Model
350
356
  3
Layout1
350
357
  0
ACDBPLACEHOLDER
  5
F
102
{ACAD_REACTORS
330
E
102
}
  0
MLINESTYLE
  5
18
102
{ACAD_REACTORS
330
17
102
}
100
AcDbMlineStyle
  2
STANDARD
 70
0
  3

 62
256
 51
90.0
 52
90.0
 71
2
 49
0.5
 62
256
  6
BYLAYER
 49
-0.5
 62
256
  6
BYLAYER
  0
LAYOUT
  5
356
102
{ACAD_REACTORS
330
1A
102
}
100
AcDbPlotSettings
  1

  2
none_device
  4

  6

 40
0.0
 41
0.0
 42
0.0
 43
0.0
 44
210.0
 45
297.0
 46
0.0
 47
0.0
 48
0.0
 49
0.0
140
0.0
141
0.0
142
1.0
143
1.0
 70
1024
 72
1
 73
0
 74
0
  7

 75
0
147
1.0
148
0.0
149
0.0
100
AcDbLayout
  1
Model
 70
0
 71
0
 10
0.0
 20
0.0
 11
210.0
 21
297.0
 12
0.0
 22
0.0
 32
0.0
 14
0.0
 24
0.0
 34
0.0
 15
0.0
 25
0.0
 35
0.0
146
0.0
 13
0.0
 23
0.0
 33
0.0
 16
1.0
 26
0.0
 36
0.0
 17
0.0
 27
1.0
 37
0.0
 76
0
330
210
345
0
346
0
  0
LAYOUT
  5
357
102
{ACAD_REACTORS
330
1A
102
}
100
AcDbPlotSettings
  1

  2
none_device
  4

  6

 40
0.0
 41
0.0
 42
0.0
 43
0.0
 44
210.0
 45
297.0
 46
0.0
 47
0.0
 48
0.0
 49
0.0
140
0.0
141
0.0
142
1.0
143
1.0
 70
0
 72
1
 73
0
 74
0
  7

 75
0
147
1.0
148
0.0
149
0.0
100
AcDbLayout
  1
Layout1
 70
0
 71
1
 10
0.0
 20
0.0
 11
210.0
 21
297.0
 12
0.0
 22
0.0
 32
0.0
 14
0.0
 24
0.0
 34
0.0
 15
0.0
 25
0.0
 35
0.0
146
0.0
 13
0.0
 23
0.0
 33
0.0
 16
1.0
 26
0.0
 36
0.0
 17
0.0
 27
1.0
 37
0.0
 76
0
330
211
345
0
346
0
  0
ENDSEC
  0
EOF
