999
DXF file: C:\updateCreo8 with 3dPdf\CAD\PAS800_3D-CAD\drw0001_1.dxf
999
Pro/ENGINEER 2021284 by Parametric Technology Corporation
  0
SECTION
  2
HEADER
  9
$ACADVER
  1
AC1024
  9
$DWGCODEPAGE
  3
ANSI_1252
  9
$EXTMAX
 10
128.1290669798
 20
181.2111090144
 30
0.0
  9
$EXTMIN
 10
0.0
 20
0.0
 30
0.0
  9
$LIMMIN
 10
0.0
 20
0.0
  9
$LIMMAX
 10
128.1290669798
 20
181.2111090144
  9
$VIEWCTR
 10
64.0645334899
 20
90.6055545072
  9
$VIEWSIZE
 40
181.2111090144
  9
$CLAYER
  8
0
  9
$LTSCALE
 40
11.8122796987
  9
$CELTYPE
  6
BYLAYER
  9
$DIMSCALE
 40
1.0
  9
$DIMASZ
 40
1.5253460355
  9
$DIMEXO
 40
1.0
  9
$DIMDLI
 40
8.1612114282
  9
$DIMEXE
 40
1.0
  9
$DIMCEN
 40
1.9329184962
  9
$DIMLFAC
 40
1.0
  9
$DIMBLK
  1
_FILLED
  9
$DIMALT
 70
0
  9
$DIMALTF
 40
0.0393700787
  9
$DIMTXT
 40
2.1354844497
  9
$DIMTOL
 70
1
  9
$DIMLIM
 70
0
  9
$DIMTFAC
 40
1.0
  9
$DIMTP
 40
0.01
  9
$DIMTM
 40
0.01
  9
$DIMGAP
 40
0.625
  9
$DIMDSEP
 70
46
  9
$AUNITS
 70
0
  9
$PDMODE
 70
3
  9
$PDSIZE
 40
0.3125
  9
$HANDSEED
  5
452
  9
$TILEMODE
 70
1
  9
$MEASUREMENT
 70
1
  9
$INSUNITS
 70
4
  0
ENDSEC
  0
SECTION
  2
CLASSES
  0
CLASS
  1
ACDBDICTIONARYWDFLT
  2
AcDbDictionaryWithDefault
  3
AutoCAD 2000
 90
0
 91
1
280
0
281
0
  0
CLASS
  1
ACDBPLACEHOLDER
  2
AcDbPlaceHolder
  3
AutoCAD 2000
 90
0
 91
1
280
0
281
0
  0
CLASS
  1
LAYOUT
  2
AcDbLayout
  3
AutoCAD 2000
 90
0
 91
0
280
0
281
0
  0
ENDSEC
  0
SECTION
  2
TABLES
  0
TABLE
  2
VPORT
  5
8
100
AcDbSymbolTable
 70
2
  0
VPORT
  5
1F4
100
AcDbSymbolTableRecord
100
AcDbViewportTableRecord
  2
*ACTIVE
 70
0
 10
0.0
 20
0.0
 11
1.0
 21
1.0
 12
64.0645334899
 22
90.6055545072
 13
0.0
 23
0.0
 14
1.0
 24
1.0
 15
0.0
 25
0.0
 16
0.0
 26
0.0
 36
1.0
 17
0.0
 27
0.0
 37
0.0
 40
181.2111090144
 41
0.7070707071
 42
50.0
 43
0.0
 44
0.0
 50
0.0
 51
0.0
 71
0
 72
100
 73
1
 74
1
 75
0
 76
0
 77
0
 78
0
  0
ENDTAB
  0
TABLE
  2
LTYPE
  5
5
100
AcDbSymbolTable
 70
6
  0
LTYPE
  5
14
100
AcDbSymbolTableRecord
100
AcDbLinetypeTableRecord
  2
BYBLOCK
 70
0
  3

 72
65
 73
0
 40
0.0
  0
LTYPE
  5
15
100
AcDbSymbolTableRecord
100
AcDbLinetypeTableRecord
  2
BYLAYER
 70
0
  3

 72
65
 73
0
 40
0.0
  0
LTYPE
  5
16
100
AcDbSymbolTableRecord
100
AcDbLinetypeTableRecord
  2
CONTINUOUS
 70
64
  3
Solid line
 72
65
 73
0
 40
0.0
  0
LTYPE
  5
1F5
100
AcDbSymbolTableRecord
100
AcDbLinetypeTableRecord
  2
CENTER
 70
64
  3
____ _ ____ _ ____ _ ____ _ ____ _ ____ _ ____
 72
65
 73
4
 40
0.6
 49
0.375
 74
0
 49
-0.075
 74
0
 49
0.075
 74
0
 49
-0.075
 74
0
  0
LTYPE
  5
1F6
100
AcDbSymbolTableRecord
100
AcDbLinetypeTableRecord
  2
HIDDEN
 70
64
  3
- - - - - - - - - - - - - - - - - - - -
 72
65
 73
2
 40
0.2
 49
0.1
 74
0
 49
-0.1
 74
0
  0
LTYPE
  5
1F7
100
AcDbSymbolTableRecord
100
AcDbLinetypeTableRecord
  2
PHANTOM
 70
64
  3
_____ _ _ _____ _ _ _____ _ _ _____
 72
65
 73
6
 40
0.8
 49
0.45
 74
0
 49
-0.05
 74
0
 49
0.1
 74
0
 49
-0.05
 74
0
 49
0.1
 74
0
 49
-0.05
 74
0
  0
LTYPE
  5
1F8
100
AcDbSymbolTableRecord
100
AcDbLinetypeTableRecord
  2
DOT
 70
64
  3
. . . . . . . . . . . . . . . . . . . .
 72
65
 73
2
 40
0.2
 49
0.1
 74
0
 49
-0.1
 74
0
  0
LTYPE
  5
1F9
100
AcDbSymbolTableRecord
100
AcDbLinetypeTableRecord
  2
DASHED
 70
64
  3
- - - - - - - - - - - - - - - - - - - -
 72
65
 73
2
 40
0.2
 49
0.1
 74
0
 49
-0.1
 74
0
  0
ENDTAB
  0
TABLE
  2
LAYER
  5
2
100
AcDbSymbolTable
 70
36
  0
LAYER
  5
10
100
AcDbSymbolTableRecord
100
AcDbLayerTableRecord
  2
0
 70
0
 62
7
  6
CONTINUOUS
370
-3
390
F
  0
LAYER
  5
1FA
100
AcDbSymbolTableRecord
100
AcDbLayerTableRecord
  2
DEFAULT_1
 70
0
 62
7
  6
CENTER
370
-3
390
F
  0
LAYER
  5
1FB
100
AcDbSymbolTableRecord
100
AcDbLayerTableRecord
  2
DEFAULT_2
 70
0
 62
8
  6
HIDDEN
370
-3
390
F
  0
LAYER
  5
1FC
100
AcDbSymbolTableRecord
100
AcDbLayerTableRecord
  2
DEFAULT_3
 70
0
 62
7
  6
PHANTOM
370
-3
390
F
  0
LAYER
  5
1FD
100
AcDbSymbolTableRecord
100
AcDbLayerTableRecord
  2
00_COMPONENTS
 70
0
 62
7
  6
CONTINUOUS
370
-3
390
F
  0
LAYER
  5
1FE
100
AcDbSymbolTableRecord
100
AcDbLayerTableRecord
  2
01_1_DEFAULT_DATUMS
 70
0
 62
7
  6
CONTINUOUS
370
-3
390
F
  0
LAYER
  5
1FF
100
AcDbSymbolTableRecord
100
AcDbLayerTableRecord
  2
01_PLANES
 70
0
 62
7
  6
CONTINUOUS
370
-3
390
F
  0
LAYER
  5
200
100
AcDbSymbolTableRecord
100
AcDbLayerTableRecord
  2
02_COORD_SYS
 70
0
 62
7
  6
CONTINUOUS
370
-3
390
F
  0
LAYER
  5
201
100
AcDbSymbolTableRecord
100
AcDbLayerTableRecord
  2
03_AXES
 70
0
 62
7
  6
CONTINUOUS
370
-3
390
F
  0
LAYER
  5
202
100
AcDbSymbolTableRecord
100
AcDbLayerTableRecord
  2
04_POINTS
 70
0
 62
7
  6
CONTINUOUS
370
-3
390
F
  0
LAYER
  5
203
100
AcDbSymbolTableRecord
100
AcDbLayerTableRecord
  2
05_CURVES
 70
0
 62
7
  6
CONTINUOUS
370
-3
390
F
  0
LAYER
  5
204
100
AcDbSymbolTableRecord
100
AcDbLayerTableRecord
  2
06_SURFS
 70
0
 62
7
  6
CONTINUOUS
370
-3
390
F
  0
LAYER
  5
205
100
AcDbSymbolTableRecord
100
AcDbLayerTableRecord
  2
07_COSMETICS
 70
0
 62
7
  6
CONTINUOUS
370
-3
390
F
  0
LAYER
  5
206
100
AcDbSymbolTableRecord
100
AcDbLayerTableRecord
  2
10_NOTES
 70
0
 62
7
  6
CONTINUOUS
370
-3
390
F
  0
LAYER
  5
207
100
AcDbSymbolTableRecord
100
AcDbLayerTableRecord
  2
11_NOTES_PUB
 70
0
 62
7
  6
CONTINUOUS
370
-3
390
F
  0
LAYER
  5
208
100
AcDbSymbolTableRecord
100
AcDbLayerTableRecord
  2
13_REF_GTOL
 70
0
 62
7
  6
CONTINUOUS
370
-3
390
F
  0
LAYER
  5
209
100
AcDbSymbolTableRecord
100
AcDbLayerTableRecord
  2
16_MISC
 70
0
 62
7
  6
CONTINUOUS
370
-3
390
F
  0
LAYER
  5
20A
100
AcDbSymbolTableRecord
100
AcDbLayerTableRecord
  2
17_NO_PRINT
 70
0
 62
7
  6
CONTINUOUS
370
-3
390
F
  0
LAYER
  5
20B
100
AcDbSymbolTableRecord
100
AcDbLayerTableRecord
  2
18_DATUM_CAMS_JOINTS
 70
0
 62
7
  6
CONTINUOUS
370
-3
390
F
  0
LAYER
  5
20C
100
AcDbSymbolTableRecord
100
AcDbLayerTableRecord
  2
19_DATUM_FUNCTIONAL
 70
0
 62
7
  6
CONTINUOUS
370
-3
390
F
  0
LAYER
  5
20D
100
AcDbSymbolTableRecord
100
AcDbLayerTableRecord
  2
20_DATUM_KINEMATIC_SCHEME
 70
0
 62
7
  6
CONTINUOUS
370
-3
390
F
  0
ENDTAB
  0
TABLE
  2
STYLE
  5
3
100
AcDbSymbolTable
 70
1
  0
STYLE
  5
11
100
AcDbSymbolTableRecord
100
AcDbTextStyleTableRecord
  2
STANDARD
 70
0
 40
0.0
 41
0.8
 50
0.0
 71
0
 42
0.2
  3
txt
  4

  0
STYLE
  5
20E
100
AcDbSymbolTableRecord
100
AcDbTextStyleTableRecord
  2
TEXTSTYLE_1
 70
0
 40
0.0
 41
0.8
 50
0.0
 71
0
 42
0.2
  3
gdt
  4

  0
ENDTAB
  0
TABLE
  2
VIEW
  5
6
100
AcDbSymbolTable
 70
0
  0
ENDTAB
  0
TABLE
  2
UCS
  5
7
100
AcDbSymbolTable
 70
0
  0
ENDTAB
  0
TABLE
  2
APPID
  5
9
100
AcDbSymbolTable
 70
1
  0
APPID
  5
20F
100
AcDbSymbolTableRecord
100
AcDbRegAppTableRecord
  2
ACAD
 70
0
  0
ENDTAB
  0
TABLE
  2
BLOCK_RECORD
  5
1
100
AcDbSymbolTable
 70
0
  0
BLOCK_RECORD
  5
210
100
AcDbSymbolTableRecord
100
AcDbBlockTableRecord
  2
*Model_Space
  0
BLOCK_RECORD
  5
211
100
AcDbSymbolTableRecord
100
AcDbBlockTableRecord
  2
*Paper_Space
  0
BLOCK_RECORD
  5
212
100
AcDbSymbolTableRecord
100
AcDbBlockTableRecord
  2
_FILLED
  0
ENDTAB
  0
TABLE
  2
DIMSTYLE
  5
A
100
AcDbSymbolTable
 70
1
100
AcDbDimStyleTable
 71
0
  0
DIMSTYLE
105
213
100
AcDbSymbolTableRecord
100
AcDbDimStyleTableRecord
  2
STANDARD
 70
0
  3

  4

 40
1.0
 41
1.5253460355
 42
1.0
 43
0.38
 44
1.0
 45
0.0
 46
0.0
 47
0.01
 48
0.01
140
2.1354844497
141
0.09
142
0.0
143
25.4
144
1.0
145
0.0
146
1.0
147
0.625
 71
1
 72
0
 73
0
 74
0
 75
0
 76
0
 77
1
 78
8
 79
2
170
0
171
1
172
0
173
0
174
0
175
0
176
0
177
0
178
0
270
2
179
2
271
2
272
2
273
2
274
2
275
0
280
0
281
0
282
0
283
1
284
8
285
0
286
0
287
3
288
0
340
11
278
46
341
212
342
212
343
212
344
212
  0
ENDTAB
  0
ENDSEC
  0
SECTION
  2
BLOCKS
  0
BLOCK
  5
20
100
AcDbEntity
  8
0
100
AcDbBlockBegin
  2
*Model_Space
 70
0
 10
0.0
 20
0.0
 30
0.0
  3
*Model_Space
  1

  0
ENDBLK
  5
21
100
AcDbEntity
  8
0
100
AcDbBlockEnd
  0
BLOCK
  5
1C
100
AcDbEntity
  8
0
100
AcDbBlockBegin
  2
*Paper_Space
 70
0
 10
0.0
 20
0.0
 30
0.0
  3
*Paper_Space
  1

  0
ENDBLK
  5
1D
100
AcDbEntity
  8
0
100
AcDbBlockEnd
  0
BLOCK
  5
214
100
AcDbEntity
  8
0
100
AcDbBlockBegin
  2
_FILLED
 70
64
 10
0.0
 20
0.0
  3
_FILLED
  1

  0
SOLID
  5
215
100
AcDbEntity
  8
0
  6
BYBLOCK
 62
0
100
AcDbTrace
 10
0.0
 20
0.0
 11
-1.0
 21
0.25
 12
-1.0
 22
-0.25
 13
-1.0
 23
-0.25
  0
ENDBLK
  5
216
100
AcDbEntity
  8
0
  6
BYBLOCK
 62
0
100
AcDbBlockEnd
  0
ENDSEC
  0
SECTION
  2
ENTITIES
  0
LINE
  5
217
100
AcDbEntity
  8
0
100
AcDbLine
 62
7
  6
CONTINUOUS
 10
29.3411979765
 20
130.3917309371
 11
63.2623801363
 21
149.9760176859
  0
LINE
  5
218
100
AcDbEntity
  8
0
100
AcDbLine
 62
7
  6
CONTINUOUS
 10
34.7684264407
 20
130.5047257424
 11
46.7969667066
 21
137.4599778441
  0
LINE
  5
219
100
AcDbEntity
  8
0
100
AcDbLine
 62
7
  6
CONTINUOUS
 10
37.3847324237
 20
128.9942349506
 11
49.4132726897
 21
135.9494870523
  0
LINE
  5
21A
100
AcDbEntity
  8
0
100
AcDbLine
 62
7
  6
CONTINUOUS
 10
32.2613400293
 20
125.7112830015
 11
31.5572279904
 21
125.3047661529
  0
LINE
  5
21B
100
AcDbEntity
  8
0
100
AcDbLine
 62
7
  6
CONTINUOUS
 10
48.0184889082
 20
136.7547476266
 11
35.9679705998
 21
129.8080349302
  0
LINE
  5
21C
100
AcDbEntity
  8
0
100
AcDbLine
 62
7
  6
CONTINUOUS
 10
40.0010384068
 20
127.4837441589
 11
52.0295786727
 21
134.4389962606
  0
LINE
  5
21D
100
AcDbEntity
  8
0
100
AcDbLine
 62
7
  6
CONTINUOUS
 10
42.6173443898
 20
125.9732533672
 11
54.6458846557
 21
132.9285054689
  0
LINE
  5
21E
100
AcDbEntity
  8
0
100
AcDbLine
 62
7
  6
CONTINUOUS
 10
34.8776460123
 20
124.2007922098
 11
34.1735339734
 21
123.7942753612
  0
LINE
  5
21F
100
AcDbEntity
  8
0
100
AcDbLine
 62
7
  6
CONTINUOUS
 10
37.4939519954
 20
122.690301418
 11
36.7898399565
 21
122.2837845695
  0
LINE
  5
220
100
AcDbEntity
  8
0
100
AcDbLine
 62
7
  6
CONTINUOUS
 10
50.6347948912
 20
135.2442568349
 11
38.5842765829
 21
128.2975441385
  0
LINE
  5
221
100
AcDbEntity
  8
0
100
AcDbLine
 62
7
  6
CONTINUOUS
 10
53.2511008743
 20
133.7337660432
 11
41.2005825659
 21
126.7870533468
  0
LINE
  5
222
100
AcDbEntity
  8
0
100
AcDbLine
 62
7
  6
CONTINUOUS
 10
80.111676242
 20
31.6773393065
 11
29.3411979765
 21
60.9890254811
  0
LINE
  5
223
100
AcDbEntity
  8
0
100
AcDbLine
 62
7
  6
CONTINUOUS
 10
29.0488987867
 20
62.2270281623
 11
15.9608774303
 21
69.7832298715
  0
LINE
  5
224
100
AcDbEntity
  8
0
100
AcDbLine
 62
7
  6
CONTINUOUS
 10
66.708564829
 20
40.5396690737
 11
29.1185664373
 21
62.2417737968
  0
LINE
  5
225
100
AcDbEntity
  8
0
100
AcDbLine
 62
7
  6
CONTINUOUS
 10
27.9428610551
 20
79.7519879531
 11
27.9426433083
 21
79.7817414477
  0
LINE
  5
226
100
AcDbEntity
  8
0
100
AcDbLine
 62
7
  6
CONTINUOUS
 10
27.9426464201
 20
79.7518844282
 11
27.9426433083
 21
79.7817414477
  0
LINE
  5
227
100
AcDbEntity
  8
0
100
AcDbLine
 62
7
  6
CONTINUOUS
 10
27.9987809518
 20
83.8671560469
 11
28.0010952539
 21
83.9521265318
  0
LINE
  5
228
100
AcDbEntity
  8
0
100
AcDbLine
 62
7
  6
CONTINUOUS
 10
27.9990565382
 20
83.866993102
 11
28.001883081
 21
83.9522683662
  0
LINE
  5
229
100
AcDbEntity
  8
0
100
AcDbLine
 62
7
  6
CONTINUOUS
 10
29.1185886468
 20
98.5249681444
 11
29.108849168
 21
98.4352248109
  0
LINE
  5
22A
100
AcDbEntity
  8
0
100
AcDbLine
 62
7
  6
CONTINUOUS
 10
29.0425942123
 20
98.5332411788
 11
29.0488987857
 21
98.5911537248
  0
LINE
  5
22B
100
AcDbEntity
  8
0
100
AcDbLine
 62
7
  6
CONTINUOUS
 10
29.0422668944
 20
98.5330790917
 11
29.0488987857
 21
98.5911537248
  0
LINE
  5
22C
100
AcDbEntity
  8
0
100
AcDbLine
 62
7
  6
CONTINUOUS
 10
28.4195412755
 20
113.7170410276
 11
15.9608774303
 21
106.1473554334
  0
LINE
  5
22D
100
AcDbEntity
  8
0
100
AcDbLine
 62
7
  6
CONTINUOUS
 10
45.2336503728
 20
124.4627625755
 11
57.2621906388
 21
131.4180146772
  0
LINE
  5
22E
100
AcDbEntity
  8
0
100
AcDbLine
 62
7
  6
CONTINUOUS
 10
47.8499563559
 20
122.9522717837
 11
59.8784966218
 21
129.9075238854
  0
LINE
  5
22F
100
AcDbEntity
  8
0
100
AcDbLine
 62
7
  6
CONTINUOUS
 10
40.1102579784
 20
121.1798106263
 11
39.4061459395
 21
120.7732937777
  0
LINE
  5
230
100
AcDbEntity
  8
0
100
AcDbLine
 62
7
  6
CONTINUOUS
 10
32.3291649762
 20
116.1930453183
 11
31.0195904847
 21
115.4369666463
  0
LINE
  5
231
100
AcDbEntity
  8
0
100
AcDbLine
 62
7
  6
CONTINUOUS
 10
42.7265639615
 20
119.6693198346
 11
42.0224519226
 21
119.262802986
  0
LINE
  5
232
100
AcDbEntity
  8
0
100
AcDbLine
 62
7
  6
CONTINUOUS
 10
34.9454709592
 20
114.6825545266
 11
33.6358964677
 21
113.9264758546
  0
LINE
  5
233
100
AcDbEntity
  8
0
100
AcDbLine
 62
7
  6
CONTINUOUS
 10
55.8674068573
 20
132.2232752514
 11
43.816888549
 21
125.2765625551
  0
LINE
  5
234
100
AcDbEntity
  8
0
100
AcDbLine
 62
7
  6
CONTINUOUS
 10
58.4837128404
 20
130.7127844597
 11
46.433194532
 21
123.7660717633
  0
LINE
  5
235
100
AcDbEntity
  8
0
100
AcDbLine
 62
7
  6
CONTINUOUS
 10
68.9343456589
 20
41.6768206173
 11
68.4890411478
 21
41.9339114804
  0
LINE
  5
236
100
AcDbEntity
  8
0
100
AcDbLine
 62
7
  6
CONTINUOUS
 10
82.9400948771
 20
37.3111785824
 11
80.7480723929
 21
38.5767774477
  0
LINE
  5
237
100
AcDbEntity
  8
0
100
AcDbLine
 62
7
  6
CONTINUOUS
 10
29.11575135
 20
62.2634237318
 11
29.1185664373
 21
62.2417737968
  0
LINE
  5
238
100
AcDbEntity
  8
0
100
AcDbLine
 62
7
  6
CONTINUOUS
 10
29.1159052829
 20
62.2635374128
 11
29.1185664373
 21
62.2417737968
  0
LINE
  5
239
100
AcDbEntity
  8
0
100
AcDbLine
 62
7
  6
CONTINUOUS
 10
30.9760973588
 20
99.7597689491
 11
30.9766620173
 21
99.6200515047
  0
LINE
  5
23A
100
AcDbEntity
  8
0
100
AcDbLine
 62
7
  6
CONTINUOUS
 10
30.9740492063
 20
99.6215626399
 11
30.974066525
 21
99.6375634484
  0
LINE
  5
23B
100
AcDbEntity
  8
0
100
AcDbLine
 62
7
  6
CONTINUOUS
 10
50.4662623389
 20
121.441780992
 11
62.4948026049
 21
128.3970330937
  0
LINE
  5
23C
100
AcDbEntity
  8
0
100
AcDbLine
 62
7
  6
CONTINUOUS
 10
53.0825689212
 20
119.9312905422
 11
57.8335004184
 21
122.6784174253
  0
LINE
  5
23D
100
AcDbEntity
  8
0
100
AcDbLine
 62
7
  6
CONTINUOUS
 10
45.3428699445
 20
118.1588290429
 11
44.6387579056
 21
117.7523121943
  0
LINE
  5
23E
100
AcDbEntity
  8
0
100
AcDbLine
 62
7
  6
CONTINUOUS
 10
37.5617769423
 20
113.1720637348
 11
36.2522024508
 21
112.4159850628
  0
LINE
  5
23F
100
AcDbEntity
  8
0
100
AcDbLine
 62
7
  6
CONTINUOUS
 10
47.9591759276
 20
116.6483382511
 11
47.2550638886
 21
116.2418214026
  0
LINE
  5
240
100
AcDbEntity
  8
0
100
AcDbLine
 62
7
  6
CONTINUOUS
 10
40.1780829253
 20
111.6615729431
 11
38.8685084338
 21
110.9054942711
  0
LINE
  5
241
100
AcDbEntity
  8
0
100
AcDbLine
 62
7
  6
CONTINUOUS
 10
61.1000188234
 20
129.202293668
 11
49.0495005151
 21
122.2555809716
  0
LINE
  5
242
100
AcDbEntity
  8
0
100
AcDbLine
 62
7
  6
CONTINUOUS
 10
63.7163248064
 20
127.6918028763
 11
51.6658064981
 21
120.7450901799
  0
LINE
  5
243
100
AcDbEntity
  8
0
100
AcDbLine
 62
7
  6
CONTINUOUS
 10
34.7684264407
 20
130.5047257424
 11
34.7684264407
 21
129.8312307521
  0
LINE
  5
244
100
AcDbEntity
  8
0
100
AcDbLine
 62
7
  6
CONTINUOUS
 10
37.3847324237
 20
128.9942349506
 11
37.3847324237
 21
128.3207399603
  0
LINE
  5
245
100
AcDbEntity
  8
0
100
AcDbLine
 62
7
  6
CONTINUOUS
 10
30.948117255
 20
99.6365314581
 11
29.1186127861
 21
98.5249542078
  0
LINE
  5
246
100
AcDbEntity
  8
0
100
AcDbLine
 62
7
  6
CONTINUOUS
 10
29.0488987867
 20
98.5911537242
 11
29.0705580418
 21
98.6043110058
  0
LINE
  5
247
100
AcDbEntity
  8
0
100
AcDbLine
 62
7
  6
CONTINUOUS
 10
30.9021556332
 20
99.7126160817
 11
30.9779942127
 21
99.7586710685
  0
LINE
  5
248
100
AcDbEntity
  8
0
100
AcDbLine
 62
7
  6
CONTINUOUS
 10
58.3056401173
 20
116.9155154157
 11
63.0568198464
 21
119.6627858338
  0
LINE
  5
249
100
AcDbEntity
  8
0
100
AcDbLine
 62
7
  6
CONTINUOUS
 10
50.5754819106
 20
115.1378474594
 11
49.8713698717
 21
114.7313306108
  0
LINE
  5
24A
100
AcDbEntity
  8
0
100
AcDbLine
 62
7
  6
CONTINUOUS
 10
42.7943889084
 20
110.1510821514
 11
41.4848144168
 21
109.3950034794
  0
LINE
  5
24B
100
AcDbEntity
  8
0
100
AcDbLine
 62
7
  6
CONTINUOUS
 10
53.1917878936
 20
113.6273566677
 11
52.4876758547
 21
113.2208398191
  0
LINE
  5
24C
100
AcDbEntity
  8
0
100
AcDbLine
 62
7
  6
CONTINUOUS
 10
45.4106948914
 20
108.6405913597
 11
44.1011203999
 21
107.8845126876
  0
LINE
  5
24D
100
AcDbEntity
  8
0
100
AcDbLine
 62
7
  6
CONTINUOUS
 10
59.0439340999
 20
121.9796271014
 11
54.2821460297
 21
119.2346187823
  0
LINE
  5
24E
100
AcDbEntity
  8
0
100
AcDbLine
 62
7
  6
CONTINUOUS
 10
40.0010384068
 20
127.4837441589
 11
40.0010384068
 21
126.8102491686
  0
LINE
  5
24F
100
AcDbEntity
  8
0
100
AcDbLine
 62
7
  6
CONTINUOUS
 10
42.6173443898
 20
125.9732533672
 11
42.6173443898
 21
125.2997583769
  0
LINE
  5
250
100
AcDbEntity
  8
0
100
AcDbLine
 62
7
  6
CONTINUOUS
 10
63.5477929955
 20
113.889327461
 11
68.2987244927
 21
116.6364543442
  0
LINE
  5
251
100
AcDbEntity
  8
0
100
AcDbLine
 62
7
  6
CONTINUOUS
 10
55.8080938767
 20
112.116865876
 11
55.1039818378
 21
111.7103490274
  0
LINE
  5
252
100
AcDbEntity
  8
0
100
AcDbLine
 62
7
  6
CONTINUOUS
 10
48.0270008744
 20
107.1301005679
 11
46.7174263829
 21
106.3740218959
  0
LINE
  5
253
100
AcDbEntity
  8
0
100
AcDbLine
 62
7
  6
CONTINUOUS
 10
85.2013665354
 20
127.7718956948
 11
91.8481426052
 21
131.6093907412
  0
LINE
  5
254
100
AcDbEntity
  8
0
100
AcDbLine
 62
7
  6
CONTINUOUS
 10
81.9165034087
 20
125.1035085616
 11
81.3830058145
 21
124.7954954205
  0
LINE
  5
255
100
AcDbEntity
  8
0
100
AcDbLine
 62
7
  6
CONTINUOUS
 10
86.3759726151
 20
127.624464881
 11
91.1371473467
 21
130.3733139855
  0
LINE
  5
256
100
AcDbEntity
  8
0
100
AcDbLine
 62
7
  6
CONTINUOUS
 10
86.7295335873
 20
127.4203409765
 11
91.1371473467
 21
129.965062777
  0
LINE
  5
257
100
AcDbEntity
  8
0
100
AcDbLine
 62
7
  6
CONTINUOUS
 10
88.3444498335
 20
128.2434145301
 11
90.6071821126
 21
129.5497958225
  0
LINE
  5
258
100
AcDbEntity
  8
0
100
AcDbLine
 62
7
  6
CONTINUOUS
 10
58.4243998597
 20
110.6063750842
 11
57.7202878208
 21
110.1998582357
  0
LINE
  5
259
100
AcDbEntity
  8
0
100
AcDbLine
 62
7
  6
CONTINUOUS
 10
50.6433068575
 20
105.6196097762
 11
49.333732366
 21
104.8635311042
  0
LINE
  5
25A
100
AcDbEntity
  8
0
100
AcDbLine
 62
7
  6
CONTINUOUS
 10
64.2858121963
 20
118.9532802801
 11
59.5237199831
 21
116.2080966329
  0
LINE
  5
25B
100
AcDbEntity
  8
0
100
AcDbLine
 62
7
  6
CONTINUOUS
 10
45.2336503728
 20
124.4627625755
 11
45.2336503728
 21
123.7892675852
  0
LINE
  5
25C
100
AcDbEntity
  8
0
100
AcDbLine
 62
7
  6
CONTINUOUS
 10
46.7969667066
 20
136.0505817501
 11
46.7969667066
 21
137.4599778441
  0
LINE
  5
25D
100
AcDbEntity
  8
0
100
AcDbLine
 62
7
  6
CONTINUOUS
 10
47.8499563559
 20
122.9522717837
 11
47.8499563559
 21
122.2787767934
  0
LINE
  5
25E
100
AcDbEntity
  8
0
100
AcDbLine
 62
7
  6
CONTINUOUS
 10
49.4132726897
 20
134.5400909584
 11
49.4132726897
 21
135.9494870523
  0
LINE
  5
25F
100
AcDbEntity
  8
0
100
AcDbLine
 62
7
  6
CONTINUOUS
 10
85.2013665354
 20
127.5266203371
 11
82.0215640766
 21
125.0428531288
  0
LINE
  5
260
100
AcDbEntity
  8
0
100
AcDbLine
 62
7
  6
CONTINUOUS
 10
66.1640982372
 20
112.3788362417
 11
78.1926385031
 21
119.3340883434
  0
LINE
  5
261
100
AcDbEntity
  8
0
100
AcDbLine
 62
7
  6
CONTINUOUS
 10
68.7804042202
 20
110.8683454499
 11
80.8089444862
 21
117.8235975516
  0
LINE
  5
262
100
AcDbEntity
  8
0
100
AcDbLine
 62
7
  6
CONTINUOUS
 10
19.9429605158
 20
87.4460839659
 11
19.3737165858
 21
87.1174327915
  0
LINE
  5
263
100
AcDbEntity
  8
0
100
AcDbLine
 62
7
  6
CONTINUOUS
 10
82.6345888504
 20
122.6402311004
 11
82.4931680829
 21
122.5585822696
  0
LINE
  5
264
100
AcDbEntity
  8
0
100
AcDbLine
 62
7
  6
CONTINUOUS
 10
92.6224448293
 20
128.3863096721
 11
90.3597125502
 21
127.0799283797
  0
LINE
  5
265
100
AcDbEntity
  8
0
100
AcDbLine
 62
7
  6
CONTINUOUS
 10
93.6190995996
 20
128.9403906013
 11
88.857924868
 21
126.1915414968
  0
LINE
  5
266
100
AcDbEntity
  8
0
100
AcDbLine
 62
7
  6
CONTINUOUS
 10
89.6907045822
 20
125.7107467816
 11
94.4518793138
 21
128.4595958861
  0
LINE
  5
267
100
AcDbEntity
  8
0
100
AcDbLine
 62
7
  6
CONTINUOUS
 10
61.0407058428
 20
109.0958842925
 11
60.3365938039
 21
108.6893674439
  0
LINE
  5
268
100
AcDbEntity
  8
0
100
AcDbLine
 62
7
  6
CONTINUOUS
 10
90.0442655544
 20
125.506622877
 11
94.4518793138
 21
128.0513446776
  0
LINE
  5
269
100
AcDbEntity
  8
0
100
AcDbLine
 62
7
  6
CONTINUOUS
 10
53.2596128405
 20
104.1091189845
 11
51.950038349
 21
103.3530403125
  0
LINE
  5
26A
100
AcDbEntity
  8
0
100
AcDbLine
 62
7
  6
CONTINUOUS
 10
83.5077482392
 20
121.4430410449
 11
83.153340407
 21
121.238424809
  0
LINE
  5
26B
100
AcDbEntity
  8
0
100
AcDbLine
 62
7
  6
CONTINUOUS
 10
91.9365672373
 20
126.1695514971
 11
94.1992995164
 21
127.4759327895
  0
LINE
  5
26C
100
AcDbEntity
  8
0
100
AcDbLine
 62
7
  6
CONTINUOUS
 10
96.9338315667
 20
127.0266725019
 11
92.1726568351
 21
124.2778233974
  0
LINE
  5
26D
100
AcDbEntity
  8
0
100
AcDbLine
 62
7
  6
CONTINUOUS
 10
63.6570118258
 20
107.5853935008
 11
62.9528997869
 21
107.1788766522
  0
LINE
  5
26E
100
AcDbEntity
  8
0
100
AcDbLine
 62
7
  6
CONTINUOUS
 10
86.2267062541
 20
120.5663680674
 11
86.0852854867
 21
120.4847192366
  0
LINE
  5
26F
100
AcDbEntity
  8
0
100
AcDbLine
 62
7
  6
CONTINUOUS
 10
69.5091611094
 20
115.9376657123
 11
64.747373026
 21
113.1926573856
  0
LINE
  5
270
100
AcDbEntity
  8
0
100
AcDbLine
 62
7
  6
CONTINUOUS
 10
79.4141607047
 20
118.6288581259
 11
67.3636423964
 21
111.6821454295
  0
LINE
  5
271
100
AcDbEntity
  8
0
100
AcDbLine
 62
7
  6
CONTINUOUS
 10
50.4662623389
 20
121.441780992
 11
50.4662623389
 21
120.7682860017
  0
LINE
  5
272
100
AcDbEntity
  8
0
100
AcDbLine
 62
7
  6
CONTINUOUS
 10
52.0295786727
 20
133.0296001667
 11
52.0295786727
 21
134.4389962606
  0
LINE
  5
273
100
AcDbEntity
  8
0
100
AcDbLine
 62
7
  6
CONTINUOUS
 10
53.0825689212
 20
119.9312905422
 11
53.0825689212
 21
119.2578144241
  0
LINE
  5
274
100
AcDbEntity
  8
0
100
AcDbLine
 62
7
  6
CONTINUOUS
 10
54.6458846557
 20
131.519109375
 11
54.6458846557
 21
132.9285054689
  0
LINE
  5
275
100
AcDbEntity
  8
0
100
AcDbLine
 62
7
  6
CONTINUOUS
 10
71.3967102033
 20
109.3578546582
 11
83.4252504692
 21
116.3131067599
  0
LINE
  5
276
100
AcDbEntity
  8
0
100
AcDbLine
 62
7
  6
CONTINUOUS
 10
74.0130161863
 20
107.8473638665
 11
86.0415564523
 21
114.8026159682
  0
LINE
  5
277
100
AcDbEntity
  8
0
100
AcDbLine
 62
7
  6
CONTINUOUS
 10
55.8759188236
 20
102.5986281928
 11
54.566344332
 21
101.8425495208
  0
LINE
  5
278
100
AcDbEntity
  8
0
100
AcDbLine
 62
7
  6
CONTINUOUS
 10
92.4280279264
 20
123.5996751836
 11
99.0748039962
 21
127.43717023
  0
LINE
  5
279
100
AcDbEntity
  8
0
100
AcDbLine
 62
7
  6
CONTINUOUS
 10
99.0748039962
 20
127.249374674
 11
99.2162247637
 21
127.3310235048
  0
LINE
  5
27A
100
AcDbEntity
  8
0
100
AcDbLine
 62
7
  6
CONTINUOUS
 10
89.1431647997
 20
120.9312880504
 11
88.6096672055
 21
120.6232749093
  0
LINE
  5
27B
100
AcDbEntity
  8
0
100
AcDbLine
 62
7
  6
CONTINUOUS
 10
87.099865643
 20
119.369178012
 11
86.7454578108
 21
119.164561776
  0
LINE
  5
27C
100
AcDbEntity
  8
0
100
AcDbLine
 62
7
  6
CONTINUOUS
 10
66.2733178089
 20
106.0749027091
 11
65.5692057699
 21
105.6683858605
  0
LINE
  5
27D
100
AcDbEntity
  8
0
100
AcDbLine
 62
7
  6
CONTINUOUS
 10
58.4922248066
 20
101.088137401
 11
57.1826503151
 21
100.332058729
  0
LINE
  5
27E
100
AcDbEntity
  8
0
100
AcDbLine
 62
7
  6
CONTINUOUS
 10
24.017682508
 20
80.3300814774
 11
23.4736982306
 21
80.0160138831
  0
LINE
  5
27F
100
AcDbEntity
  8
0
100
AcDbLine
 62
7
  6
CONTINUOUS
 10
68.8896237919
 20
104.5644119173
 11
68.185511753
 21
104.1578950688
  0
LINE
  5
280
100
AcDbEntity
  8
0
100
AcDbLine
 62
7
  6
CONTINUOUS
 10
82.0304666878
 20
117.1183673342
 11
69.9799483794
 21
110.1716546378
  0
LINE
  5
281
100
AcDbEntity
  8
0
100
AcDbLine
 62
7
  6
CONTINUOUS
 10
84.6467726708
 20
115.6078765425
 11
72.5962543625
 21
108.6611638461
  0
LINE
  5
282
100
AcDbEntity
  8
0
100
AcDbLine
 62
7
  6
CONTINUOUS
 10
29.1186127861
 20
98.5249542078
 11
66.708564829
 21
76.8228762437
  0
LINE
  5
283
100
AcDbEntity
  8
0
100
AcDbLine
 62
7
  6
CONTINUOUS
 10
15.9608774303
 20
106.1473554334
 11
29.0488987867
 21
98.5911537242
  0
LINE
  5
284
100
AcDbEntity
  8
0
100
AcDbLine
 62
7
  6
CONTINUOUS
 10
57.2621906388
 20
130.0086185832
 11
57.2621906388
 21
131.4180146772
  0
LINE
  5
285
100
AcDbEntity
  8
0
100
AcDbLine
 62
7
  6
CONTINUOUS
 10
57.8335004184
 20
121.281853392
 11
57.8335004184
 21
122.6784174253
  0
LINE
  5
286
100
AcDbEntity
  8
0
100
AcDbLine
 62
7
  6
CONTINUOUS
 10
58.3056401173
 20
116.9155154157
 11
58.3056401173
 21
116.2316535054
  0
LINE
  5
287
100
AcDbEntity
  8
0
100
AcDbLine
 62
7
  6
CONTINUOUS
 10
59.8784966218
 20
128.4981277915
 11
59.8784966218
 21
129.9075238854
  0
LINE
  5
288
100
AcDbEntity
  8
0
100
AcDbLine
 62
7
  6
CONTINUOUS
 10
89.207933371
 20
120.8391601631
 11
92.4280279264
 21
123.3543998259
  0
LINE
  5
289
100
AcDbEntity
  8
0
100
AcDbLine
 62
7
  6
CONTINUOUS
 10
76.6293221694
 20
106.3368730748
 11
88.6578624353
 21
113.2921251765
  0
LINE
  5
28A
100
AcDbEntity
  8
0
100
AcDbLine
 62
7
  6
CONTINUOUS
 10
79.2456281524
 20
104.826382283
 11
91.2741684184
 21
111.7816343847
  0
LINE
  5
28B
100
AcDbEntity
  8
0
100
AcDbLine
 62
7
  6
CONTINUOUS
 10
61.1085307897
 20
99.5776466093
 11
59.7989562982
 21
98.8215679373
  0
LINE
  5
28C
100
AcDbEntity
  8
0
100
AcDbLine
 62
7
  6
CONTINUOUS
 10
90.6604019552
 20
115.1489699492
 11
88.6096672055
 21
113.9649847568
  0
LINE
  5
28D
100
AcDbEntity
  8
0
100
AcDbLine
 62
7
  6
CONTINUOUS
 10
98.3570936015
 20
119.5926304179
 11
99.2162247637
 21
120.0886470649
  0
LINE
  5
28E
100
AcDbEntity
  8
0
100
AcDbLine
 62
7
  6
CONTINUOUS
 10
93.9051498793
 20
116.7202089599
 11
91.5350462344
 21
115.3518371506
  0
LINE
  5
28F
100
AcDbEntity
  8
0
100
AcDbLine
 62
7
  6
CONTINUOUS
 10
97.9929351253
 20
118.6720275758
 11
98.3570936015
 21
118.882273315
  0
LINE
  5
290
100
AcDbEntity
  8
0
100
AcDbLine
 62
7
  6
CONTINUOUS
 10
97.7543868912
 20
118.4186533333
 11
93.8624873711
 21
116.1716775104
  0
LINE
  5
291
100
AcDbEntity
  8
0
100
AcDbLine
 62
7
  6
CONTINUOUS
 10
71.505929775
 20
103.0539211256
 11
70.801817736
 21
102.647404277
  0
LINE
  5
292
100
AcDbEntity
  8
0
100
AcDbLine
 62
7
  6
CONTINUOUS
 10
63.7248367727
 20
98.0671558176
 11
62.4152622812
 21
97.3110771456
  0
LINE
  5
293
100
AcDbEntity
  8
0
100
AcDbLine
 62
7
  6
CONTINUOUS
 10
100.079830666
 20
118.7000761107
 11
93.6451857474
 21
114.9850543105
  0
LINE
  5
294
100
AcDbEntity
  8
0
100
AcDbLine
 62
7
  6
CONTINUOUS
 10
74.122235758
 20
101.5434303339
 11
73.4181237191
 21
101.1369134853
  0
LINE
  5
295
100
AcDbEntity
  8
0
100
AcDbLine
 62
7
  6
CONTINUOUS
 10
87.2630786538
 20
114.0973857507
 11
75.2125603455
 21
107.1506730544
  0
LINE
  5
296
100
AcDbEntity
  8
0
100
AcDbLine
 62
7
  6
CONTINUOUS
 10
89.8793846369
 20
112.586894959
 11
77.8288663285
 21
105.6401822626
  0
LINE
  5
297
100
AcDbEntity
  8
0
100
AcDbLine
 62
7
  6
CONTINUOUS
 10
68.5380688695
 20
77.9344537412
 11
30.948117255
 21
99.6365314581
  0
LINE
  5
298
100
AcDbEntity
  8
0
100
AcDbLine
 62
7
  6
CONTINUOUS
 10
31.259539503
 20
99.9252382514
 11
68.9343456589
 21
78.1741708506
  0
LINE
  5
299
100
AcDbEntity
  8
0
100
AcDbLine
 62
7
  6
CONTINUOUS
 10
62.4948026049
 20
126.9876369998
 11
62.4948026049
 21
128.3970330937
  0
LINE
  5
29A
100
AcDbEntity
  8
0
100
AcDbLine
 62
7
  6
CONTINUOUS
 10
63.0568198464
 20
118.2448081317
 11
63.0568198464
 21
119.6627858338
  0
LINE
  5
29B
100
AcDbEntity
  8
0
100
AcDbLine
 62
7
  6
CONTINUOUS
 10
63.5477929955
 20
113.889327461
 11
63.5477929955
 21
113.2158530115
  0
LINE
  5
29C
100
AcDbEntity
  8
0
100
AcDbLine
 62
7
  6
CONTINUOUS
 10
65.2771583617
 20
121.0400236304
 11
65.2771583617
 21
124.9844781512
  0
LINE
  5
29D
100
AcDbEntity
  8
0
100
AcDbLine
 62
7
  6
CONTINUOUS
 10
66.3411427558
 20
96.5566650259
 11
65.0315682642
 21
95.8005863538
  0
LINE
  5
29E
100
AcDbEntity
  8
0
100
AcDbLine
 62
7
  6
CONTINUOUS
 10
76.738541741
 20
100.0329395422
 11
76.0344297021
 21
99.6264226936
  0
LINE
  5
29F
100
AcDbEntity
  8
0
100
AcDbLine
 62
7
  6
CONTINUOUS
 10
68.9574487388
 20
95.0461742341
 11
67.6478742473
 21
94.2900955621
  0
LINE
  5
2A0
100
AcDbEntity
  8
0
100
AcDbLine
 62
7
  6
CONTINUOUS
 10
80.111676242
 20
101.0800447625
 11
114.0328584019
 21
120.6643315113
  0
LINE
  5
2A1
100
AcDbEntity
  8
0
100
AcDbLine
 62
7
  6
CONTINUOUS
 10
92.4956906199
 20
111.0764041673
 11
80.4451723116
 21
104.1296914709
  0
LINE
  5
2A2
100
AcDbEntity
  8
0
100
AcDbLine
 62
7
  6
CONTINUOUS
 10
113.6283845837
 20
57.9079853736
 11
115.2547369516
 21
56.9690316383
  0
LINE
  5
2A3
100
AcDbEntity
  8
0
100
AcDbLine
 62
7
  6
CONTINUOUS
 10
65.7544199753
 20
124.9852768316
 11
65.7544199753
 21
125.5568285236
  0
LINE
  5
2A4
100
AcDbEntity
  8
0
100
AcDbLine
 62
7
  6
CONTINUOUS
 10
66.1640982372
 20
112.3788362417
 11
66.1640982372
 21
111.7053412514
  0
LINE
  5
2A5
100
AcDbEntity
  8
0
100
AcDbLine
 62
7
  6
CONTINUOUS
 10
67.7644199753
 20
124.2822955616
 11
67.7644199753
 21
125.8017792488
  0
LINE
  5
2A6
100
AcDbEntity
  8
0
100
AcDbLine
 62
7
  6
CONTINUOUS
 10
68.2987244927
 20
115.2398903108
 11
68.2987244927
 21
116.6364543442
  0
LINE
  5
2A7
100
AcDbEntity
  8
0
100
AcDbLine
 62
7
  6
CONTINUOUS
 10
68.7804042202
 20
110.8683454499
 11
68.7804042202
 21
110.1948504596
  0
LINE
  5
2A8
100
AcDbEntity
  8
0
100
AcDbLine
 62
7
  6
CONTINUOUS
 10
69.0444199753
 20
124.2826693265
 11
69.0444199753
 21
125.8017792488
  0
LINE
  5
2A9
100
AcDbEntity
  8
0
100
AcDbLine
 62
7
  6
CONTINUOUS
 10
71.5737547218
 20
93.5356834424
 11
70.2641802303
 21
92.7796047704
  0
LINE
  5
2AA
100
AcDbEntity
  8
0
100
AcDbLine
 62
7
  6
CONTINUOUS
 10
80.7480723929
 20
97.364951481
 11
101.9611875094
 21
109.6122760971
  0
LINE
  5
2AB
100
AcDbEntity
  8
0
100
AcDbLine
 62
7
  6
CONTINUOUS
 10
80.8187833655
 20
97.3241274056
 11
102.0318984819
 21
109.5714520217
  0
LINE
  5
2AC
100
AcDbEntity
  8
0
100
AcDbLine
 62
7
  6
CONTINUOUS
 10
74.1900607049
 20
92.0251926507
 11
72.8804862134
 21
91.2691139787
  0
LINE
  5
2AD
100
AcDbEntity
  8
0
100
AcDbLine
 62
7
  6
CONTINUOUS
 10
79.190019541
 20
84.4053548531
 11
28.4195412755
 21
113.7170410276
  0
LINE
  5
2AE
100
AcDbEntity
  8
0
100
AcDbLine
 62
7
  6
CONTINUOUS
 10
71.0544199753
 20
124.9852768316
 11
71.0544199753
 21
125.5568285236
  0
LINE
  5
2AF
100
AcDbEntity
  8
0
100
AcDbLine
 62
7
  6
CONTINUOUS
 10
71.3967102033
 20
109.3578546582
 11
71.3967102033
 21
108.6843596679
  0
LINE
  5
2B0
100
AcDbEntity
  8
0
100
AcDbLine
 62
7
  6
CONTINUOUS
 10
71.5344483617
 20
121.0286942708
 11
71.5344483617
 21
124.9844781512
  0
LINE
  5
2B1
100
AcDbEntity
  8
0
100
AcDbLine
 62
7
  6
CONTINUOUS
 10
74.0130161863
 20
107.8473638665
 11
74.0130161863
 21
107.1738688762
  0
LINE
  5
2B2
100
AcDbEntity
  8
0
100
AcDbLine
 62
7
  6
CONTINUOUS
 10
114.9861709813
 20
114.9717594587
 11
104.8603105445
 21
108.5128497847
  0
LINE
  5
2B3
100
AcDbEntity
  8
0
100
AcDbLine
 62
7
  6
CONTINUOUS
 10
76.8063666879
 20
90.514701859
 11
75.4967921964
 21
89.7586231869
  0
LINE
  5
2B4
100
AcDbEntity
  8
0
100
AcDbLine
 62
7
  6
CONTINUOUS
 10
29.108706578
 20
62.2597352802
 11
29.0488987867
 21
62.2270281623
  0
LINE
  5
2B5
100
AcDbEntity
  8
0
100
AcDbLine
 62
7
  6
CONTINUOUS
 10
113.6283845837
 20
108.5311352357
 11
104.8603105445
 21
103.9995240996
  0
LINE
  5
2B6
100
AcDbEntity
  8
0
100
AcDbLine
 62
7
  6
CONTINUOUS
 10
104.8603105445
 20
102.2200212917
 11
115.2547369516
 21
107.5921815003
  0
LINE
  5
2B7
100
AcDbEntity
  8
0
100
AcDbLine
 62
7
  6
CONTINUOUS
 10
114.1942413056
 20
72.0369623146
 11
111.3656365951
 21
73.6700210609
  0
LINE
  5
2B8
100
AcDbEntity
  8
0
100
AcDbLine
 62
7
  6
CONTINUOUS
 10
114.1942413056
 20
72.0369623146
 11
115.2547369516
 21
71.4030949585
  0
LINE
  5
2B9
100
AcDbEntity
  8
0
100
AcDbLine
 62
7
  6
CONTINUOUS
 10
76.6293221694
 20
106.3368730748
 11
76.6293221694
 21
105.6633780845
  0
LINE
  5
2BA
100
AcDbEntity
  8
0
100
AcDbLine
 62
7
  6
CONTINUOUS
 10
78.1926385031
 20
117.9246922494
 11
78.1926385031
 21
119.3340883434
  0
LINE
  5
2BB
100
AcDbEntity
  8
0
100
AcDbLine
 62
7
  6
CONTINUOUS
 10
79.2456281524
 20
104.826382283
 11
79.2456281524
 21
104.1528872927
  0
LINE
  5
2BC
100
AcDbEntity
  8
0
100
AcDbLine
 62
7
  6
CONTINUOUS
 10
80.7480723929
 20
38.5767774477
 11
80.7480723929
 21
97.364951481
  0
LINE
  5
2BD
100
AcDbEntity
  8
0
100
AcDbLine
 62
7
  6
CONTINUOUS
 10
80.8089444862
 20
116.4142014577
 11
80.8089444862
 21
117.8235975516
  0
LINE
  5
2BE
100
AcDbEntity
  8
0
100
AcDbLine
 62
7
  6
CONTINUOUS
 10
80.8187833655
 20
38.5359533722
 11
80.8187833655
 21
97.3241274056
  0
LINE
  5
2BF
100
AcDbEntity
  8
0
100
AcDbLine
 62
7
  6
CONTINUOUS
 10
66.708564829
 20
76.8228762437
 11
68.5380688695
 21
77.9344537412
  0
LINE
  5
2C0
100
AcDbEntity
  8
0
100
AcDbLine
 62
7
  6
CONTINUOUS
 10
68.9343456589
 20
78.1741708506
 11
79.190019541
 21
84.4053548531
  0
LINE
  5
2C1
100
AcDbEntity
  8
0
100
AcDbLine
 62
7
  6
CONTINUOUS
 10
80.8187833655
 20
97.3241274056
 11
80.7480723929
 21
97.364951481
  0
LINE
  5
2C2
100
AcDbEntity
  8
0
100
AcDbLine
 62
7
  6
CONTINUOUS
 10
81.3830058145
 20
118.137205268
 11
81.3830058145
 21
124.7954954205
  0
LINE
  5
2C3
100
AcDbEntity
  8
0
100
AcDbLine
 62
7
  6
CONTINUOUS
 10
82.4931680829
 20
122.5585822696
 11
82.4931680829
 21
123.4567349284
  0
LINE
  5
2C4
100
AcDbEntity
  8
0
100
AcDbLine
 62
7
  6
CONTINUOUS
 10
82.6345888504
 20
122.6402311004
 11
82.6345888504
 21
123.3750874574
  0
LINE
  5
2C5
100
AcDbEntity
  8
0
100
AcDbLine
 62
7
  6
CONTINUOUS
 10
83.4252504692
 20
114.903710666
 11
83.4252504692
 21
116.3131067599
  0
LINE
  5
2C6
100
AcDbEntity
  8
0
100
AcDbLine
 62
7
  6
CONTINUOUS
 10
83.9073875332
 20
122.6402534194
 11
83.9073875332
 21
121.7421007606
  0
LINE
  5
2C7
100
AcDbEntity
  8
0
100
AcDbLine
 62
7
  6
CONTINUOUS
 10
85.2013665354
 20
127.5266203371
 11
85.2013665354
 21
127.7718956948
  0
LINE
  5
2C8
100
AcDbEntity
  8
0
100
AcDbLine
 62
7
  6
CONTINUOUS
 10
86.0415564523
 20
113.3932198743
 11
86.0415564523
 21
114.8026159682
  0
LINE
  5
2C9
100
AcDbEntity
  8
0
100
AcDbLine
 62
7
  6
CONTINUOUS
 10
86.0852854867
 20
120.4847192366
 11
86.0852854867
 21
121.3828718955
  0
LINE
  5
2CA
100
AcDbEntity
  8
0
100
AcDbLine
 62
7
  6
CONTINUOUS
 10
86.2267062541
 20
120.5663680674
 11
86.2267062541
 21
121.3012244244
  0
LINE
  5
2CB
100
AcDbEntity
  8
0
100
AcDbLine
 62
7
  6
CONTINUOUS
 10
115.2547369516
 20
101.9337567539
 11
111.3656365951
 21
99.610044876
  0
LINE
  5
2CC
100
AcDbEntity
  8
0
100
AcDbLine
 62
7
  6
CONTINUOUS
 10
91.5350462344
 20
115.3518371506
 11
90.6604019552
 21
115.1489699492
  0
LINE
  5
2CD
100
AcDbEntity
  8
0
100
AcDbLine
 62
7
  6
CONTINUOUS
 10
29.3411979765
 20
130.3917309371
 11
80.111676242
 21
101.0800447625
  0
LINE
  5
2CE
100
AcDbEntity
  8
0
100
AcDbLine
 62
7
  6
CONTINUOUS
 10
87.499504937
 20
120.5663903864
 11
87.499504937
 21
119.6682377276
  0
LINE
  5
2CF
100
AcDbEntity
  8
0
100
AcDbLine
 62
7
  6
CONTINUOUS
 10
88.6096672055
 20
120.6232749093
 11
88.6096672055
 21
113.9649847568
  0
LINE
  5
2D0
100
AcDbEntity
  8
0
100
AcDbLine
 62
7
  6
CONTINUOUS
 10
88.6578624353
 20
111.8827290825
 11
88.6578624353
 21
113.2921251765
  0
LINE
  5
2D1
100
AcDbEntity
  8
0
100
AcDbLine
 62
7
  6
CONTINUOUS
 10
90.6071821126
 20
127.2228041453
 11
90.6071821126
 21
129.5497958225
  0
LINE
  5
2D2
100
AcDbEntity
  8
0
100
AcDbLine
 62
7
  6
CONTINUOUS
 10
91.1371473467
 20
129.965062777
 11
91.1371473467
 21
130.3733139855
  0
LINE
  5
2D3
100
AcDbEntity
  8
0
100
AcDbLine
 62
7
  6
CONTINUOUS
 10
91.2741684184
 20
110.3722382908
 11
91.2741684184
 21
111.7816343847
  0
LINE
  5
2D4
100
AcDbEntity
  8
0
100
AcDbLine
 62
7
  6
CONTINUOUS
 10
92.4280279264
 20
123.3543998259
 11
92.4280279264
 21
123.5996751836
  0
LINE
  5
2D5
100
AcDbEntity
  8
0
100
AcDbLine
 62
7
  6
CONTINUOUS
 10
93.5876704768
 20
116.3303395289
 11
93.5876704768
 21
116.5369132355
  0
LINE
  5
2D6
100
AcDbEntity
  8
0
100
AcDbLine
 62
7
  6
CONTINUOUS
 10
94.1992995164
 20
125.4478991105
 11
94.1992995164
 21
127.4759327895
  0
LINE
  5
2D7
100
AcDbEntity
  8
0
100
AcDbLine
 62
7
  6
CONTINUOUS
 10
94.4518793138
 20
128.0513446776
 11
94.4518793138
 21
128.4595958861
  0
LINE
  5
2D8
100
AcDbEntity
  8
0
100
AcDbLine
 62
7
  6
CONTINUOUS
 10
94.5175197654
 20
116.6655075595
 11
94.5175197654
 21
116.5498583821
  0
LINE
  5
2D9
100
AcDbEntity
  8
0
100
AcDbLine
 62
7
  6
CONTINUOUS
 10
94.5175197654
 20
116.6655075595
 11
93.9051498793
 21
116.7202089599
  0
LINE
  5
2DA
100
AcDbEntity
  8
0
100
AcDbLine
 62
7
  6
CONTINUOUS
 10
97.9929351253
 20
118.6720275758
 11
97.9929351253
 21
118.590377116
  0
LINE
  5
2DB
100
AcDbEntity
  8
0
100
AcDbLine
 62
7
  6
CONTINUOUS
 10
98.3570936015
 20
119.5926304179
 11
98.3570936015
 21
118.882273315
  0
LINE
  5
2DC
100
AcDbEntity
  8
0
100
AcDbLine
 62
7
  6
CONTINUOUS
 10
99.0748039962
 20
127.249374674
 11
99.0748039962
 21
127.43717023
  0
LINE
  5
2DD
100
AcDbEntity
  8
0
100
AcDbLine
 62
7
  6
CONTINUOUS
 10
99.2162247637
 20
127.3310235048
 11
99.2162247637
 21
120.0886470649
  0
LINE
  5
2DE
100
AcDbEntity
  8
0
100
AcDbLine
 62
7
  6
CONTINUOUS
 10
88.6096672055
 20
113.9649847568
 11
81.3830058145
 21
118.137205268
  0
LINE
  5
2DF
100
AcDbEntity
  8
0
100
AcDbLine
 62
7
  6
CONTINUOUS
 10
102.0318984819
 20
109.5714520217
 11
101.9611875094
 21
109.6122760971
  0
LINE
  5
2E0
100
AcDbEntity
  8
0
100
AcDbLine
 62
7
  6
CONTINUOUS
 10
93.6451857474
 20
114.9850543105
 11
92.2724594073
 21
115.7775803031
  0
LINE
  5
2E1
100
AcDbEntity
  8
0
100
AcDbLine
 62
7
  6
CONTINUOUS
 10
84.1732789727
 20
120.649576325
 11
83.153340407
 21
121.238424809
  0
LINE
  5
2E2
100
AcDbEntity
  8
0
100
AcDbLine
 62
7
  6
CONTINUOUS
 10
86.7454578108
 20
119.164561776
 11
87.7653963765
 21
118.5757132921
  0
LINE
  5
2E3
100
AcDbEntity
  8
0
100
AcDbLine
 62
7
  6
CONTINUOUS
 10
87.499504937
 20
119.6682377276
 11
86.0852854867
 21
120.4847192366
  0
LINE
  5
2E4
100
AcDbEntity
  8
0
100
AcDbLine
 62
7
  6
CONTINUOUS
 10
83.9073875332
 20
121.7421007606
 11
82.4931680829
 21
122.5585822696
  0
LINE
  5
2E5
100
AcDbEntity
  8
0
100
AcDbLine
 62
7
  6
CONTINUOUS
 10
87.499504937
 20
119.8315340294
 11
86.2267062541
 21
120.5663680674
  0
LINE
  5
2E6
100
AcDbEntity
  8
0
100
AcDbLine
 62
7
  6
CONTINUOUS
 10
83.9073875332
 20
121.9053970624
 11
82.6345888504
 21
122.6402311004
  0
LINE
  5
2E7
100
AcDbEntity
  8
0
100
AcDbLine
 62
7
  6
CONTINUOUS
 10
93.8624873711
 20
116.1716775104
 11
93.4087698416
 21
116.4336255222
  0
LINE
  5
2E8
100
AcDbEntity
  8
0
100
AcDbLine
 62
7
  6
CONTINUOUS
 10
102.0318984819
 20
109.5714520217
 11
102.0318984819
 21
48.333770737
  0
LINE
  5
2E9
100
AcDbEntity
  8
0
100
AcDbLine
 62
7
  6
CONTINUOUS
 10
104.8603105445
 20
51.5968714297
 11
104.8603105445
 21
57.8896999227
  0
LINE
  5
2EA
100
AcDbEntity
  8
0
100
AcDbLine
 62
7
  6
CONTINUOUS
 10
104.8603105445
 20
102.2200212917
 11
104.8603105445
 21
108.5128497847
  0
LINE
  5
2EB
100
AcDbEntity
  8
0
100
AcDbLine
 62
7
  6
CONTINUOUS
 10
111.3656365951
 20
70.4609085844
 11
114.1942413056
 21
72.0369623146
  0
LINE
  5
2EC
100
AcDbEntity
  8
0
100
AcDbLine
 62
7
  6
CONTINUOUS
 10
82.4931680829
 20
123.4567349284
 11
83.9073875332
 21
122.6402534194
  0
LINE
  5
2ED
100
AcDbEntity
  8
0
100
AcDbLine
 62
7
  6
CONTINUOUS
 10
86.0852854867
 20
121.3828718955
 11
87.499504937
 21
120.5663903864
  0
LINE
  5
2EE
100
AcDbEntity
  8
0
100
AcDbLine
 62
7
  6
CONTINUOUS
 10
88.6096672055
 20
120.6232749093
 11
81.3830058145
 21
124.7954954205
  0
LINE
  5
2EF
100
AcDbEntity
  8
0
100
AcDbLine
 62
7
  6
CONTINUOUS
 10
89.1431647997
 20
120.9312880504
 11
81.9165034087
 21
125.1035085616
  0
LINE
  5
2F0
100
AcDbEntity
  8
0
100
AcDbLine
 62
7
  6
CONTINUOUS
 10
113.6283845837
 20
108.5311352357
 11
115.2547369516
 21
107.5921815003
  0
LINE
  5
2F1
100
AcDbEntity
  8
0
100
AcDbLine
 62
7
  6
CONTINUOUS
 10
97.724942717
 20
118.4356525506
 11
97.7543868912
 21
118.4186533333
  0
LINE
  5
2F2
100
AcDbEntity
  8
0
100
AcDbLine
 62
7
  6
CONTINUOUS
 10
99.7265071475
 20
118.4958158975
 11
98.3570936015
 21
119.2864292909
  0
LINE
  5
2F3
100
AcDbEntity
  8
0
100
AcDbLine
 62
7
  6
CONTINUOUS
 10
98.4454692065
 20
119.6436537927
 11
100.079830666
 21
118.7000761107
  0
LINE
  5
2F4
100
AcDbEntity
  8
0
100
AcDbLine
 62
7
  6
CONTINUOUS
 10
92.4280279264
 20
123.3543998259
 11
85.2013665354
 21
127.5266203371
  0
LINE
  5
2F5
100
AcDbEntity
  8
0
100
AcDbLine
 62
7
  6
CONTINUOUS
 10
85.2013665354
 20
127.7718956948
 11
92.4280279264
 21
123.5996751836
  0
LINE
  5
2F6
100
AcDbEntity
  8
0
100
AcDbLine
 62
7
  6
CONTINUOUS
 10
89.1431647997
 20
120.9312880504
 11
89.207933371
 21
120.8391601631
  0
LINE
  5
2F7
100
AcDbEntity
  8
0
100
AcDbLine
 62
7
  6
CONTINUOUS
 10
111.3656365951
 20
99.610044876
 11
111.3656365951
 21
70.4609085844
  0
LINE
  5
2F8
100
AcDbEntity
  8
0
100
AcDbLine
 62
7
  6
CONTINUOUS
 10
68.6871847674
 20
41.8195157963
 11
68.5156468586
 21
41.7204789326
  0
LINE
  5
2F9
100
AcDbEntity
  8
0
100
AcDbLine
 62
7
  6
CONTINUOUS
 10
71.8168031692
 20
42.3015595673
 11
70.6533837652
 21
41.6298630707
  0
LINE
  5
2FA
100
AcDbEntity
  8
0
100
AcDbLine
 62
7
  6
CONTINUOUS
 10
71.9446608235
 20
40.6792024985
 11
70.8016056419
 21
40.0192632402
  0
LINE
  5
2FB
100
AcDbEntity
  8
0
100
AcDbLine
 62
7
  6
CONTINUOUS
 10
74.364117871
 20
41.809619081
 11
73.1888137636
 21
41.1310609887
  0
LINE
  5
2FC
100
AcDbEntity
  8
0
100
AcDbLine
 62
7
  6
CONTINUOUS
 10
68.5380688695
 20
41.5406082667
 11
66.708564829
 21
40.5396690737
  0
LINE
  5
2FD
100
AcDbEntity
  8
0
100
AcDbLine
 62
7
  6
CONTINUOUS
 10
79.190019541
 20
47.2877980798
 11
68.9343456589
 21
41.6768206173
  0
LINE
  5
2FE
100
AcDbEntity
  8
0
100
AcDbLine
 62
7
  6
CONTINUOUS
 10
92.1726568351
 20
124.2778233974
 11
89.6907045822
 21
125.7107467816
  0
LINE
  5
2FF
100
AcDbEntity
  8
0
100
AcDbLine
 62
7
  6
CONTINUOUS
 10
88.857924868
 20
126.1915414968
 11
86.3759726151
 21
127.624464881
  0
LINE
  5
300
100
AcDbEntity
  8
0
100
AcDbLine
 62
7
  6
CONTINUOUS
 10
93.6929210315
 20
125.1555431011
 11
91.9365672373
 21
126.1695514971
  0
LINE
  5
301
100
AcDbEntity
  8
0
100
AcDbLine
 62
7
  6
CONTINUOUS
 10
90.3597125502
 20
127.0799283797
 11
88.3444498335
 21
128.2434145301
  0
LINE
  5
302
100
AcDbEntity
  8
0
100
AcDbLine
 62
7
  6
CONTINUOUS
 10
90.6071821126
 20
129.5497958225
 11
92.6224448293
 21
128.3863096721
  0
LINE
  5
303
100
AcDbEntity
  8
0
100
AcDbLine
 62
7
  6
CONTINUOUS
 10
94.1992995164
 20
127.4759327895
 11
95.9556533106
 21
126.4619243935
  0
LINE
  5
304
100
AcDbEntity
  8
0
100
AcDbLine
 62
7
  6
CONTINUOUS
 10
91.1371473467
 20
129.965062777
 11
93.2655386274
 21
128.7362632973
  0
LINE
  5
305
100
AcDbEntity
  8
0
100
AcDbLine
 62
7
  6
CONTINUOUS
 10
94.4518793138
 20
128.0513446776
 11
96.5802705945
 21
126.8225451979
  0
LINE
  5
306
100
AcDbEntity
  8
0
100
AcDbLine
 62
7
  6
CONTINUOUS
 10
113.6283845837
 20
57.9079853736
 11
113.6283845837
 21
63.4825281655
  0
LINE
  5
307
100
AcDbEntity
  8
0
100
AcDbLine
 62
7
  6
CONTINUOUS
 10
113.6283845837
 20
108.5311352357
 11
113.6283845837
 21
114.1056780275
  0
LINE
  5
308
100
AcDbEntity
  8
0
100
AcDbLine
 62
7
  6
CONTINUOUS
 10
115.2547369516
 20
107.5921815003
 11
115.2547369516
 21
101.9337567539
  0
LINE
  5
309
100
AcDbEntity
  8
0
100
AcDbLine
 62
7
  6
CONTINUOUS
 10
115.2547369516
 20
71.4030949585
 11
115.2547369516
 21
64.5199178379
  0
LINE
  5
30A
100
AcDbEntity
  8
0
100
AcDbLine
 62
7
  6
CONTINUOUS
 10
115.2547369516
 20
56.9690316383
 11
115.2547369516
 21
51.967073754
  0
LINE
  5
30B
100
AcDbEntity
  8
0
100
AcDbLine
 62
7
  6
CONTINUOUS
 10
115.2547369516
 20
64.5199178379
 11
104.8603105445
 21
57.8896999227
  0
LINE
  5
30C
100
AcDbEntity
  8
0
100
AcDbLine
 62
7
  6
CONTINUOUS
 10
74.4331091522
 20
40.7910687756
 11
73.2696897482
 21
40.119372279
  0
LINE
  5
30D
100
AcDbEntity
  8
0
100
AcDbLine
 62
7
  6
CONTINUOUS
 10
74.5609668065
 20
39.1687117067
 11
73.4179116249
 21
38.5087724484
  0
LINE
  5
30E
100
AcDbEntity
  8
0
100
AcDbLine
 62
7
  6
CONTINUOUS
 10
76.980423854
 20
40.2991282893
 11
75.8051197467
 21
39.620570197
  0
LINE
  5
30F
100
AcDbEntity
  8
0
100
AcDbLine
 62
7
  6
CONTINUOUS
 10
77.0494151353
 20
39.2805779839
 11
75.8859957313
 21
38.6088814873
  0
LINE
  5
310
100
AcDbEntity
  8
0
100
AcDbLine
 62
7
  6
CONTINUOUS
 10
77.1772727896
 20
37.658220915
 11
76.034217608
 21
36.9982816567
  0
LINE
  5
311
100
AcDbEntity
  8
0
100
AcDbLine
 62
7
  6
CONTINUOUS
 10
113.6283845837
 20
57.9079853736
 11
104.8603105445
 21
53.3763742376
  0
LINE
  5
312
100
AcDbEntity
  8
0
100
AcDbLine
 62
7
  6
CONTINUOUS
 10
91.1371473467
 20
130.3733139855
 11
93.6190995996
 21
128.9403906013
  0
LINE
  5
313
100
AcDbEntity
  8
0
100
AcDbLine
 62
7
  6
CONTINUOUS
 10
94.4518793138
 20
128.4595958861
 11
96.9338315667
 21
127.0266725019
  0
LINE
  5
314
100
AcDbEntity
  8
0
100
AcDbLine
 62
7
  6
CONTINUOUS
 10
99.2162247637
 20
127.3310235048
 11
99.0748039962
 21
127.4126709758
  0
LINE
  5
315
100
AcDbEntity
  8
0
100
AcDbLine
 62
7
  6
CONTINUOUS
 10
91.8481426052
 20
131.6093907412
 11
99.0748039962
 21
127.43717023
  0
LINE
  5
316
100
AcDbEntity
  8
0
100
AcDbLine
 62
7
  6
CONTINUOUS
 10
63.2623801363
 20
149.9760176859
 11
114.0328584019
 21
120.6643315113
  0
LINE
  5
317
100
AcDbEntity
  8
0
100
AcDbLine
 62
7
  6
CONTINUOUS
 10
102.0318984819
 20
48.333770737
 11
82.9400948771
 21
37.3111785824
  0
LINE
  5
318
100
AcDbEntity
  8
0
100
AcDbLine
 62
7
  6
CONTINUOUS
 10
104.8603105445
 20
51.5968714297
 11
115.2547369516
 21
56.9690316383
  0
LINE
  5
319
100
AcDbEntity
  8
0
100
AcDbLine
 62
7
  6
CONTINUOUS
 10
114.0328584019
 20
120.6643315113
 11
114.9861709813
 21
114.9717594587
  0
LINE
  5
31A
100
AcDbEntity
  8
0
100
AcDbLine
 62
7
  6
CONTINUOUS
 10
80.111676242
 20
31.6773393065
 11
115.2547369516
 21
51.967073754
  0
ARC
  5
31B
100
AcDbEntity
  8
0
100
AcDbCircle
 62
7
  6
CONTINUOUS
 10
22.5529010788
 20
85.2957153722
 40
4.1529493064
100
AcDbArc
 50
180.9463663183
 51
184.0113352807
  0
ARC
  5
31C
100
AcDbEntity
  8
0
100
AcDbCircle
 62
7
  6
CONTINUOUS
 10
22.324124753
 20
85.2912320168
 40
3.9241302011
100
AcDbArc
 50
180.0024000993
 51
180.9360848192
  0
ARC
  5
31D
100
AcDbEntity
  8
0
100
AcDbCircle
 62
7
  6
CONTINUOUS
 10
20.419505701
 20
81.8821402997
 40
3.884855061
100
AcDbArc
 50
359.1384889802
 51
0.0017261113
  0
ARC
  5
31E
100
AcDbEntity
  8
0
100
AcDbCircle
 62
7
  6
CONTINUOUS
 10
20.6615775036
 20
81.8763601143
 40
3.6427243423
100
AcDbArc
 50
356.0176611569
 51
359.17214597
  0
ARC
  5
31F
100
AcDbEntity
  8
0
100
AcDbCircle
 62
7
  6
CONTINUOUS
 10
22.859439278
 20
81.0859701282
 40
1.3837841953
100
AcDbArc
 50
289.6880473296
 51
299.9410787732
  0
ARC
  5
320
100
AcDbEntity
  8
0
100
AcDbCircle
 62
7
  6
CONTINUOUS
 10
22.8679123272
 20
81.0690440065
 40
1.3648885201
100
AcDbArc
 50
299.9874964894
 51
305.811177163
  0
ARC
  5
321
100
AcDbEntity
  8
0
100
AcDbCircle
 62
7
  6
CONTINUOUS
 10
22.8141310956
 20
81.1587039175
 40
1.3193708782
100
AcDbArc
 50
297.246524752
 51
305.3940026916
  0
ARC
  5
322
100
AcDbEntity
  8
0
100
AcDbCircle
 62
7
  6
CONTINUOUS
 10
67.6793875391
 20
124.6431941859
 40
2.3025356545
100
AcDbArc
 50
119.9293557895
 51
124.5972027653
  0
ARC
  5
323
100
AcDbEntity
  8
0
100
AcDbCircle
 62
7
  6
CONTINUOUS
 10
69.011471063
 20
123.1771066403
 40
2.0401957149
100
AcDbArc
 50
55.451418748
 51
60.0232884021
  0
ARC
  5
324
100
AcDbEntity
  8
0
100
AcDbCircle
 62
7
  6
CONTINUOUS
 10
69.143047043
 20
123.3711826101
 40
1.8057293084
100
AcDbArc
 50
51.3583823705
 51
55.3978129873
  0
ARC
  5
325
100
AcDbEntity
  8
0
100
AcDbCircle
 62
7
  6
CONTINUOUS
 10
85.303884011
 20
120.6469790157
 40
1.6582953741
100
AcDbArc
 50
239.9332869384
 51
244.4022562151
  0
ARC
  5
326
100
AcDbEntity
  8
0
100
AcDbCircle
 62
7
  6
CONTINUOUS
 10
88.8669851401
 20
118.5137759447
 40
1.5922473345
100
AcDbArc
 50
243.4535488377
 51
244.4222653245
  0
ARC
  5
327
100
AcDbEntity
  8
0
100
AcDbCircle
 62
7
  6
CONTINUOUS
 10
85.255917658
 20
120.5481901998
 40
1.5484789591
100
AcDbArc
 50
244.4235949617
 51
245.447317533
  0
ARC
  5
328
100
AcDbEntity
  8
0
100
AcDbCircle
 62
7
  6
CONTINUOUS
 10
88.8470779994
 20
118.4721684072
 40
1.5461227058
100
AcDbArc
 50
244.4219987721
 51
245.4462472351
  0
ARC
  5
329
100
AcDbEntity
  8
0
100
AcDbCircle
 62
7
  6
CONTINUOUS
 10
20.0429394349
 20
85.9588649073
 40
1.4880059212
100
AcDbArc
 50
110.0589167641
 51
119.9494839341
  0
ARC
  5
32A
100
AcDbEntity
  8
0
100
AcDbCircle
 62
7
  6
CONTINUOUS
 10
20.0347433291
 20
85.9750259109
 40
1.4699119914
100
AcDbArc
 50
120.343198562
 51
125.6029503305
  0
ARC
  5
32B
100
AcDbEntity
  8
0
100
AcDbCircle
 62
7
  6
CONTINUOUS
 10
20.0338545276
 20
85.9763938675
 40
1.4682824231
100
AcDbArc
 50
119.9837974293
 51
120.3402333821
  0
ARC
  5
32C
100
AcDbEntity
  8
0
100
AcDbCircle
 62
7
  6
CONTINUOUS
 10
20.0827355835
 20
85.8888519017
 40
1.4184804313
100
AcDbArc
 50
117.3509326288
 51
119.989560922
  0
ARC
  5
32D
100
AcDbEntity
  8
0
100
AcDbCircle
 62
7
  6
CONTINUOUS
 10
20.0822522077
 20
85.889863327
 40
1.4173628102
100
AcDbArc
 50
119.9930735125
 51
125.2104218949
  0
ARC
  5
32E
100
AcDbEntity
  8
0
100
AcDbCircle
 62
7
  6
CONTINUOUS
 10
210.6441060508
 20
79.1570540317
 40
180.5827793321
100
AcDbArc
 50
173.396002977
 51
173.5363604226
  0
ARC
  5
32F
100
AcDbEntity
  8
0
100
AcDbCircle
 62
7
  6
CONTINUOUS
 10
183.5986528239
 20
79.7275165418
 40
155.5725732887
100
AcDbArc
 50
178.4448712686
 51
179.9907631285
  0
ARC
  5
330
100
AcDbEntity
  8
0
100
AcDbCircle
 62
7
  6
CONTINUOUS
 10
178.0447569076
 20
79.7622827146
 40
150.1021148605
100
AcDbArc
 50
178.4329251926
 51
179.9925723679
  0
ARC
  5
331
100
AcDbEntity
  8
0
100
AcDbCircle
 62
7
  6
CONTINUOUS
 10
190.0874116997
 20
49.0770354362
 40
115.9512358396
100
AcDbArc
 50
182.2273170098
 51
184.2935153254
  0
ARC
  5
332
100
AcDbEntity
  8
0
100
AcDbCircle
 62
7
  6
CONTINUOUS
 10
186.691934562
 20
49.678731355
 40
113.8245149309
100
AcDbArc
 50
182.9057140035
 51
184.3066913024
  0
ARC
  5
333
100
AcDbEntity
  8
0
100
AcDbCircle
 62
7
  6
CONTINUOUS
 10
184.5919733721
 20
50.4006881983
 40
113.0661994428
100
AcDbArc
 50
183.6414985774
 51
184.3083300516
  0
ARC
  5
334
100
AcDbEntity
  8
0
100
AcDbCircle
 62
7
  6
CONTINUOUS
 10
188.1986165405
 20
47.2618085983
 40
111.4359684305
100
AcDbArc
 50
184.310686922
 51
184.832523142
  0
ARC
  5
335
100
AcDbEntity
  8
0
100
AcDbCircle
 62
7
  6
CONTINUOUS
 10
182.9660045705
 20
50.2827901814
 40
111.4359684266
100
AcDbArc
 50
184.310686922
 51
184.832523142
  0
ARC
  5
336
100
AcDbEntity
  8
0
100
AcDbCircle
 62
7
  6
CONTINUOUS
 10
185.5823105512
 20
48.7722993895
 40
111.4359684242
100
AcDbArc
 50
184.310686922
 51
184.832523142
  0
ARC
  5
337
100
AcDbEntity
  8
0
100
AcDbCircle
 62
7
  6
CONTINUOUS
 10
186.3168573369
 20
47.94551005
 40
110.8248523216
100
AcDbArc
 50
184.3080028459
 51
184.8327087385
  0
ARC
  5
338
100
AcDbEntity
  8
0
100
AcDbCircle
 62
7
  6
CONTINUOUS
 10
183.7005513533
 20
49.4560008416
 40
110.824852321
100
AcDbArc
 50
184.3080028459
 51
184.8327087385
  0
ARC
  5
339
100
AcDbEntity
  8
0
100
AcDbCircle
 62
7
  6
CONTINUOUS
 10
181.048585235
 20
50.9635452666
 40
110.7890707385
100
AcDbArc
 50
184.3419713127
 51
184.8327440899
  0
ARC
  5
33A
100
AcDbEntity
  8
0
100
AcDbCircle
 62
7
  6
CONTINUOUS
 10
180.5595232817
 20
50.0810057841
 40
109.0210426909
100
AcDbArc
 50
184.8333972606
 51
185.6844386733
  0
ARC
  5
33B
100
AcDbEntity
  8
0
100
AcDbCircle
 62
7
  6
CONTINUOUS
 10
183.1758292647
 20
48.5705149923
 40
109.0210426909
100
AcDbArc
 50
184.8333972606
 51
185.6844386733
  0
ARC
  5
33C
100
AcDbEntity
  8
0
100
AcDbCircle
 62
7
  6
CONTINUOUS
 10
185.7921352463
 20
47.0600242005
 40
109.0210426894
100
AcDbArc
 50
184.8333972606
 51
185.6844386733
  0
ARC
  5
33D
100
AcDbEntity
  8
0
100
AcDbCircle
 62
7
  6
CONTINUOUS
 10
177.3978748005
 20
51.5401571852
 40
108.473296809
100
AcDbArc
 50
185.0954881216
 51
185.6859857592
  0
ARC
  5
33E
100
AcDbEntity
  8
0
100
AcDbCircle
 62
7
  6
CONTINUOUS
 10
178.693131021
 20
50.7606978656
 40
108.4249011712
100
AcDbArc
 50
184.830796505
 51
185.6855108797
  0
ARC
  5
33F
100
AcDbEntity
  8
0
100
AcDbCircle
 62
7
  6
CONTINUOUS
 10
181.309437004
 20
49.2502070738
 40
108.4249011712
100
AcDbArc
 50
184.830796505
 51
185.6855108797
  0
ARC
  5
340
100
AcDbEntity
  8
0
100
AcDbCircle
 62
7
  6
CONTINUOUS
 10
183.925742987
 20
47.7397162821
 40
108.4249011711
100
AcDbArc
 50
184.830796505
 51
185.6855108797
  0
ARC
  5
341
100
AcDbEntity
  8
0
100
AcDbCircle
 62
7
  6
CONTINUOUS
 10
131.6008457875
 20
74.3366524187
 40
103.1270804168
100
AcDbArc
 50
186.7600183016
 51
187.4365932103
  0
ARC
  5
342
100
AcDbEntity
  8
0
100
AcDbCircle
 62
7
  6
CONTINUOUS
 10
155.092750575
 20
114.5545100835
 40
126.6759776305
100
AcDbArc
 50
179.9998192824
 51
180.3787915658
  0
SPLINE
  5
343
100
AcDbEntity
  8
0
100
AcDbSpline
 62
7
  6
CONTINUOUS
 70
0
 71
3
 72
13
 73
9
 74
0
 42
0.0000001
 43
0.0000001
 44
0.0000000001
 40
0.0
 40
0.0
 40
0.0
 40
0.0
 40
0.2894501173
 40
0.4228150743
 40
0.5488361425
 40
0.7817340216
 40
0.8918863552
 40
1.0
 40
1.0
 40
1.0
 40
1.0
 10
83.2002778081
 20
121.6604400648
 30
0.0
 10
83.1124893652
 20
121.7111235993
 30
0.0
 10
82.977730406
 20
121.7752785724
 30
0.0
 10
82.7928238309
 20
121.8291590073
 30
0.0
 10
82.6225738075
 20
121.8577992263
 30
0.0
 10
82.4555632197
 20
121.8533434544
 30
0.0
 10
82.3027107843
 20
121.8110023275
 30
0.0
 10
82.2330741734
 20
121.7784169607
 30
0.0
 10
82.2002841002
 20
121.7594857282
 30
0.0
  0
SPLINE
  5
344
100
AcDbEntity
  8
0
100
AcDbSpline
 62
7
  6
CONTINUOUS
 70
0
 71
3
 72
15
 73
11
 74
0
 42
0.0000001
 43
0.0000001
 44
0.0000000001
 40
0.0
 40
0.0
 40
0.0
 40
0.0
 40
0.1141555516
 40
0.2373276756
 40
0.3669773296
 40
0.5000011
 40
0.6330247168
 40
0.7626739247
 40
0.885845342
 40
1.0
 40
1.0
 40
1.0
 40
1.0
 10
84.6144972584
 20
119.2109537215
 30
0.0
 10
84.6144972584
 20
119.3227458713
 30
0.0
 10
84.5940209357
 20
119.5553771529
 30
0.0
 10
84.5123924861
 20
119.9063267014
 30
0.0
 10
84.3816284195
 20
120.261810449
 30
0.0
 10
84.2066156496
 20
120.6084610688
 30
0.0
 10
83.9939124805
 20
120.9333505057
 30
0.0
 10
83.7514358324
 20
121.2243351257
 30
0.0
 10
83.4883187204
 20
121.4704991778
 30
0.0
 10
83.2970924394
 20
121.6045453759
 30
0.0
 10
83.2002778081
 20
121.6604400648
 30
0.0
  0
SPLINE
  5
345
100
AcDbEntity
  8
0
100
AcDbSpline
 62
7
  6
CONTINUOUS
 70
0
 71
3
 72
15
 73
11
 74
0
 42
0.0000001
 43
0.0000001
 44
0.0000000001
 40
0.0
 40
0.0
 40
0.0
 40
0.0
 40
0.1141555516
 40
0.2373276756
 40
0.3669773296
 40
0.5000011
 40
0.6330247168
 40
0.7626739247
 40
0.885845342
 40
1.0
 40
1.0
 40
1.0
 40
1.0
 10
88.2066146621
 20
117.1370906885
 30
0.0
 10
88.2066146621
 20
117.2488828384
 30
0.0
 10
88.1861383394
 20
117.48151412
 30
0.0
 10
88.1045098899
 20
117.8324636684
 30
0.0
 10
87.9737458232
 20
118.187947416
 30
0.0
 10
87.7987330534
 20
118.5345980358
 30
0.0
 10
87.5860298843
 20
118.8594874728
 30
0.0
 10
87.3435532361
 20
119.1504720928
 30
0.0
 10
87.0804361241
 20
119.3966361448
 30
0.0
 10
86.8892098432
 20
119.5306823429
 30
0.0
 10
86.7923952118
 20
119.5865770318
 30
0.0
  0
SPLINE
  5
346
100
AcDbEntity
  8
0
100
AcDbSpline
 62
7
  6
CONTINUOUS
 70
0
 71
3
 72
13
 73
9
 74
0
 42
0.0000001
 43
0.0000001
 44
0.0000000001
 40
0.0
 40
0.0
 40
0.0
 40
0.0
 40
0.2894501173
 40
0.4228150743
 40
0.5488361425
 40
0.7817340216
 40
0.8918863552
 40
1.0
 40
1.0
 40
1.0
 40
1.0
 10
86.7923952118
 20
119.5865770318
 30
0.0
 10
86.7046067689
 20
119.6372605664
 30
0.0
 10
86.5698478097
 20
119.7014155395
 30
0.0
 10
86.3849412346
 20
119.7552959744
 30
0.0
 10
86.2146912112
 20
119.7839361933
 30
0.0
 10
86.0476806234
 20
119.7794804215
 30
0.0
 10
85.894828188
 20
119.7371392945
 30
0.0
 10
85.8251915772
 20
119.7045539277
 30
0.0
 10
85.7924015039
 20
119.6856226953
 30
0.0
  0
SPLINE
  5
347
100
AcDbEntity
  8
0
100
AcDbSpline
 62
7
  6
CONTINUOUS
 70
0
 71
3
 72
15
 73
11
 74
0
 42
0.0000001
 43
0.0000001
 44
0.0000000001
 40
0.0
 40
0.0
 40
0.0
 40
0.0
 40
0.1097328165
 40
0.2285194294
 40
0.3545090167
 40
0.4852762517
 40
0.618060952
 40
0.7499573562
 40
0.8781405797
 40
1.0
 40
1.0
 40
1.0
 40
1.0
 10
88.1553728459
 20
117.0893955471
 30
0.0
 10
88.070556045
 20
117.1317652954
 30
0.0
 10
87.9014856317
 20
117.2355393861
 30
0.0
 10
87.6646409813
 20
117.4309900273
 30
0.0
 10
87.4407320225
 20
117.6668503655
 30
0.0
 10
87.2369624874
 20
117.9355295367
 30
0.0
 10
87.0598417818
 20
118.2284278519
 30
0.0
 10
86.9150426324
 20
118.5361454063
 30
0.0
 10
86.8072683615
 20
118.8487212496
 30
0.0
 10
86.76092184
 20
119.0604152394
 30
0.0
 10
86.7454578108
 20
119.164561776
 30
0.0
  0
SPLINE
  5
348
100
AcDbEntity
  8
0
100
AcDbSpline
 62
7
  6
CONTINUOUS
 70
0
 71
3
 72
13
 73
9
 74
0
 42
0.0000001
 43
0.0000001
 44
0.0000000001
 40
0.0
 40
0.0
 40
0.0
 40
0.0
 40
0.1081131464
 40
0.2182650552
 40
0.4511625282
 40
0.5771836848
 40
0.710548904
 40
1.0
 40
1.0
 40
1.0
 40
1.0
 10
87.7923889197
 20
116.2215216999
 30
0.0
 10
87.8251797274
 20
116.2404533563
 30
0.0
 10
87.8882193935
 20
116.284468542
 30
0.0
 10
88.0013168407
 20
116.3956747676
 30
0.0
 10
88.0886825104
 20
116.5380864269
 30
0.0
 10
88.1490048231
 20
116.6998521659
 30
0.0
 10
88.1947960821
 20
116.8869320689
 30
0.0
 10
88.2066146621
 20
117.0357188191
 30
0.0
 10
88.2066146621
 20
117.1370906885
 30
0.0
  0
SPLINE
  5
349
100
AcDbEntity
  8
0
100
AcDbSpline
 62
7
  6
CONTINUOUS
 70
0
 71
3
 72
13
 73
9
 74
0
 42
0.0000001
 43
0.0000001
 44
0.0000000001
 40
0.0
 40
0.0
 40
0.0
 40
0.0
 40
0.1081131464
 40
0.2182650552
 40
0.4511625282
 40
0.5771836848
 40
0.710548904
 40
1.0
 40
1.0
 40
1.0
 40
1.0
 10
84.200271516
 20
118.2953847329
 30
0.0
 10
84.2330623236
 20
118.3143163893
 30
0.0
 10
84.2961019898
 20
118.358331575
 30
0.0
 10
84.4091994369
 20
118.4695378006
 30
0.0
 10
84.4965651066
 20
118.6119494599
 30
0.0
 10
84.5568874194
 20
118.7737151989
 30
0.0
 10
84.6026786784
 20
118.9607951019
 30
0.0
 10
84.6144972584
 20
119.109581852
 30
0.0
 10
84.6144972584
 20
119.2109537215
 30
0.0
  0
SPLINE
  5
34A
100
AcDbEntity
  8
0
100
AcDbSpline
 62
7
  6
CONTINUOUS
 70
0
 71
3
 72
15
 73
11
 74
0
 42
0.0000001
 43
0.0000001
 44
0.0000000001
 40
0.0
 40
0.0
 40
0.0
 40
0.0
 40
0.1122416719
 40
0.232586742
 40
0.3591418447
 40
0.4896459728
 40
0.6215544252
 40
0.7522354158
 40
0.8791685924
 40
1.0
 40
1.0
 40
1.0
 40
1.0
 10
84.4730647151
 20
119.2118194966
 30
0.0
 10
84.3923900212
 20
119.2583959991
 30
0.0
 10
84.2325628865
 20
119.3679502068
 30
0.0
 10
84.0094968886
 20
119.5666196393
 30
0.0
 10
83.8000552517
 20
119.8003583863
 30
0.0
 10
83.61037184
 20
120.062253919
 30
0.0
 10
83.4460025512
 20
120.3446866388
 30
0.0
 10
83.3117225105
 20
120.639380871
 30
0.0
 10
83.2115322263
 20
120.9376488107
 30
0.0
 10
83.1680693735
 20
121.1392287438
 30
0.0
 10
83.153340407
 20
121.238424809
 30
0.0
  0
SPLINE
  5
34B
100
AcDbEntity
  8
0
100
AcDbSpline
 62
7
  6
CONTINUOUS
 70
0
 71
3
 72
13
 73
9
 74
0
 42
0.0000001
 43
0.0000001
 44
0.0000000001
 40
0.0
 40
0.0
 40
0.0
 40
0.0
 40
0.1081131464
 40
0.2182650552
 40
0.4511625282
 40
0.5771836848
 40
0.710548904
 40
1.0
 40
1.0
 40
1.0
 40
1.0
 10
85.7924015039
 20
119.6856226953
 30
0.0
 10
85.7596106963
 20
119.6666910388
 30
0.0
 10
85.6965710302
 20
119.6226758531
 30
0.0
 10
85.583473583
 20
119.5114696276
 30
0.0
 10
85.4961079133
 20
119.3690579682
 30
0.0
 10
85.4357856006
 20
119.2072922292
 30
0.0
 10
85.3899943416
 20
119.0202123262
 30
0.0
 10
85.3781757615
 20
118.8714255761
 30
0.0
 10
85.3781757615
 20
118.7700537066
 30
0.0
  0
SPLINE
  5
34C
100
AcDbEntity
  8
0
100
AcDbSpline
 62
7
  6
CONTINUOUS
 70
0
 71
3
 72
13
 73
9
 74
0
 42
0.0000001
 43
0.0000001
 44
0.0000000001
 40
0.0
 40
0.0
 40
0.0
 40
0.0
 40
0.1081131464
 40
0.2182650552
 40
0.4511625282
 40
0.5771836848
 40
0.710548904
 40
1.0
 40
1.0
 40
1.0
 40
1.0
 10
82.2002841002
 20
121.7594857282
 30
0.0
 10
82.1674932925
 20
121.7405540718
 30
0.0
 10
82.1044536264
 20
121.6965388861
 30
0.0
 10
81.9913561792
 20
121.5853326605
 30
0.0
 10
81.9039905096
 20
121.4429210012
 30
0.0
 10
81.8436681968
 20
121.2811552622
 30
0.0
 10
81.7978769378
 20
121.0940753592
 30
0.0
 10
81.7860583578
 20
120.9452886091
 30
0.0
 10
81.7860583578
 20
120.8439167396
 30
0.0
  0
SPLINE
  5
34D
100
AcDbEntity
  8
0
100
AcDbSpline
 62
7
  6
CONTINUOUS
 70
0
 71
3
 72
13
 73
9
 74
0
 42
0.0000001
 43
0.0000001
 44
0.0000000001
 40
0.0
 40
0.0
 40
0.0
 40
0.0
 40
0.2894501173
 40
0.4228150743
 40
0.5488361425
 40
0.7817340216
 40
0.8918863552
 40
1.0
 40
1.0
 40
1.0
 40
1.0
 10
86.7923952118
 20
116.3205673633
 30
0.0
 10
86.8801836548
 20
116.2698838288
 30
0.0
 10
87.014942614
 20
116.2057288557
 30
0.0
 10
87.1998491891
 20
116.1518484208
 30
0.0
 10
87.3700992125
 20
116.1232082019
 30
0.0
 10
87.5371098002
 20
116.1276639737
 30
0.0
 10
87.6899622357
 20
116.1700051006
 30
0.0
 10
87.7595988465
 20
116.2025904675
 30
0.0
 10
87.7923889197
 20
116.2215216999
 30
0.0
  0
SPLINE
  5
34E
100
AcDbEntity
  8
0
100
AcDbSpline
 62
7
  6
CONTINUOUS
 70
0
 71
3
 72
15
 73
11
 74
0
 42
0.0000001
 43
0.0000001
 44
0.0000000001
 40
0.0
 40
0.0
 40
0.0
 40
0.0
 40
0.1141555516
 40
0.2373276756
 40
0.3669773296
 40
0.5000011
 40
0.6330247168
 40
0.7626739247
 40
0.885845342
 40
1.0
 40
1.0
 40
1.0
 40
1.0
 10
81.7860583578
 20
120.8439167396
 30
0.0
 10
81.7860583578
 20
120.7321245897
 30
0.0
 10
81.8065346805
 20
120.4994933082
 30
0.0
 10
81.8881631301
 20
120.1485437597
 30
0.0
 10
82.0189271967
 20
119.7930600121
 30
0.0
 10
82.1939399665
 20
119.4464093923
 30
0.0
 10
82.4066431357
 20
119.1215199553
 30
0.0
 10
82.6491197838
 20
118.8305353354
 30
0.0
 10
82.9122368958
 20
118.5843712833
 30
0.0
 10
83.1034631768
 20
118.4503250852
 30
0.0
 10
83.2002778081
 20
118.3944303963
 30
0.0
  0
SPLINE
  5
34F
100
AcDbEntity
  8
0
100
AcDbSpline
 62
7
  6
CONTINUOUS
 70
0
 71
3
 72
13
 73
9
 74
0
 42
0.0000001
 43
0.0000001
 44
0.0000000001
 40
0.0
 40
0.0
 40
0.0
 40
0.0
 40
0.2894501173
 40
0.4228150743
 40
0.5488361425
 40
0.7817340216
 40
0.8918863552
 40
1.0
 40
1.0
 40
1.0
 40
1.0
 10
83.2002778081
 20
118.3944303963
 30
0.0
 10
83.288066251
 20
118.3437468617
 30
0.0
 10
83.4228252102
 20
118.2795918887
 30
0.0
 10
83.6077317853
 20
118.2257114538
 30
0.0
 10
83.7779818087
 20
118.1970712348
 30
0.0
 10
83.9449923965
 20
118.2015270067
 30
0.0
 10
84.0978448319
 20
118.2438681336
 30
0.0
 10
84.1674814428
 20
118.2764535004
 30
0.0
 10
84.200271516
 20
118.2953847329
 30
0.0
  0
SPLINE
  5
350
100
AcDbEntity
  8
0
100
AcDbSpline
 62
7
  6
CONTINUOUS
 70
0
 71
3
 72
15
 73
11
 74
0
 42
0.0000001
 43
0.0000001
 44
0.0000000001
 40
0.0
 40
0.0
 40
0.0
 40
0.0
 40
0.1141555516
 40
0.2373276756
 40
0.3669773296
 40
0.5000011
 40
0.6330247168
 40
0.7626739247
 40
0.885845342
 40
1.0
 40
1.0
 40
1.0
 40
1.0
 10
85.3781757615
 20
118.7700537066
 30
0.0
 10
85.3781757615
 20
118.6582615568
 30
0.0
 10
85.3986520843
 20
118.4256302752
 30
0.0
 10
85.4802805338
 20
118.0746807267
 30
0.0
 10
85.6110446004
 20
117.7191969791
 30
0.0
 10
85.7860573703
 20
117.3725463593
 30
0.0
 10
85.9987605394
 20
117.0476569224
 30
0.0
 10
86.2412371876
 20
116.7566723024
 30
0.0
 10
86.5043542995
 20
116.5105082503
 30
0.0
 10
86.6955805805
 20
116.3764620523
 30
0.0
 10
86.7923952118
 20
116.3205673633
 30
0.0
  0
SPLINE
  5
351
100
AcDbEntity
  8
0
100
AcDbSpline
 62
7
  6
CONTINUOUS
 70
0
 71
3
 72
9
 73
5
 74
0
 42
0.0000001
 43
0.0000001
 44
0.0000000001
 40
0.0
 40
0.0
 40
0.0
 40
0.0
 40
0.5081670572
 40
1.0
 40
1.0
 40
1.0
 40
1.0
 10
68.5380688695
 20
77.9344537412
 30
0.0
 10
68.1725284072
 20
74.7570563127
 30
0.0
 10
67.6181628682
 20
68.484073297
 30
0.0
 10
67.4224942778
 20
62.1890071301
 30
0.0
 10
67.4224942778
 20
59.0934575578
 30
0.0
  0
SPLINE
  5
352
100
AcDbEntity
  8
0
100
AcDbSpline
 62
7
  6
CONTINUOUS
 70
0
 71
3
 72
9
 73
5
 74
0
 42
0.0000001
 43
0.0000001
 44
0.0000000001
 40
0.0
 40
0.0
 40
0.0
 40
0.0
 40
0.5094023117
 40
1.0
 40
1.0
 40
1.0
 40
1.0
 10
67.4224942778
 20
59.0934575578
 30
0.0
 10
67.4224942778
 20
56.1053369772
 30
0.0
 10
67.5984986774
 20
50.2377446848
 30
0.0
 10
68.1595923281
 20
44.3934258742
 30
0.0
 10
68.5380688695
 20
41.5406082667
 30
0.0
  0
SPLINE
  5
353
100
AcDbEntity
  8
0
100
AcDbSpline
 62
7
  6
CONTINUOUS
 70
0
 71
3
 72
9
 73
5
 74
0
 42
0.0000001
 43
0.0000001
 44
0.0000000001
 40
0.0
 40
0.0
 40
0.0
 40
0.0
 40
0.2545479042
 40
1.0
 40
1.0
 40
1.0
 40
1.0
 10
28.0260815569
 20
79.7525969906
 30
0.0
 10
28.0260797429
 20
78.7451021668
 30
0.0
 10
28.0656033199
 20
74.7872727694
 30
0.0
 10
28.2658231848
 20
70.8306613934
 30
0.0
 10
28.5142945282
 20
67.8906599014
 30
0.0
  0
SPLINE
  5
354
100
AcDbEntity
  8
0
100
AcDbSpline
 62
7
  6
CONTINUOUS
 70
0
 71
3
 72
9
 73
5
 74
0
 42
0.0000001
 43
0.0000001
 44
0.0000000001
 40
0.0
 40
0.0
 40
0.0
 40
0.0
 40
0.2523784104
 40
1.0
 40
1.0
 40
1.0
 40
1.0
 10
28.5142945282
 20
67.8906599014
 30
0.0
 10
28.5543900962
 20
67.4162348504
 30
0.0
 10
28.7235176494
 20
65.537302927
 30
0.0
 10
28.9340171471
 20
63.6620676542
 30
0.0
 10
29.11575135
 20
62.2634237318
 30
0.0
  0
SPLINE
  5
355
100
AcDbEntity
  8
0
100
AcDbSpline
 62
7
  6
CONTINUOUS
 70
0
 71
3
 72
9
 73
5
 74
0
 42
0.0000001
 43
0.0000001
 44
0.0000000001
 40
0.0
 40
0.0
 40
0.0
 40
0.0
 40
0.2545269181
 40
1.0
 40
1.0
 40
1.0
 40
1.0
 10
29.1084390498
 20
98.435054527
 30
0.0
 10
28.9705196662
 20
97.2105362736
 30
0.0
 10
28.4772260405
 20
92.3942935372
 30
0.0
 10
28.1811201541
 20
87.5573701787
 30
0.0
 10
28.0833617111
 20
83.949578026
 30
0.0
  0
SPLINE
  5
356
100
AcDbEntity
  8
0
100
AcDbSpline
 62
7
  6
CONTINUOUS
 70
0
 71
3
 72
9
 73
5
 74
0
 42
0.0000001
 43
0.0000001
 44
0.0000000001
 40
0.0
 40
0.0
 40
0.0
 40
0.0
 40
0.4907721603
 40
1.0
 40
1.0
 40
1.0
 40
1.0
 10
66.708564829
 20
40.5396690737
 30
0.0
 10
66.3380232262
 20
43.3873422692
 30
0.0
 10
65.78858624
 20
49.2178998088
 30
0.0
 10
65.6160472848
 20
55.0708408922
 30
0.0
 10
65.6160472848
 20
58.0505111256
 30
0.0
  0
SPLINE
  5
357
100
AcDbEntity
  8
0
100
AcDbSpline
 62
7
  6
CONTINUOUS
 70
0
 71
3
 72
9
 73
5
 74
0
 42
0.0000001
 43
0.0000001
 44
0.0000000001
 40
0.0
 40
0.0
 40
0.0
 40
0.0
 40
0.4919647103
 40
1.0
 40
1.0
 40
1.0
 40
1.0
 10
65.6160472848
 20
58.0505111256
 30
0.0
 10
65.6160472848
 20
61.1353871193
 30
0.0
 10
65.8075060442
 20
67.4070321713
 30
0.0
 10
66.350475705
 20
73.6574191604
 30
0.0
 10
66.708564829
 20
76.8228762437
 30
0.0
  0
SPLINE
  5
358
100
AcDbEntity
  8
0
100
AcDbSpline
 62
7
  6
CONTINUOUS
 70
0
 71
3
 72
13
 73
9
 74
0
 42
0.0000001
 43
0.0000001
 44
0.0000000001
 40
0.0
 40
0.0
 40
0.0
 40
0.0
 40
0.1142249338
 40
0.2375584468
 40
0.4999994088
 40
0.7624406902
 40
0.885774603
 40
1.0
 40
1.0
 40
1.0
 40
1.0
 10
66.5305792037
 20
126.6386665231
 30
0.0
 10
66.658821912
 20
126.7127070433
 30
0.0
 10
66.9393830302
 20
126.84331755
 30
0.0
 10
67.56107603
 20
127.0322049744
 30
0.0
 10
68.4044090078
 20
127.1239011651
 30
0.0
 10
69.2477429047
 20
127.0322089698
 30
0.0
 10
69.8694384023
 20
126.8433245478
 30
0.0
 10
70.1500013816
 20
126.7127154271
 30
0.0
 10
70.2782451439
 20
126.6386755314
 30
0.0
  0
SPLINE
  5
359
100
AcDbEntity
  8
0
100
AcDbSpline
 62
7
  6
CONTINUOUS
 70
0
 71
3
 72
11
 73
7
 74
0
 42
0.0000001
 43
0.0000001
 44
0.0000000001
 40
0.0
 40
0.0
 40
0.0
 40
0.0
 40
0.2897052941
 40
0.5490919993
 40
0.7822182535
 40
1.0
 40
1.0
 40
1.0
 40
1.0
 10
70.2782451439
 20
126.6386755314
 30
0.0
 10
70.3945256771
 20
126.5715424531
 30
0.0
 10
70.6054879276
 20
126.4262403602
 30
0.0
 10
70.8576175208
 20
126.1612670107
 30
0.0
 10
71.017106581
 20
125.868141615
 30
0.0
 10
71.0544068246
 20
125.6577624854
 30
0.0
 10
71.0544067522
 20
125.5568281399
 30
0.0
  0
SPLINE
  5
35A
100
AcDbEntity
  8
0
100
AcDbSpline
 62
7
  6
CONTINUOUS
 70
0
 71
3
 72
11
 73
7
 74
0
 42
0.0000001
 43
0.0000001
 44
0.0000000001
 40
0.0
 40
0.0
 40
0.0
 40
0.0
 40
0.2897048095
 40
0.5490913441
 40
0.7822177942
 40
1.0
 40
1.0
 40
1.0
 40
1.0
 10
70.0308642212
 20
124.6178217436
 30
0.0
 10
70.1317850486
 20
124.6760880627
 30
0.0
 10
70.3148808664
 20
124.8021988166
 30
0.0
 10
70.5337058648
 20
125.0321739486
 30
0.0
 10
70.6721273579
 20
125.2865821663
 30
0.0
 10
70.7045004167
 20
125.469173244
 30
0.0
 10
70.7045003767
 20
125.5567756854
 30
0.0
  0
SPLINE
  5
35B
100
AcDbEntity
  8
0
100
AcDbSpline
 62
7
  6
CONTINUOUS
 70
0
 71
3
 72
9
 73
5
 74
0
 42
0.0000001
 43
0.0000001
 44
0.0000000001
 40
0.0
 40
0.0
 40
0.0
 40
0.0
 40
0.2613803758
 40
1.0
 40
1.0
 40
1.0
 40
1.0
 10
70.9003744113
 20
126.0745988825
 30
0.0
 10
70.9322326734
 20
126.0503003865
 30
0.0
 10
71.0517289842
 20
125.9543051873
 30
0.0
 10
71.1612457478
 20
125.8454558844
 30
0.0
 10
71.2330632979
 20
125.757924751
 30
0.0
  0
SPLINE
  5
35C
100
AcDbEntity
  8
0
100
AcDbSpline
 62
7
  6
CONTINUOUS
 70
0
 71
3
 72
9
 73
5
 74
0
 42
0.0000001
 43
0.0000001
 44
0.0000000001
 40
0.0
 40
0.0
 40
0.0
 40
0.0
 40
0.5210411023
 40
1.0
 40
1.0
 40
1.0
 40
1.0
 10
71.2330632979
 20
125.757924751
 30
0.0
 10
71.3259248599
 20
125.6447452043
 30
0.0
 10
71.4774726466
 20
125.4019435321
 30
0.0
 10
71.5344694485
 20
125.1189219471
 30
0.0
 10
71.5344339503
 20
124.9843462905
 30
0.0
  0
SPLINE
  5
35D
100
AcDbEntity
  8
0
100
AcDbSpline
 62
7
  6
CONTINUOUS
 70
0
 71
3
 72
11
 73
7
 74
0
 42
0.0000001
 43
0.0000001
 44
0.0000000001
 40
0.0
 40
0.0
 40
0.0
 40
0.0
 40
0.2894647373
 40
0.5492058835
 40
0.7823547561
 40
1.0
 40
1.0
 40
1.0
 40
1.0
 10
48.0184889082
 20
136.7547476266
 30
0.0
 10
48.0564423973
 20
136.7766265183
 30
0.0
 10
48.1253195778
 20
136.8241090971
 30
0.0
 10
48.2077936317
 20
136.9105307236
 30
0.0
 10
48.2598574448
 20
137.006317663
 30
0.0
 10
48.2719601902
 20
137.0750183919
 30
0.0
 10
48.2718999128
 20
137.1079571799
 30
0.0
  0
SPLINE
  5
35E
100
AcDbEntity
  8
0
100
AcDbSpline
 62
7
  6
CONTINUOUS
 70
0
 71
3
 72
11
 73
7
 74
0
 42
0.0000001
 43
0.0000001
 44
0.0000000001
 40
0.0
 40
0.0
 40
0.0
 40
0.0
 40
0.2894647373
 40
0.5492058835
 40
0.7823547561
 40
1.0
 40
1.0
 40
1.0
 40
1.0
 10
50.6347948912
 20
135.2442568349
 30
0.0
 10
50.6727483804
 20
135.2661357266
 30
0.0
 10
50.7416255609
 20
135.3136183054
 30
0.0
 10
50.8240996147
 20
135.4000399319
 30
0.0
 10
50.8761634278
 20
135.4958268713
 30
0.0
 10
50.8882661732
 20
135.5645276002
 30
0.0
 10
50.8882058958
 20
135.5974663882
 30
0.0
  0
SPLINE
  5
35F
100
AcDbEntity
  8
0
100
AcDbSpline
 62
7
  6
CONTINUOUS
 70
0
 71
3
 72
11
 73
7
 74
0
 42
0.0000001
 43
0.0000001
 44
0.0000000001
 40
0.0
 40
0.0
 40
0.0
 40
0.0
 40
0.2894647373
 40
0.5492058835
 40
0.7823547561
 40
1.0
 40
1.0
 40
1.0
 40
1.0
 10
53.2511008743
 20
133.7337660432
 30
0.0
 10
53.2890543634
 20
133.7556449349
 30
0.0
 10
53.3579315439
 20
133.8031275136
 30
0.0
 10
53.4404055978
 20
133.8895491402
 30
0.0
 10
53.4924694109
 20
133.9853360796
 30
0.0
 10
53.5045721562
 20
134.0540368085
 30
0.0
 10
53.5045118789
 20
134.0869755965
 30
0.0
  0
SPLINE
  5
360
100
AcDbEntity
  8
0
100
AcDbSpline
 62
7
  6
CONTINUOUS
 70
0
 71
3
 72
11
 73
7
 74
0
 42
0.0000001
 43
0.0000001
 44
0.0000000001
 40
0.0
 40
0.0
 40
0.0
 40
0.0
 40
0.2894647373
 40
0.5492058835
 40
0.7823547561
 40
1.0
 40
1.0
 40
1.0
 40
1.0
 10
55.8674068573
 20
132.2232752514
 30
0.0
 10
55.9053603465
 20
132.2451541431
 30
0.0
 10
55.974237527
 20
132.2926367219
 30
0.0
 10
56.0567115808
 20
132.3790583485
 30
0.0
 10
56.1087753939
 20
132.4748452878
 30
0.0
 10
56.1208781393
 20
132.5435460167
 30
0.0
 10
56.1208178619
 20
132.5764848048
 30
0.0
  0
SPLINE
  5
361
100
AcDbEntity
  8
0
100
AcDbSpline
 62
7
  6
CONTINUOUS
 70
0
 71
3
 72
11
 73
7
 74
0
 42
0.0000001
 43
0.0000001
 44
0.0000000001
 40
0.0
 40
0.0
 40
0.0
 40
0.0
 40
0.2894647373
 40
0.5492058835
 40
0.7823547561
 40
1.0
 40
1.0
 40
1.0
 40
1.0
 10
58.4837128404
 20
130.7127844597
 30
0.0
 10
58.5216663295
 20
130.7346633514
 30
0.0
 10
58.59054351
 20
130.7821459302
 30
0.0
 10
58.6730175639
 20
130.8685675567
 30
0.0
 10
58.725081377
 20
130.9643544961
 30
0.0
 10
58.7371841223
 20
131.033055225
 30
0.0
 10
58.7371238449
 20
131.065994013
 30
0.0
  0
SPLINE
  5
362
100
AcDbEntity
  8
0
100
AcDbSpline
 62
7
  6
CONTINUOUS
 70
0
 71
3
 72
11
 73
7
 74
0
 42
0.0000001
 43
0.0000001
 44
0.0000000001
 40
0.0
 40
0.0
 40
0.0
 40
0.0
 40
0.2894647373
 40
0.5492058835
 40
0.7823547561
 40
1.0
 40
1.0
 40
1.0
 40
1.0
 10
61.1000188234
 20
129.202293668
 30
0.0
 10
61.1379723125
 20
129.2241725597
 30
0.0
 10
61.2068494931
 20
129.2716551385
 30
0.0
 10
61.2893235469
 20
129.358076765
 30
0.0
 10
61.34138736
 20
129.4538637044
 30
0.0
 10
61.3534901054
 20
129.5225644333
 30
0.0
 10
61.353429828
 20
129.5555032213
 30
0.0
  0
SPLINE
  5
363
100
AcDbEntity
  8
0
100
AcDbSpline
 62
7
  6
CONTINUOUS
 70
0
 71
3
 72
11
 73
7
 74
0
 42
0.0000001
 43
0.0000001
 44
0.0000000001
 40
0.0
 40
0.0
 40
0.0
 40
0.0
 40
0.2894647373
 40
0.5492058835
 40
0.7823547561
 40
1.0
 40
1.0
 40
1.0
 40
1.0
 10
63.7163248064
 20
127.6918028763
 30
0.0
 10
63.7542782956
 20
127.713681768
 30
0.0
 10
63.8231554761
 20
127.7611643467
 30
0.0
 10
63.9056295299
 20
127.8475859733
 30
0.0
 10
63.957693343
 20
127.9433729127
 30
0.0
 10
63.9697960884
 20
128.0120736416
 30
0.0
 10
63.969735811
 20
128.0450124296
 30
0.0
  0
SPLINE
  5
364
100
AcDbEntity
  8
0
100
AcDbSpline
 62
7
  6
CONTINUOUS
 70
0
 71
3
 72
11
 73
7
 74
0
 42
0.0000001
 43
0.0000001
 44
0.0000000001
 40
0.0
 40
0.0
 40
0.0
 40
0.0
 40
0.2894647373
 40
0.5492058835
 40
0.7823547561
 40
1.0
 40
1.0
 40
1.0
 40
1.0
 10
79.4141607047
 20
118.6288581259
 30
0.0
 10
79.4521141938
 20
118.6507370176
 30
0.0
 10
79.5209913744
 20
118.6982195964
 30
0.0
 10
79.6034654282
 20
118.7846412229
 30
0.0
 10
79.6555292413
 20
118.8804281623
 30
0.0
 10
79.6676319867
 20
118.9491288912
 30
0.0
 10
79.6675717093
 20
118.9820676792
 30
0.0
  0
SPLINE
  5
365
100
AcDbEntity
  8
0
100
AcDbSpline
 62
7
  6
CONTINUOUS
 70
0
 71
3
 72
11
 73
7
 74
0
 42
0.0000001
 43
0.0000001
 44
0.0000000001
 40
0.0
 40
0.0
 40
0.0
 40
0.0
 40
0.2894647373
 40
0.5492058835
 40
0.7823547561
 40
1.0
 40
1.0
 40
1.0
 40
1.0
 10
82.0304666878
 20
117.1183673342
 30
0.0
 10
82.0684201769
 20
117.1402462259
 30
0.0
 10
82.1372973574
 20
117.1877288047
 30
0.0
 10
82.2197714113
 20
117.2741504312
 30
0.0
 10
82.2718352244
 20
117.3699373706
 30
0.0
 10
82.2839379697
 20
117.4386380995
 30
0.0
 10
82.2838776923
 20
117.4715768875
 30
0.0
  0
SPLINE
  5
366
100
AcDbEntity
  8
0
100
AcDbSpline
 62
7
  6
CONTINUOUS
 70
0
 71
3
 72
11
 73
7
 74
0
 42
0.0000001
 43
0.0000001
 44
0.0000000001
 40
0.0
 40
0.0
 40
0.0
 40
0.0
 40
0.2894647373
 40
0.5492058835
 40
0.7823547561
 40
1.0
 40
1.0
 40
1.0
 40
1.0
 10
84.6467726708
 20
115.6078765425
 30
0.0
 10
84.6847261599
 20
115.6297554342
 30
0.0
 10
84.7536033405
 20
115.6772380129
 30
0.0
 10
84.8360773943
 20
115.7636596395
 30
0.0
 10
84.8881412074
 20
115.8594465789
 30
0.0
 10
84.9002439528
 20
115.9281473078
 30
0.0
 10
84.9001836754
 20
115.9610860958
 30
0.0
  0
SPLINE
  5
367
100
AcDbEntity
  8
0
100
AcDbSpline
 62
7
  6
CONTINUOUS
 70
0
 71
3
 72
11
 73
7
 74
0
 42
0.0000001
 43
0.0000001
 44
0.0000000001
 40
0.0
 40
0.0
 40
0.0
 40
0.0
 40
0.2894647373
 40
0.5492058835
 40
0.7823547561
 40
1.0
 40
1.0
 40
1.0
 40
1.0
 10
87.2630786538
 20
114.0973857507
 30
0.0
 10
87.301032143
 20
114.1192646424
 30
0.0
 10
87.3699093235
 20
114.1667472212
 30
0.0
 10
87.4523833773
 20
114.2531688478
 30
0.0
 10
87.5044471904
 20
114.3489557871
 30
0.0
 10
87.5165499358
 20
114.417656516
 30
0.0
 10
87.5164896584
 20
114.4505953041
 30
0.0
  0
SPLINE
  5
368
100
AcDbEntity
  8
0
100
AcDbSpline
 62
7
  6
CONTINUOUS
 70
0
 71
3
 72
11
 73
7
 74
0
 42
0.0000001
 43
0.0000001
 44
0.0000000001
 40
0.0
 40
0.0
 40
0.0
 40
0.0
 40
0.2894647373
 40
0.5492058835
 40
0.7823547561
 40
1.0
 40
1.0
 40
1.0
 40
1.0
 10
89.8793846369
 20
112.586894959
 30
0.0
 10
89.917338126
 20
112.6087738507
 30
0.0
 10
89.9862153065
 20
112.6562564295
 30
0.0
 10
90.0686893604
 20
112.742678056
 30
0.0
 10
90.1207531735
 20
112.8384649954
 30
0.0
 10
90.1328559189
 20
112.9071657243
 30
0.0
 10
90.1327956415
 20
112.9401045123
 30
0.0
  0
SPLINE
  5
369
100
AcDbEntity
  8
0
100
AcDbSpline
 62
7
  6
CONTINUOUS
 70
0
 71
3
 72
11
 73
7
 74
0
 42
0.0000001
 43
0.0000001
 44
0.0000000001
 40
0.0
 40
0.0
 40
0.0
 40
0.0
 40
0.2894647373
 40
0.5492058835
 40
0.7823547561
 40
1.0
 40
1.0
 40
1.0
 40
1.0
 10
92.4956906199
 20
111.0764041673
 30
0.0
 10
92.5336441091
 20
111.098283059
 30
0.0
 10
92.6025212896
 20
111.1457656378
 30
0.0
 10
92.6849953434
 20
111.2321872643
 30
0.0
 10
92.7370591565
 20
111.3279742037
 30
0.0
 10
92.7491619019
 20
111.3966749326
 30
0.0
 10
92.7491016245
 20
111.4296137206
 30
0.0
  0
SPLINE
  5
36A
100
AcDbEntity
  8
0
100
AcDbSpline
 62
7
  6
CONTINUOUS
 70
0
 71
3
 72
11
 73
7
 74
0
 42
0.0000001
 43
0.0000001
 44
0.0000000001
 40
0.0
 40
0.0
 40
0.0
 40
0.0
 40
0.2894626516
 40
0.5492034574
 40
0.7823529691
 40
1.0
 40
1.0
 40
1.0
 40
1.0
 10
64.2858248533
 20
118.9532875765
 30
0.0
 10
64.3240062931
 20
118.9752989922
 30
0.0
 10
64.3932968815
 20
119.0230694619
 30
0.0
 10
64.4762653759
 20
119.1100140105
 30
0.0
 10
64.5286398658
 20
119.2063800862
 30
0.0
 10
64.5408147991
 20
119.275495152
 30
0.0
 10
64.540753943
 20
119.3086327025
 30
0.0
  0
SPLINE
  5
36B
100
AcDbEntity
  8
0
100
AcDbSpline
 62
7
  6
CONTINUOUS
 70
0
 71
3
 72
9
 73
5
 74
0
 42
0.0000001
 43
0.0000001
 44
0.0000000001
 40
0.0
 40
0.0
 40
0.0
 40
0.0
 40
0.2633767629
 40
1.0
 40
1.0
 40
1.0
 40
1.0
 10
70.7423728778
 20
120.2878297118
 30
0.0
 10
70.7924676872
 20
120.3167517908
 30
0.0
 10
70.979461289
 20
120.4318692453
 30
0.0
 10
71.1535886991
 20
120.5690790462
 30
0.0
 10
71.2679215609
 20
120.6835400298
 30
0.0
  0
SPLINE
  5
36C
100
AcDbEntity
  8
0
100
AcDbSpline
 62
7
  6
CONTINUOUS
 70
0
 71
3
 72
9
 73
5
 74
0
 42
0.0000001
 43
0.0000001
 44
0.0000000001
 40
0.0
 40
0.0
 40
0.0
 40
0.0
 40
0.2548457633
 40
1.0
 40
1.0
 40
1.0
 40
1.0
 10
71.2679215609
 20
120.6835400298
 30
0.0
 10
71.2798350914
 20
120.6954669107
 30
0.0
 10
71.3259904085
 20
120.7428538269
 30
0.0
 10
71.3697216836
 20
120.7926155758
 30
0.0
 10
71.4006570047
 20
120.8309901502
 30
0.0
  0
SPLINE
  5
36D
100
AcDbEntity
  8
0
100
AcDbSpline
 62
7
  6
CONTINUOUS
 70
0
 71
3
 72
9
 73
5
 74
0
 42
0.0000001
 43
0.0000001
 44
0.0000000001
 40
0.0
 40
0.0
 40
0.0
 40
0.0
 40
0.5204368361
 40
1.0
 40
1.0
 40
1.0
 40
1.0
 10
71.4006570047
 20
120.8309901502
 30
0.0
 10
71.4958059513
 20
120.9490202918
 30
0.0
 10
71.6507819369
 20
121.2019472393
 30
0.0
 10
71.7088870794
 20
121.4953100435
 30
0.0
 10
71.7088995337
 20
121.6350094999
 30
0.0
  0
SPLINE
  5
36E
100
AcDbEntity
  8
0
100
AcDbSpline
 62
7
  6
CONTINUOUS
 70
0
 71
3
 72
15
 73
11
 74
0
 42
0.0000001
 43
0.0000001
 44
0.0000000001
 40
0.0
 40
0.0
 40
0.0
 40
0.0
 40
0.1314549036
 40
0.2730504364
 40
0.4180169316
 40
0.5591142529
 40
0.6896852563
 40
0.8055474057
 40
0.9069142503
 40
1.0
 40
1.0
 40
1.0
 40
1.0
 10
32.8298044574
 20
124.5676904566
 30
0.0
 10
32.836918343
 20
124.6473760266
 30
0.0
 10
32.8301872183
 20
124.8150916156
 30
0.0
 10
32.7690355478
 20
125.0634675923
 30
0.0
 10
32.6610091674
 20
125.3019042308
 30
0.0
 10
32.5145375645
 20
125.5108347867
 30
0.0
 10
32.3406040391
 20
125.6731338715
 30
0.0
 10
32.151875546
 20
125.7752691487
 30
0.0
 10
31.9608083334
 20
125.8063934911
 30
0.0
 10
31.8425069306
 20
125.7714794403
 30
0.0
 10
31.793445827
 20
125.7431531643
 30
0.0
  0
SPLINE
  5
36F
100
AcDbEntity
  8
0
100
AcDbSpline
 62
7
  6
CONTINUOUS
 70
0
 71
3
 72
15
 73
11
 74
0
 42
0.0000001
 43
0.0000001
 44
0.0000000001
 40
0.0
 40
0.0
 40
0.0
 40
0.0
 40
0.1314549036
 40
0.2730504364
 40
0.4180169316
 40
0.5591142529
 40
0.6896852563
 40
0.8055474056
 40
0.9069142503
 40
1.0
 40
1.0
 40
1.0
 40
1.0
 10
35.4461104404
 20
123.0571996648
 30
0.0
 10
35.453224326
 20
123.1368852348
 30
0.0
 10
35.4464932014
 20
123.3046008238
 30
0.0
 10
35.3853415309
 20
123.5529768005
 30
0.0
 10
35.2773151505
 20
123.7914134391
 30
0.0
 10
35.1308435476
 20
124.000343995
 30
0.0
 10
34.9569100221
 20
124.1626430797
 30
0.0
 10
34.7681815291
 20
124.264778357
 30
0.0
 10
34.5771143164
 20
124.2959026993
 30
0.0
 10
34.4588129137
 20
124.2609886486
 30
0.0
 10
34.40975181
 20
124.2326623726
 30
0.0
  0
SPLINE
  5
370
100
AcDbEntity
  8
0
100
AcDbSpline
 62
7
  6
CONTINUOUS
 70
0
 71
3
 72
15
 73
11
 74
0
 42
0.0000001
 43
0.0000001
 44
0.0000000001
 40
0.0
 40
0.0
 40
0.0
 40
0.0
 40
0.1314549036
 40
0.2730504364
 40
0.4180169316
 40
0.5591142529
 40
0.6896852563
 40
0.8055474057
 40
0.9069142503
 40
1.0
 40
1.0
 40
1.0
 40
1.0
 10
38.0624164235
 20
121.5467088731
 30
0.0
 10
38.0695303091
 20
121.6263944431
 30
0.0
 10
38.0627991844
 20
121.7941100321
 30
0.0
 10
38.0016475139
 20
122.0424860088
 30
0.0
 10
37.8936211335
 20
122.2809226474
 30
0.0
 10
37.7471495306
 20
122.4898532033
 30
0.0
 10
37.5732160052
 20
122.652152288
 30
0.0
 10
37.3844875121
 20
122.7542875653
 30
0.0
 10
37.1934202995
 20
122.7854119076
 30
0.0
 10
37.0751188967
 20
122.7504978569
 30
0.0
 10
37.0260577931
 20
122.7221715809
 30
0.0
  0
SPLINE
  5
371
100
AcDbEntity
  8
0
100
AcDbSpline
 62
7
  6
CONTINUOUS
 70
0
 71
3
 72
15
 73
11
 74
0
 42
0.0000001
 43
0.0000001
 44
0.0000000001
 40
0.0
 40
0.0
 40
0.0
 40
0.0
 40
0.1314549036
 40
0.2730504364
 40
0.4180169316
 40
0.5591142529
 40
0.6896852563
 40
0.8055474057
 40
0.9069142503
 40
1.0
 40
1.0
 40
1.0
 40
1.0
 10
40.6787224065
 20
120.0362180814
 30
0.0
 10
40.6858362921
 20
120.1159036514
 30
0.0
 10
40.6791051674
 20
120.2836192404
 30
0.0
 10
40.617953497
 20
120.5319952171
 30
0.0
 10
40.5099271165
 20
120.7704318557
 30
0.0
 10
40.3634555137
 20
120.9793624116
 30
0.0
 10
40.1895219882
 20
121.1416614963
 30
0.0
 10
40.0007934952
 20
121.2437967736
 30
0.0
 10
39.8097262825
 20
121.2749211159
 30
0.0
 10
39.6914248797
 20
121.2400070651
 30
0.0
 10
39.6423637761
 20
121.2116807891
 30
0.0
  0
SPLINE
  5
372
100
AcDbEntity
  8
0
100
AcDbSpline
 62
7
  6
CONTINUOUS
 70
0
 71
3
 72
15
 73
11
 74
0
 42
0.0000001
 43
0.0000001
 44
0.0000000001
 40
0.0
 40
0.0
 40
0.0
 40
0.0
 40
0.1314549036
 40
0.2730504364
 40
0.4180169316
 40
0.5591142529
 40
0.6896852563
 40
0.8055474057
 40
0.9069142503
 40
1.0
 40
1.0
 40
1.0
 40
1.0
 10
43.2950283896
 20
118.5257272897
 30
0.0
 10
43.3021422752
 20
118.6054128597
 30
0.0
 10
43.2954111505
 20
118.7731284487
 30
0.0
 10
43.23425948
 20
119.0215044254
 30
0.0
 10
43.1262330996
 20
119.2599410639
 30
0.0
 10
42.9797614967
 20
119.4688716198
 30
0.0
 10
42.8058279713
 20
119.6311707046
 30
0.0
 10
42.6170994782
 20
119.7333059818
 30
0.0
 10
42.4260322656
 20
119.7644303242
 30
0.0
 10
42.3077308628
 20
119.7295162734
 30
0.0
 10
42.2586697591
 20
119.7011899974
 30
0.0
  0
SPLINE
  5
373
100
AcDbEntity
  8
0
100
AcDbSpline
 62
7
  6
CONTINUOUS
 70
0
 71
3
 72
15
 73
11
 74
0
 42
0.0000001
 43
0.0000001
 44
0.0000000001
 40
0.0
 40
0.0
 40
0.0
 40
0.0
 40
0.1314549036
 40
0.2730504364
 40
0.4180169316
 40
0.5591142529
 40
0.6896852563
 40
0.8055474056
 40
0.9069142503
 40
1.0
 40
1.0
 40
1.0
 40
1.0
 10
45.9113343726
 20
117.0152364979
 30
0.0
 10
45.9184482582
 20
117.0949220679
 30
0.0
 10
45.9117171335
 20
117.2626376569
 30
0.0
 10
45.850565463
 20
117.5110136336
 30
0.0
 10
45.7425390826
 20
117.7494502722
 30
0.0
 10
45.5960674797
 20
117.9583808281
 30
0.0
 10
45.4221339543
 20
118.1206799128
 30
0.0
 10
45.2334054612
 20
118.2228151901
 30
0.0
 10
45.0423382486
 20
118.2539395324
 30
0.0
 10
44.9240368458
 20
118.2190254817
 30
0.0
 10
44.8749757422
 20
118.1906992057
 30
0.0
  0
SPLINE
  5
374
100
AcDbEntity
  8
0
100
AcDbSpline
 62
7
  6
CONTINUOUS
 70
0
 71
3
 72
15
 73
11
 74
0
 42
0.0000001
 43
0.0000001
 44
0.0000000001
 40
0.0
 40
0.0
 40
0.0
 40
0.0
 40
0.1314549036
 40
0.2730504364
 40
0.4180169316
 40
0.5591142529
 40
0.6896852563
 40
0.8055474056
 40
0.9069142503
 40
1.0
 40
1.0
 40
1.0
 40
1.0
 10
48.5276403556
 20
115.5047457062
 30
0.0
 10
48.5347542412
 20
115.5844312762
 30
0.0
 10
48.5280231166
 20
115.7521468652
 30
0.0
 10
48.4668714461
 20
116.0005228419
 30
0.0
 10
48.3588450657
 20
116.2389594805
 30
0.0
 10
48.2123734628
 20
116.4478900364
 30
0.0
 10
48.0384399374
 20
116.6101891211
 30
0.0
 10
47.8497114443
 20
116.7123243984
 30
0.0
 10
47.6586442317
 20
116.7434487407
 30
0.0
 10
47.5403428289
 20
116.70853469
 30
0.0
 10
47.4912817252
 20
116.680208414
 30
0.0
  0
SPLINE
  5
375
100
AcDbEntity
  8
0
100
AcDbSpline
 62
7
  6
CONTINUOUS
 70
0
 71
3
 72
15
 73
11
 74
0
 42
0.0000001
 43
0.0000001
 44
0.0000000001
 40
0.0
 40
0.0
 40
0.0
 40
0.0
 40
0.1314549036
 40
0.2730504364
 40
0.4180169316
 40
0.5591142529
 40
0.6896852563
 40
0.8055474057
 40
0.9069142503
 40
1.0
 40
1.0
 40
1.0
 40
1.0
 10
51.1439463387
 20
113.9942549145
 30
0.0
 10
51.1510602243
 20
114.0739404845
 30
0.0
 10
51.1443290996
 20
114.2416560735
 30
0.0
 10
51.0831774291
 20
114.4900320502
 30
0.0
 10
50.9751510487
 20
114.7284686888
 30
0.0
 10
50.8286794458
 20
114.9373992447
 30
0.0
 10
50.6547459204
 20
115.0996983294
 30
0.0
 10
50.4660174273
 20
115.2018336067
 30
0.0
 10
50.2749502147
 20
115.232957949
 30
0.0
 10
50.1566488119
 20
115.1980438982
 30
0.0
 10
50.1075877083
 20
115.1697176222
 30
0.0
  0
SPLINE
  5
376
100
AcDbEntity
  8
0
100
AcDbSpline
 62
7
  6
CONTINUOUS
 70
0
 71
3
 72
15
 73
11
 74
0
 42
0.0000001
 43
0.0000001
 44
0.0000000001
 40
0.0
 40
0.0
 40
0.0
 40
0.0
 40
0.1314549036
 40
0.2730504364
 40
0.4180169316
 40
0.5591142529
 40
0.6896852563
 40
0.8055474056
 40
0.9069142503
 40
1.0
 40
1.0
 40
1.0
 40
1.0
 10
53.7602523217
 20
112.4837641228
 30
0.0
 10
53.7673662073
 20
112.5634496928
 30
0.0
 10
53.7606350827
 20
112.7311652818
 30
0.0
 10
53.6994834122
 20
112.9795412585
 30
0.0
 10
53.5914570318
 20
113.217977897
 30
0.0
 10
53.4449854289
 20
113.4269084529
 30
0.0
 10
53.2710519034
 20
113.5892075377
 30
0.0
 10
53.0823234104
 20
113.6913428149
 30
0.0
 10
52.8912561977
 20
113.7224671573
 30
0.0
 10
52.772954795
 20
113.6875531065
 30
0.0
 10
52.7238936913
 20
113.6592268305
 30
0.0
  0
SPLINE
  5
377
100
AcDbEntity
  8
0
100
AcDbSpline
 62
7
  6
CONTINUOUS
 70
0
 71
3
 72
15
 73
11
 74
0
 42
0.0000001
 43
0.0000001
 44
0.0000000001
 40
0.0
 40
0.0
 40
0.0
 40
0.0
 40
0.1314549036
 40
0.2730504364
 40
0.4180169316
 40
0.5591142529
 40
0.6896852563
 40
0.8055474057
 40
0.9069142503
 40
1.0
 40
1.0
 40
1.0
 40
1.0
 10
56.3765583048
 20
110.973273331
 30
0.0
 10
56.3836721904
 20
111.052958901
 30
0.0
 10
56.3769410657
 20
111.22067449
 30
0.0
 10
56.3157893952
 20
111.4690504667
 30
0.0
 10
56.2077630148
 20
111.7074871053
 30
0.0
 10
56.0612914119
 20
111.9164176612
 30
0.0
 10
55.8873578865
 20
112.0787167459
 30
0.0
 10
55.6986293934
 20
112.1808520232
 30
0.0
 10
55.5075621808
 20
112.2119763655
 30
0.0
 10
55.389260778
 20
112.1770623148
 30
0.0
 10
55.3401996744
 20
112.1487360388
 30
0.0
  0
SPLINE
  5
378
100
AcDbEntity
  8
0
100
AcDbSpline
 62
7
  6
CONTINUOUS
 70
0
 71
3
 72
15
 73
11
 74
0
 42
0.0000001
 43
0.0000001
 44
0.0000000001
 40
0.0
 40
0.0
 40
0.0
 40
0.0
 40
0.1314549036
 40
0.2730504364
 40
0.4180169316
 40
0.5591142529
 40
0.6896852563
 40
0.8055474057
 40
0.9069142503
 40
1.0
 40
1.0
 40
1.0
 40
1.0
 10
58.9928642878
 20
109.4627825393
 30
0.0
 10
58.9999781734
 20
109.5424681093
 30
0.0
 10
58.9932470488
 20
109.7101836983
 30
0.0
 10
58.9320953783
 20
109.958559675
 30
0.0
 10
58.8240689979
 20
110.1969963136
 30
0.0
 10
58.677597395
 20
110.4059268695
 30
0.0
 10
58.5036638695
 20
110.5682259542
 30
0.0
 10
58.3149353765
 20
110.6703612315
 30
0.0
 10
58.1238681638
 20
110.7014855738
 30
0.0
 10
58.005566761
 20
110.666571523
 30
0.0
 10
57.9565056574
 20
110.6382452471
 30
0.0
  0
SPLINE
  5
379
100
AcDbEntity
  8
0
100
AcDbSpline
 62
7
  6
CONTINUOUS
 70
0
 71
3
 72
15
 73
11
 74
0
 42
0.0000001
 43
0.0000001
 44
0.0000000001
 40
0.0
 40
0.0
 40
0.0
 40
0.0
 40
0.1314549036
 40
0.2730504364
 40
0.4180169316
 40
0.5591142529
 40
0.6896852563
 40
0.8055474057
 40
0.9069142503
 40
1.0
 40
1.0
 40
1.0
 40
1.0
 10
61.6091702709
 20
107.9522917476
 30
0.0
 10
61.6162841565
 20
108.0319773176
 30
0.0
 10
61.6095530318
 20
108.1996929066
 30
0.0
 10
61.5484013613
 20
108.4480688833
 30
0.0
 10
61.4403749809
 20
108.6865055219
 30
0.0
 10
61.293903378
 20
108.8954360778
 30
0.0
 10
61.1199698526
 20
109.0577351625
 30
0.0
 10
60.9312413595
 20
109.1598704398
 30
0.0
 10
60.7401741469
 20
109.1909947821
 30
0.0
 10
60.6218727441
 20
109.1560807313
 30
0.0
 10
60.5728116404
 20
109.1277544553
 30
0.0
  0
SPLINE
  5
37A
100
AcDbEntity
  8
0
100
AcDbSpline
 62
7
  6
CONTINUOUS
 70
0
 71
3
 72
15
 73
11
 74
0
 42
0.0000001
 43
0.0000001
 44
0.0000000001
 40
0.0
 40
0.0
 40
0.0
 40
0.0
 40
0.1314549036
 40
0.2730504364
 40
0.4180169316
 40
0.5591142529
 40
0.6896852563
 40
0.8055474057
 40
0.9069142503
 40
1.0
 40
1.0
 40
1.0
 40
1.0
 10
64.2254762539
 20
106.4418009559
 30
0.0
 10
64.2325901395
 20
106.5214865259
 30
0.0
 10
64.2258590148
 20
106.6892021149
 30
0.0
 10
64.1647073444
 20
106.9375780916
 30
0.0
 10
64.0566809639
 20
107.1760147301
 30
0.0
 10
63.910209361
 20
107.384945286
 30
0.0
 10
63.7362758356
 20
107.5472443708
 30
0.0
 10
63.5475473426
 20
107.649379648
 30
0.0
 10
63.3564801299
 20
107.6805039904
 30
0.0
 10
63.2381787271
 20
107.6455899396
 30
0.0
 10
63.1891176235
 20
107.6172636636
 30
0.0
  0
SPLINE
  5
37B
100
AcDbEntity
  8
0
100
AcDbSpline
 62
7
  6
CONTINUOUS
 70
0
 71
3
 72
15
 73
11
 74
0
 42
0.0000001
 43
0.0000001
 44
0.0000000001
 40
0.0
 40
0.0
 40
0.0
 40
0.0
 40
0.1314549036
 40
0.2730504364
 40
0.4180169316
 40
0.5591142529
 40
0.6896852563
 40
0.8055474056
 40
0.9069142503
 40
1.0
 40
1.0
 40
1.0
 40
1.0
 10
66.841782237
 20
104.9313101641
 30
0.0
 10
66.8488961225
 20
105.0109957341
 30
0.0
 10
66.8421649979
 20
105.1787113231
 30
0.0
 10
66.7810133274
 20
105.4270872998
 30
0.0
 10
66.672986947
 20
105.6655239384
 30
0.0
 10
66.5265153441
 20
105.8744544943
 30
0.0
 10
66.3525818187
 20
106.036753579
 30
0.0
 10
66.1638533256
 20
106.1388888563
 30
0.0
 10
65.972786113
 20
106.1700131986
 30
0.0
 10
65.8544847102
 20
106.1350991479
 30
0.0
 10
65.8054236065
 20
106.1067728719
 30
0.0
  0
SPLINE
  5
37C
100
AcDbEntity
  8
0
100
AcDbSpline
 62
7
  6
CONTINUOUS
 70
0
 71
3
 72
15
 73
11
 74
0
 42
0.0000001
 43
0.0000001
 44
0.0000000001
 40
0.0
 40
0.0
 40
0.0
 40
0.0
 40
0.1314549036
 40
0.2730504364
 40
0.4180169316
 40
0.5591142529
 40
0.6896852563
 40
0.8055474057
 40
0.9069142503
 40
1.0
 40
1.0
 40
1.0
 40
1.0
 10
69.45808822
 20
103.4208193724
 30
0.0
 10
69.4652021056
 20
103.5005049424
 30
0.0
 10
69.4584709809
 20
103.6682205314
 30
0.0
 10
69.3973193104
 20
103.9165965081
 30
0.0
 10
69.28929293
 20
104.1550331467
 30
0.0
 10
69.1428213271
 20
104.3639637026
 30
0.0
 10
68.9688878017
 20
104.5262627873
 30
0.0
 10
68.7801593086
 20
104.6283980646
 30
0.0
 10
68.589092096
 20
104.6595224069
 30
0.0
 10
68.4707906932
 20
104.6246083561
 30
0.0
 10
68.4217295896
 20
104.5962820802
 30
0.0
  0
SPLINE
  5
37D
100
AcDbEntity
  8
0
100
AcDbSpline
 62
7
  6
CONTINUOUS
 70
0
 71
3
 72
15
 73
11
 74
0
 42
0.0000001
 43
0.0000001
 44
0.0000000001
 40
0.0
 40
0.0
 40
0.0
 40
0.0
 40
0.1314549036
 40
0.2730504364
 40
0.4180169316
 40
0.5591142529
 40
0.6896852563
 40
0.8055474057
 40
0.9069142503
 40
1.0
 40
1.0
 40
1.0
 40
1.0
 10
72.074394203
 20
101.9103285807
 30
0.0
 10
72.0815080886
 20
101.9900141507
 30
0.0
 10
72.074776964
 20
102.1577297397
 30
0.0
 10
72.0136252935
 20
102.4061057164
 30
0.0
 10
71.9055989131
 20
102.644542355
 30
0.0
 10
71.7591273102
 20
102.8534729109
 30
0.0
 10
71.5851937847
 20
103.0157719956
 30
0.0
 10
71.3964652917
 20
103.1179072729
 30
0.0
 10
71.205398079
 20
103.1490316152
 30
0.0
 10
71.0870966763
 20
103.1141175644
 30
0.0
 10
71.0380355726
 20
103.0857912884
 30
0.0
  0
SPLINE
  5
37E
100
AcDbEntity
  8
0
100
AcDbSpline
 62
7
  6
CONTINUOUS
 70
0
 71
3
 72
15
 73
11
 74
0
 42
0.0000001
 43
0.0000001
 44
0.0000000001
 40
0.0
 40
0.0
 40
0.0
 40
0.0
 40
0.1314549036
 40
0.2730504364
 40
0.4180169316
 40
0.5591142529
 40
0.6896852563
 40
0.8055474057
 40
0.9069142503
 40
1.0
 40
1.0
 40
1.0
 40
1.0
 10
74.6907001861
 20
100.399837789
 30
0.0
 10
74.6978140717
 20
100.479523359
 30
0.0
 10
74.691082947
 20
100.647238948
 30
0.0
 10
74.6299312765
 20
100.8956149247
 30
0.0
 10
74.5219048961
 20
101.1340515632
 30
0.0
 10
74.3754332932
 20
101.3429821191
 30
0.0
 10
74.2014997678
 20
101.5052812039
 30
0.0
 10
74.0127712747
 20
101.6074164811
 30
0.0
 10
73.8217040621
 20
101.6385408235
 30
0.0
 10
73.7034026593
 20
101.6036267727
 30
0.0
 10
73.6543415557
 20
101.5753004967
 30
0.0
  0
SPLINE
  5
37F
100
AcDbEntity
  8
0
100
AcDbSpline
 62
7
  6
CONTINUOUS
 70
0
 71
3
 72
15
 73
11
 74
0
 42
0.0000001
 43
0.0000001
 44
0.0000000001
 40
0.0
 40
0.0
 40
0.0
 40
0.0
 40
0.1314549036
 40
0.2730504364
 40
0.4180169316
 40
0.5591142529
 40
0.6896852563
 40
0.8055474057
 40
0.9069142503
 40
1.0
 40
1.0
 40
1.0
 40
1.0
 10
77.3070061691
 20
98.8893469972
 30
0.0
 10
77.3141200547
 20
98.9690325672
 30
0.0
 10
77.3073889301
 20
99.1367481562
 30
0.0
 10
77.2462372596
 20
99.3851241329
 30
0.0
 10
77.1382108792
 20
99.6235607715
 30
0.0
 10
76.9917392763
 20
99.8324913274
 30
0.0
 10
76.8178057508
 20
99.9947904121
 30
0.0
 10
76.6290772578
 20
100.0969256894
 30
0.0
 10
76.4380100451
 20
100.1280500317
 30
0.0
 10
76.3197086424
 20
100.093135981
 30
0.0
 10
76.2706475387
 20
100.064809705
 30
0.0
  0
SPLINE
  5
380
100
AcDbEntity
  8
0
100
AcDbSpline
 62
7
  6
CONTINUOUS
 70
0
 71
3
 72
9
 73
5
 74
0
 42
0.0000001
 43
0.0000001
 44
0.0000000001
 40
0.0
 40
0.0
 40
0.0
 40
0.0
 40
0.4796112641
 40
1.0
 40
1.0
 40
1.0
 40
1.0
 10
65.1089220359
 20
121.6350389035
 30
0.0
 10
65.1089096197
 20
121.4957666424
 30
0.0
 10
65.1666278305
 20
121.2033186588
 30
0.0
 10
65.3207933574
 20
120.9510218608
 30
0.0
 10
65.4154326943
 20
120.8332140817
 30
0.0
  0
SPLINE
  5
381
100
AcDbEntity
  8
0
100
AcDbSpline
 62
7
  6
CONTINUOUS
 70
0
 71
3
 72
9
 73
5
 74
0
 42
0.0000001
 43
0.0000001
 44
0.0000000001
 40
0.0
 40
0.0
 40
0.0
 40
0.0
 40
0.245411258
 40
1.0
 40
1.0
 40
1.0
 40
1.0
 10
65.4154326943
 20
120.8332140817
 30
0.0
 10
65.4255264987
 20
120.8206492359
 30
0.0
 10
65.4673680239
 20
120.7700241139
 30
0.0
 10
65.5119749234
 20
120.7216971593
 30
0.0
 10
65.5469151609
 20
120.6865539664
 30
0.0
  0
SPLINE
  5
382
100
AcDbEntity
  8
0
100
AcDbSpline
 62
7
  6
CONTINUOUS
 70
0
 71
3
 72
15
 73
11
 74
0
 42
0.0000001
 43
0.0000001
 44
0.0000000001
 40
0.0
 40
0.0
 40
0.0
 40
0.0
 40
0.103368471
 40
0.2196757842
 40
0.34681466
 40
0.4811630607
 40
0.6182638798
 40
0.7533333335
 40
0.881867387
 40
1.0
 40
1.0
 40
1.0
 40
1.0
 10
65.5469151609
 20
120.6865539664
 30
0.0
 10
65.6807430908
 20
120.5519486779
 30
0.0
 10
66.0055635181
 20
120.305403674
 30
0.0
 10
66.5824647094
 20
120.028633478
 30
0.0
 10
67.2510381505
 20
119.833449598
 30
0.0
 10
67.9778021199
 20
119.7296165103
 30
0.0
 10
68.7263567274
 20
119.7222115931
 30
0.0
 10
69.4590211723
 20
119.8115446505
 30
0.0
 10
70.1384315402
 20
119.9932016646
 30
0.0
 10
70.5545121157
 20
120.1793688976
 30
0.0
 10
70.7423728778
 20
120.2878297118
 30
0.0
  0
SPLINE
  5
383
100
AcDbEntity
  8
0
100
AcDbSpline
 62
7
  6
CONTINUOUS
 70
0
 71
3
 72
19
 73
15
 74
0
 42
0.0000001
 43
0.0000001
 44
0.0000000001
 40
0.0
 40
0.0
 40
0.0
 40
0.0
 40
0.0613591429
 40
0.1266056569
 40
0.1949620403
 40
0.26564801
 40
0.3740493988
 40
0.4824658789
 40
0.5877597045
 40
0.6871294876
 40
0.7784073322
 40
0.8604299704
 40
0.9335440794
 40
1.0
 40
1.0
 40
1.0
 40
1.0
 10
24.4104272191
 20
81.821021223
 30
0.0
 10
24.4104272191
 20
81.9894885006
 30
0.0
 10
24.3891003635
 20
82.3372936271
 30
0.0
 10
24.3015855232
 20
82.8661660762
 30
0.0
 10
24.1586559707
 20
83.4093527148
 30
0.0
 10
23.9295913592
 20
84.0497207896
 30
0.0
 10
23.5879438256
 20
84.7636204802
 30
0.0
 10
23.1118412356
 20
85.5114836332
 30
0.0
 10
22.5615883187
 20
86.1750616763
 30
0.0
 10
21.9599212864
 20
86.7254970857
 30
0.0
 10
21.3311053613
 20
87.1387096681
 30
0.0
 10
20.699554182
 20
87.3959466809
 30
0.0
 10
20.0903140629
 20
87.4840036797
 30
0.0
 10
19.7039495367
 20
87.4192379738
 30
0.0
 10
19.5325738785
 20
87.3566090256
 30
0.0
  0
SPLINE
  5
384
100
AcDbEntity
  8
0
100
AcDbSpline
 62
7
  6
CONTINUOUS
 70
0
 71
3
 72
15
 73
11
 74
0
 42
0.0000001
 43
0.0000001
 44
0.0000000001
 40
0.0
 40
0.0
 40
0.0
 40
0.0
 40
0.0868744434
 40
0.1859455554
 40
0.3026224662
 40
0.4356080882
 40
0.5796113398
 40
0.726705249
 40
0.869627588
 40
1.0
 40
1.0
 40
1.0
 40
1.0
 10
63.3160056574
 20
113.5517571204
 30
0.0
 10
63.3160543487
 20
113.5034231849
 30
0.0
 10
63.344892869
 20
113.3990740844
 30
0.0
 10
63.4573478725
 20
113.2689230954
 30
0.0
 10
63.6238255288
 20
113.1652898666
 30
0.0
 10
63.8322194867
 20
113.093297341
 30
0.0
 10
64.0665649338
 20
113.0575228608
 30
0.0
 10
64.3092746736
 20
113.0612135939
 30
0.0
 10
64.5398901761
 20
113.1037184769
 30
0.0
 10
64.6845320492
 20
113.156431707
 30
0.0
 10
64.747373026
 20
113.1926573856
 30
0.0
  0
SPLINE
  5
385
100
AcDbEntity
  8
0
100
AcDbSpline
 62
7
  6
CONTINUOUS
 70
0
 71
3
 72
15
 73
11
 74
0
 42
0.0000001
 43
0.0000001
 44
0.0000000001
 40
0.0
 40
0.0
 40
0.0
 40
0.0
 40
0.08687443
 40
0.1859454887
 40
0.302622316
 40
0.4356078489
 40
0.5796110529
 40
0.7267049564
 40
0.8696274254
 40
1.0
 40
1.0
 40
1.0
 40
1.0
 10
58.0702756443
 20
116.5727370755
 30
0.0
 10
58.0703250661
 20
116.5236576514
 30
0.0
 10
58.0996082424
 20
116.4176991004
 30
0.0
 10
58.2137975085
 20
116.2855405919
 30
0.0
 10
58.3828426433
 20
116.1803087818
 30
0.0
 10
58.5944506296
 20
116.1072056224
 30
0.0
 10
58.8324104541
 20
116.0708790345
 30
0.0
 10
59.0788637742
 20
116.0746263409
 30
0.0
 10
59.3130364508
 20
116.1177864117
 30
0.0
 10
59.4599096759
 20
116.1713121684
 30
0.0
 10
59.5237199831
 20
116.2080966329
 30
0.0
  0
SPLINE
  5
386
100
AcDbEntity
  8
0
100
AcDbSpline
 62
7
  6
CONTINUOUS
 70
0
 71
3
 72
9
 73
5
 74
0
 42
0.0000001
 43
0.0000001
 44
0.0000000001
 40
0.0
 40
0.0
 40
0.0
 40
0.0
 40
0.2560369494
 40
1.0
 40
1.0
 40
1.0
 40
1.0
 10
29.3411979765
 20
130.3917309371
 30
0.0
 10
29.1885268363
 20
129.0460616996
 30
0.0
 10
28.6614454827
 20
123.7828389405
 30
0.0
 10
28.4167729451
 20
118.4900866582
 30
0.0
 10
28.4167729451
 20
114.5549096343
 30
0.0
  0
SPLINE
  5
387
100
AcDbEntity
  8
0
100
AcDbSpline
 62
7
  6
CONTINUOUS
 70
0
 71
3
 72
9
 73
5
 74
0
 42
0.0000001
 43
0.0000001
 44
0.0000000001
 40
0.0
 40
0.0
 40
0.0
 40
0.0
 40
0.2560274448
 40
1.0
 40
1.0
 40
1.0
 40
1.0
 10
15.9608774303
 20
106.1473554334
 30
0.0
 10
15.7797960257
 20
104.548657204
 30
0.0
 10
15.1546177092
 20
98.2955751923
 30
0.0
 10
14.8644459296
 20
92.0075241095
 30
0.0
 10
14.8644459296
 20
87.332271409
 30
0.0
  0
SPLINE
  5
388
100
AcDbEntity
  8
0
100
AcDbSpline
 62
7
  6
CONTINUOUS
 70
0
 71
3
 72
9
 73
5
 74
0
 42
0.0000001
 43
0.0000001
 44
0.0000000001
 40
0.0
 40
0.0
 40
0.0
 40
0.0
 40
0.2569711422
 40
1.0
 40
1.0
 40
1.0
 40
1.0
 10
14.8644459296
 20
87.332271409
 30
0.0
 10
14.8644459296
 20
85.8255607209
 30
0.0
 10
14.9519219442
 20
79.9628063197
 30
0.0
 10
15.3979176798
 20
74.1033394214
 30
0.0
 10
15.9608774303
 20
69.7832298715
 30
0.0
  0
SPLINE
  5
389
100
AcDbEntity
  8
0
100
AcDbSpline
 62
7
  6
CONTINUOUS
 70
0
 71
3
 72
15
 73
11
 74
0
 42
0.0000001
 43
0.0000001
 44
0.0000000001
 40
0.0
 40
0.0
 40
0.0
 40
0.0
 40
0.0868744356
 40
0.1859455178
 40
0.3026223788
 40
0.4356079444
 40
0.579611164
 40
0.7267050633
 40
0.8696274838
 40
1.0
 40
1.0
 40
1.0
 40
1.0
 10
52.850780169
 20
119.5937193624
 30
0.0
 10
52.8508288611
 20
119.5453854792
 30
0.0
 10
52.8796672865
 20
119.4410364985
 30
0.0
 10
52.9921220575
 20
119.310885599
 30
0.0
 10
53.1585994037
 20
119.2072523888
 30
0.0
 10
53.3669930266
 20
119.1352598035
 30
0.0
 10
53.6013381524
 20
119.0994851626
 30
0.0
 10
53.8440476819
 20
119.1031756836
 30
0.0
 10
54.0746630682
 20
119.1456802751
 30
0.0
 10
54.2193050652
 20
119.1983931108
 30
0.0
 10
54.2821460297
 20
119.2346187823
 30
0.0
  0
SPLINE
  5
38A
100
AcDbEntity
  8
0
100
AcDbSpline
 62
7
  6
CONTINUOUS
 70
0
 71
3
 72
15
 73
11
 74
0
 42
0.0000001
 43
0.0000001
 44
0.0000000001
 40
0.0
 40
0.0
 40
0.0
 40
0.0
 40
0.0868743483
 40
0.1859450927
 40
0.302621391
 40
0.4356063212
 40
0.579609179
 40
0.726702966
 40
0.8696263059
 40
1.0
 40
1.0
 40
1.0
 40
1.0
 10
79.0138234199
 20
104.4888016113
 30
0.0
 10
79.0138721203
 20
104.4404683179
 30
0.0
 10
79.0427094756
 20
104.3361206851
 30
0.0
 10
79.1551616254
 20
104.205970791
 30
0.0
 10
79.3216354767
 20
104.102337786
 30
0.0
 10
79.5300253256
 20
104.0303445242
 30
0.0
 10
79.7643668325
 20
103.9945680667
 30
0.0
 10
80.0070739972
 20
103.9982561935
 30
0.0
 10
80.2376880803
 20
104.0407574942
 30
0.0
 10
80.3823314833
 20
104.0934658772
 30
0.0
 10
80.4451723116
 20
104.1296914709
 30
0.0
  0
SPLINE
  5
38B
100
AcDbEntity
  8
0
100
AcDbSpline
 62
7
  6
CONTINUOUS
 70
0
 71
3
 72
15
 73
11
 74
0
 42
0.0000001
 43
0.0000001
 44
0.0000000001
 40
0.0
 40
0.0
 40
0.0
 40
0.0
 40
0.0868743483
 40
0.1859450927
 40
0.302621391
 40
0.4356063212
 40
0.579609179
 40
0.726702966
 40
0.8696263059
 40
1.0
 40
1.0
 40
1.0
 40
1.0
 10
76.3975174368
 20
105.999292403
 30
0.0
 10
76.3975661373
 20
105.9509591097
 30
0.0
 10
76.4264034926
 20
105.8466114768
 30
0.0
 10
76.5388556423
 20
105.7164615827
 30
0.0
 10
76.7053294937
 20
105.6128285778
 30
0.0
 10
76.9137193425
 20
105.540835316
 30
0.0
 10
77.1480608495
 20
105.5050588584
 30
0.0
 10
77.3907680141
 20
105.5087469853
 30
0.0
 10
77.6213820973
 20
105.5512482859
 30
0.0
 10
77.7660255002
 20
105.6039566689
 30
0.0
 10
77.8288663285
 20
105.6401822626
 30
0.0
  0
SPLINE
  5
38C
100
AcDbEntity
  8
0
100
AcDbSpline
 62
7
  6
CONTINUOUS
 70
0
 71
3
 72
15
 73
11
 74
0
 42
0.0000001
 43
0.0000001
 44
0.0000000001
 40
0.0
 40
0.0
 40
0.0
 40
0.0
 40
0.0868743483
 40
0.1859450927
 40
0.302621391
 40
0.4356063212
 40
0.579609179
 40
0.726702966
 40
0.8696263059
 40
1.0
 40
1.0
 40
1.0
 40
1.0
 10
73.7812114538
 20
107.5097831947
 30
0.0
 10
73.7812601542
 20
107.4614499014
 30
0.0
 10
73.8100975096
 20
107.3571022685
 30
0.0
 10
73.9225496593
 20
107.2269523745
 30
0.0
 10
74.0890235106
 20
107.1233193695
 30
0.0
 10
74.2974133595
 20
107.0513261077
 30
0.0
 10
74.5317548664
 20
107.0155496502
 30
0.0
 10
74.7744620311
 20
107.019237777
 30
0.0
 10
75.0050761143
 20
107.0617390776
 30
0.0
 10
75.1497195172
 20
107.1144474607
 30
0.0
 10
75.2125603455
 20
107.1506730544
 30
0.0
  0
SPLINE
  5
38D
100
AcDbEntity
  8
0
100
AcDbSpline
 62
7
  6
CONTINUOUS
 70
0
 71
3
 72
15
 73
11
 74
0
 42
0.0000001
 43
0.0000001
 44
0.0000000001
 40
0.0
 40
0.0
 40
0.0
 40
0.0
 40
0.0868743483
 40
0.1859450928
 40
0.302621391
 40
0.4356063212
 40
0.579609179
 40
0.726702966
 40
0.8696263059
 40
1.0
 40
1.0
 40
1.0
 40
1.0
 10
71.1649054707
 20
109.0202739864
 30
0.0
 10
71.1649541712
 20
108.9719406931
 30
0.0
 10
71.1937915265
 20
108.8675930602
 30
0.0
 10
71.3062436762
 20
108.7374431662
 30
0.0
 10
71.4727175276
 20
108.6338101612
 30
0.0
 10
71.6811073765
 20
108.5618168994
 30
0.0
 10
71.9154488834
 20
108.5260404419
 30
0.0
 10
72.158156048
 20
108.5297285687
 30
0.0
 10
72.3887701312
 20
108.5722298693
 30
0.0
 10
72.5334135341
 20
108.6249382524
 30
0.0
 10
72.5962543625
 20
108.6611638461
 30
0.0
  0
SPLINE
  5
38E
100
AcDbEntity
  8
0
100
AcDbSpline
 62
7
  6
CONTINUOUS
 70
0
 71
3
 72
15
 73
11
 74
0
 42
0.0000001
 43
0.0000001
 44
0.0000000001
 40
0.0
 40
0.0
 40
0.0
 40
0.0
 40
0.0868743483
 40
0.1859450928
 40
0.302621391
 40
0.4356063212
 40
0.579609179
 40
0.726702966
 40
0.8696263059
 40
1.0
 40
1.0
 40
1.0
 40
1.0
 10
68.5485994877
 20
110.5307647782
 30
0.0
 10
68.5486481881
 20
110.4824314848
 30
0.0
 10
68.5774855435
 20
110.378083852
 30
0.0
 10
68.6899376932
 20
110.2479339579
 30
0.0
 10
68.8564115446
 20
110.1443009529
 30
0.0
 10
69.0648013934
 20
110.0723076911
 30
0.0
 10
69.2991429003
 20
110.0365312336
 30
0.0
 10
69.541850065
 20
110.0402193604
 30
0.0
 10
69.7724641482
 20
110.0827206611
 30
0.0
 10
69.9171075511
 20
110.1354290441
 30
0.0
 10
69.9799483794
 20
110.1716546378
 30
0.0
  0
SPLINE
  5
38F
100
AcDbEntity
  8
0
100
AcDbSpline
 62
7
  6
CONTINUOUS
 70
0
 71
3
 72
15
 73
11
 74
0
 42
0.0000001
 43
0.0000001
 44
0.0000000001
 40
0.0
 40
0.0
 40
0.0
 40
0.0
 40
0.0868743483
 40
0.1859450927
 40
0.302621391
 40
0.4356063212
 40
0.579609179
 40
0.726702966
 40
0.8696263059
 40
1.0
 40
1.0
 40
1.0
 40
1.0
 10
65.9322935047
 20
112.0412555699
 30
0.0
 10
65.9323422051
 20
111.9929222766
 30
0.0
 10
65.9611795604
 20
111.8885746437
 30
0.0
 10
66.0736317101
 20
111.7584247496
 30
0.0
 10
66.2401055615
 20
111.6547917447
 30
0.0
 10
66.4484954104
 20
111.5827984829
 30
0.0
 10
66.6828369173
 20
111.5470220253
 30
0.0
 10
66.9255440819
 20
111.5507101522
 30
0.0
 10
67.1561581651
 20
111.5932114528
 30
0.0
 10
67.300801568
 20
111.6459198358
 30
0.0
 10
67.3636423964
 20
111.6821454295
 30
0.0
  0
SPLINE
  5
390
100
AcDbEntity
  8
0
100
AcDbSpline
 62
7
  6
CONTINUOUS
 70
0
 71
3
 72
15
 73
11
 74
0
 42
0.0000001
 43
0.0000001
 44
0.0000000001
 40
0.0
 40
0.0
 40
0.0
 40
0.0
 40
0.0868743483
 40
0.1859450928
 40
0.302621391
 40
0.4356063212
 40
0.579609179
 40
0.726702966
 40
0.8696263059
 40
1.0
 40
1.0
 40
1.0
 40
1.0
 10
50.2344576064
 20
121.1042003202
 30
0.0
 10
50.2345063068
 20
121.0558670269
 30
0.0
 10
50.2633436622
 20
120.951519394
 30
0.0
 10
50.3757958119
 20
120.8213695
 30
0.0
 10
50.5422696633
 20
120.717736495
 30
0.0
 10
50.7506595121
 20
120.6457432332
 30
0.0
 10
50.985001019
 20
120.6099667757
 30
0.0
 10
51.2277081837
 20
120.6136549025
 30
0.0
 10
51.4583222669
 20
120.6561562031
 30
0.0
 10
51.6029656698
 20
120.7088645862
 30
0.0
 10
51.6658064981
 20
120.7450901799
 30
0.0
  0
SPLINE
  5
391
100
AcDbEntity
  8
0
100
AcDbSpline
 62
7
  6
CONTINUOUS
 70
0
 71
3
 72
15
 73
11
 74
0
 42
0.0000001
 43
0.0000001
 44
0.0000000001
 40
0.0
 40
0.0
 40
0.0
 40
0.0
 40
0.0868743483
 40
0.1859450927
 40
0.302621391
 40
0.4356063212
 40
0.579609179
 40
0.726702966
 40
0.8696263059
 40
1.0
 40
1.0
 40
1.0
 40
1.0
 10
47.6181516234
 20
122.614691112
 30
0.0
 10
47.6182003238
 20
122.5663578186
 30
0.0
 10
47.6470376791
 20
122.4620101858
 30
0.0
 10
47.7594898288
 20
122.3318602917
 30
0.0
 10
47.9259636802
 20
122.2282272867
 30
0.0
 10
48.1343535291
 20
122.1562340249
 30
0.0
 10
48.368695036
 20
122.1204575674
 30
0.0
 10
48.6114022006
 20
122.1241456942
 30
0.0
 10
48.8420162838
 20
122.1666469949
 30
0.0
 10
48.9866596867
 20
122.2193553779
 30
0.0
 10
49.0495005151
 20
122.2555809716
 30
0.0
  0
SPLINE
  5
392
100
AcDbEntity
  8
0
100
AcDbSpline
 62
7
  6
CONTINUOUS
 70
0
 71
3
 72
15
 73
11
 74
0
 42
0.0000001
 43
0.0000001
 44
0.0000000001
 40
0.0
 40
0.0
 40
0.0
 40
0.0
 40
0.0868743483
 40
0.1859450928
 40
0.302621391
 40
0.4356063212
 40
0.579609179
 40
0.726702966
 40
0.8696263059
 40
1.0
 40
1.0
 40
1.0
 40
1.0
 10
45.0018456403
 20
124.1251819037
 30
0.0
 10
45.0018943407
 20
124.0768486104
 30
0.0
 10
45.0307316961
 20
123.9725009775
 30
0.0
 10
45.1431838458
 20
123.8423510834
 30
0.0
 10
45.3096576972
 20
123.7387180785
 30
0.0
 10
45.518047546
 20
123.6667248167
 30
0.0
 10
45.752389053
 20
123.6309483591
 30
0.0
 10
45.9950962176
 20
123.634636486
 30
0.0
 10
46.2257103008
 20
123.6771377866
 30
0.0
 10
46.3703537037
 20
123.7298461696
 30
0.0
 10
46.433194532
 20
123.7660717633
 30
0.0
  0
SPLINE
  5
393
100
AcDbEntity
  8
0
100
AcDbSpline
 62
7
  6
CONTINUOUS
 70
0
 71
3
 72
15
 73
11
 74
0
 42
0.0000001
 43
0.0000001
 44
0.0000000001
 40
0.0
 40
0.0
 40
0.0
 40
0.0
 40
0.0868743483
 40
0.1859450928
 40
0.302621391
 40
0.4356063212
 40
0.579609179
 40
0.726702966
 40
0.8696263059
 40
1.0
 40
1.0
 40
1.0
 40
1.0
 10
42.3855396573
 20
125.6356726954
 30
0.0
 10
42.3855883577
 20
125.5873394021
 30
0.0
 10
42.414425713
 20
125.4829917692
 30
0.0
 10
42.5268778627
 20
125.3528418752
 30
0.0
 10
42.6933517141
 20
125.2492088702
 30
0.0
 10
42.901741563
 20
125.1772156084
 30
0.0
 10
43.1360830699
 20
125.1414391509
 30
0.0
 10
43.3787902345
 20
125.1451272777
 30
0.0
 10
43.6094043177
 20
125.1876285783
 30
0.0
 10
43.7540477206
 20
125.2403369614
 30
0.0
 10
43.816888549
 20
125.2765625551
 30
0.0
  0
SPLINE
  5
394
100
AcDbEntity
  8
0
100
AcDbSpline
 62
7
  6
CONTINUOUS
 70
0
 71
3
 72
15
 73
11
 74
0
 42
0.0000001
 43
0.0000001
 44
0.0000000001
 40
0.0
 40
0.0
 40
0.0
 40
0.0
 40
0.0868743483
 40
0.1859450928
 40
0.302621391
 40
0.4356063212
 40
0.579609179
 40
0.726702966
 40
0.8696263059
 40
1.0
 40
1.0
 40
1.0
 40
1.0
 10
39.7692336742
 20
127.1461634871
 30
0.0
 10
39.7692823747
 20
127.0978301938
 30
0.0
 10
39.79811973
 20
126.9934825609
 30
0.0
 10
39.9105718797
 20
126.8633326669
 30
0.0
 10
40.0770457311
 20
126.7596996619
 30
0.0
 10
40.2854355799
 20
126.6877064001
 30
0.0
 10
40.5197770869
 20
126.6519299426
 30
0.0
 10
40.7624842515
 20
126.6556180694
 30
0.0
 10
40.9930983347
 20
126.69811937
 30
0.0
 10
41.1377417376
 20
126.7508277531
 30
0.0
 10
41.2005825659
 20
126.7870533468
 30
0.0
  0
SPLINE
  5
395
100
AcDbEntity
  8
0
100
AcDbSpline
 62
7
  6
CONTINUOUS
 70
0
 71
3
 72
15
 73
11
 74
0
 42
0.0000001
 43
0.0000001
 44
0.0000000001
 40
0.0
 40
0.0
 40
0.0
 40
0.0
 40
0.0868743483
 40
0.1859450927
 40
0.302621391
 40
0.4356063212
 40
0.579609179
 40
0.726702966
 40
0.8696263059
 40
1.0
 40
1.0
 40
1.0
 40
1.0
 10
37.1529276912
 20
128.6566542789
 30
0.0
 10
37.1529763916
 20
128.6083209855
 30
0.0
 10
37.1818137469
 20
128.5039733527
 30
0.0
 10
37.2942658967
 20
128.3738234586
 30
0.0
 10
37.460739748
 20
128.2701904536
 30
0.0
 10
37.6691295969
 20
128.1981971918
 30
0.0
 10
37.9034711038
 20
128.1624207343
 30
0.0
 10
38.1461782685
 20
128.1661088611
 30
0.0
 10
38.3767923516
 20
128.2086101618
 30
0.0
 10
38.5214357546
 20
128.2613185448
 30
0.0
 10
38.5842765829
 20
128.2975441385
 30
0.0
  0
SPLINE
  5
396
100
AcDbEntity
  8
0
100
AcDbSpline
 62
7
  6
CONTINUOUS
 70
0
 71
3
 72
15
 73
11
 74
0
 42
0.0000001
 43
0.0000001
 44
0.0000000001
 40
0.0
 40
0.0
 40
0.0
 40
0.0
 40
0.0868743483
 40
0.1859450927
 40
0.302621391
 40
0.4356063212
 40
0.579609179
 40
0.726702966
 40
0.8696263059
 40
1.0
 40
1.0
 40
1.0
 40
1.0
 10
34.5366217081
 20
130.1671450706
 30
0.0
 10
34.5366704086
 20
130.1188117773
 30
0.0
 10
34.5655077639
 20
130.0144641444
 30
0.0
 10
34.6779599136
 20
129.8843142503
 30
0.0
 10
34.844433765
 20
129.7806812454
 30
0.0
 10
35.0528236138
 20
129.7086879836
 30
0.0
 10
35.2871651208
 20
129.672911526
 30
0.0
 10
35.5298722854
 20
129.6765996529
 30
0.0
 10
35.7604863686
 20
129.7191009535
 30
0.0
 10
35.9051297715
 20
129.7718093365
 30
0.0
 10
35.9679705998
 20
129.8080349302
 30
0.0
  0
SPLINE
  5
397
100
AcDbEntity
  8
0
100
AcDbSpline
 62
7
  6
CONTINUOUS
 70
0
 71
3
 72
11
 73
7
 74
0
 42
0.0000001
 43
0.0000001
 44
0.0000000001
 40
0.0
 40
0.0
 40
0.0
 40
0.0
 40
0.2183384984
 40
0.4521610561
 40
0.7118048012
 40
1.0
 40
1.0
 40
1.0
 40
1.0
 10
76.5746304319
 20
88.6089519237
 30
0.0
 10
76.6047316026
 20
88.6263291736
 30
0.0
 10
76.6611603442
 20
88.6734432649
 30
0.0
 10
76.7222542063
 20
88.7706268576
 30
0.0
 10
76.7597417726
 20
88.8903971488
 30
0.0
 10
76.7686103388
 20
88.9777134808
 30
0.0
 10
76.7695682631
 20
89.023580874
 30
0.0
  0
SPLINE
  5
398
100
AcDbEntity
  8
0
100
AcDbSpline
 62
7
  6
CONTINUOUS
 70
0
 71
3
 72
11
 73
7
 74
0
 42
0.0000001
 43
0.0000001
 44
0.0000000001
 40
0.0
 40
0.0
 40
0.0
 40
0.0
 40
0.2183384984
 40
0.4521610561
 40
0.7118048012
 40
1.0
 40
1.0
 40
1.0
 40
1.0
 10
73.9583244488
 20
90.1194427154
 30
0.0
 10
73.9884256195
 20
90.1368199654
 30
0.0
 10
74.0448543611
 20
90.1839340566
 30
0.0
 10
74.1059482233
 20
90.2811176493
 30
0.0
 10
74.1434357896
 20
90.4008879406
 30
0.0
 10
74.1523043558
 20
90.4882042726
 30
0.0
 10
74.1532622801
 20
90.5340716657
 30
0.0
  0
SPLINE
  5
399
100
AcDbEntity
  8
0
100
AcDbSpline
 62
7
  6
CONTINUOUS
 70
0
 71
3
 72
11
 73
7
 74
0
 42
0.0000001
 43
0.0000001
 44
0.0000000001
 40
0.0
 40
0.0
 40
0.0
 40
0.0
 40
0.2183384984
 40
0.4521610561
 40
0.7118048012
 40
1.0
 40
1.0
 40
1.0
 40
1.0
 10
71.3420184658
 20
91.6299335071
 30
0.0
 10
71.3721196365
 20
91.6473107571
 30
0.0
 10
71.4285483781
 20
91.6944248484
 30
0.0
 10
71.4896422402
 20
91.7916084411
 30
0.0
 10
71.5271298065
 20
91.9113787323
 30
0.0
 10
71.5359983727
 20
91.9986950643
 30
0.0
 10
71.5369562971
 20
92.0445624574
 30
0.0
  0
SPLINE
  5
39A
100
AcDbEntity
  8
0
100
AcDbSpline
 62
7
  6
CONTINUOUS
 70
0
 71
3
 72
11
 73
7
 74
0
 42
0.0000001
 43
0.0000001
 44
0.0000000001
 40
0.0
 40
0.0
 40
0.0
 40
0.0
 40
0.2183384984
 40
0.4521610561
 40
0.7118048012
 40
1.0
 40
1.0
 40
1.0
 40
1.0
 10
68.7257124827
 20
93.1404242988
 30
0.0
 10
68.7558136534
 20
93.1578015488
 30
0.0
 10
68.812242395
 20
93.2049156401
 30
0.0
 10
68.8733362572
 20
93.3020992328
 30
0.0
 10
68.9108238235
 20
93.421869524
 30
0.0
 10
68.9196923897
 20
93.509185856
 30
0.0
 10
68.920650314
 20
93.5550532492
 30
0.0
  0
SPLINE
  5
39B
100
AcDbEntity
  8
0
100
AcDbSpline
 62
7
  6
CONTINUOUS
 70
0
 71
3
 72
11
 73
7
 74
0
 42
0.0000001
 43
0.0000001
 44
0.0000000001
 40
0.0
 40
0.0
 40
0.0
 40
0.0
 40
0.2183384984
 40
0.4521610561
 40
0.7118048012
 40
1.0
 40
1.0
 40
1.0
 40
1.0
 10
66.1094064997
 20
94.6509150906
 30
0.0
 10
66.1395076704
 20
94.6682923405
 30
0.0
 10
66.195936412
 20
94.7154064318
 30
0.0
 10
66.2570302741
 20
94.8125900245
 30
0.0
 10
66.2945178404
 20
94.9323603157
 30
0.0
 10
66.3033864066
 20
95.0196766477
 30
0.0
 10
66.304344331
 20
95.0655440409
 30
0.0
  0
SPLINE
  5
39C
100
AcDbEntity
  8
0
100
AcDbSpline
 62
7
  6
CONTINUOUS
 70
0
 71
3
 72
11
 73
7
 74
0
 42
0.0000001
 43
0.0000001
 44
0.0000000001
 40
0.0
 40
0.0
 40
0.0
 40
0.0
 40
0.2183384984
 40
0.4521610561
 40
0.7118048012
 40
1.0
 40
1.0
 40
1.0
 40
1.0
 10
63.4931005167
 20
96.1614058823
 30
0.0
 10
63.5232016874
 20
96.1787831323
 30
0.0
 10
63.579630429
 20
96.2258972235
 30
0.0
 10
63.6407242911
 20
96.3230808162
 30
0.0
 10
63.6782118574
 20
96.4428511075
 30
0.0
 10
63.6870804236
 20
96.5301674395
 30
0.0
 10
63.6880383479
 20
96.5760348326
 30
0.0
  0
SPLINE
  5
39D
100
AcDbEntity
  8
0
100
AcDbSpline
 62
7
  6
CONTINUOUS
 70
0
 71
3
 72
11
 73
7
 74
0
 42
0.0000001
 43
0.0000001
 44
0.0000000001
 40
0.0
 40
0.0
 40
0.0
 40
0.0
 40
0.2183384984
 40
0.4521610561
 40
0.7118048012
 40
1.0
 40
1.0
 40
1.0
 40
1.0
 10
60.8767945336
 20
97.671896674
 30
0.0
 10
60.9068957043
 20
97.689273924
 30
0.0
 10
60.9633244459
 20
97.7363880153
 30
0.0
 10
61.024418308
 20
97.833571608
 30
0.0
 10
61.0619058743
 20
97.9533418992
 30
0.0
 10
61.0707744405
 20
98.0406582312
 30
0.0
 10
61.0717323649
 20
98.0865256243
 30
0.0
  0
SPLINE
  5
39E
100
AcDbEntity
  8
0
100
AcDbSpline
 62
7
  6
CONTINUOUS
 70
0
 71
3
 72
11
 73
7
 74
0
 42
0.0000001
 43
0.0000001
 44
0.0000000001
 40
0.0
 40
0.0
 40
0.0
 40
0.0
 40
0.2183384984
 40
0.4521610561
 40
0.7118048012
 40
1.0
 40
1.0
 40
1.0
 40
1.0
 10
58.2604885506
 20
99.1823874657
 30
0.0
 10
58.2905897213
 20
99.1997647157
 30
0.0
 10
58.3470184629
 20
99.246878807
 30
0.0
 10
58.408112325
 20
99.3440623997
 30
0.0
 10
58.4455998913
 20
99.4638326909
 30
0.0
 10
58.4544684575
 20
99.5511490229
 30
0.0
 10
58.4554263818
 20
99.5970164161
 30
0.0
  0
SPLINE
  5
39F
100
AcDbEntity
  8
0
100
AcDbSpline
 62
7
  6
CONTINUOUS
 70
0
 71
3
 72
11
 73
7
 74
0
 42
0.0000001
 43
0.0000001
 44
0.0000000001
 40
0.0
 40
0.0
 40
0.0
 40
0.0
 40
0.2183384984
 40
0.4521610561
 40
0.7118048012
 40
1.0
 40
1.0
 40
1.0
 40
1.0
 10
55.6441825675
 20
100.6928782575
 30
0.0
 10
55.6742837382
 20
100.7102555074
 30
0.0
 10
55.7307124798
 20
100.7573695987
 30
0.0
 10
55.791806342
 20
100.8545531914
 30
0.0
 10
55.8292939083
 20
100.9743234826
 30
0.0
 10
55.8381624745
 20
101.0616398146
 30
0.0
 10
55.8391203988
 20
101.1075072078
 30
0.0
  0
SPLINE
  5
3A0
100
AcDbEntity
  8
0
100
AcDbSpline
 62
7
  6
CONTINUOUS
 70
0
 71
3
 72
11
 73
7
 74
0
 42
0.0000001
 43
0.0000001
 44
0.0000000001
 40
0.0
 40
0.0
 40
0.0
 40
0.0
 40
0.2183384984
 40
0.4521610561
 40
0.7118048012
 40
1.0
 40
1.0
 40
1.0
 40
1.0
 10
53.0278765845
 20
102.2033690492
 30
0.0
 10
53.0579777552
 20
102.2207462992
 30
0.0
 10
53.1144064968
 20
102.2678603904
 30
0.0
 10
53.1755003589
 20
102.3650439831
 30
0.0
 10
53.2129879252
 20
102.4848142744
 30
0.0
 10
53.2218564914
 20
102.5721306064
 30
0.0
 10
53.2228144158
 20
102.6179979995
 30
0.0
  0
SPLINE
  5
3A1
100
AcDbEntity
  8
0
100
AcDbSpline
 62
7
  6
CONTINUOUS
 70
0
 71
3
 72
11
 73
7
 74
0
 42
0.0000001
 43
0.0000001
 44
0.0000000001
 40
0.0
 40
0.0
 40
0.0
 40
0.0
 40
0.2183384984
 40
0.4521610561
 40
0.7118048012
 40
1.0
 40
1.0
 40
1.0
 40
1.0
 10
50.4115706014
 20
103.7138598409
 30
0.0
 10
50.4416717721
 20
103.7312370909
 30
0.0
 10
50.4981005137
 20
103.7783511822
 30
0.0
 10
50.5591943759
 20
103.8755347749
 30
0.0
 10
50.5966819422
 20
103.9953050661
 30
0.0
 10
50.6055505084
 20
104.0826213981
 30
0.0
 10
50.6065084327
 20
104.1284887912
 30
0.0
  0
SPLINE
  5
3A2
100
AcDbEntity
  8
0
100
AcDbSpline
 62
7
  6
CONTINUOUS
 70
0
 71
3
 72
11
 73
7
 74
0
 42
0.0000001
 43
0.0000001
 44
0.0000000001
 40
0.0
 40
0.0
 40
0.0
 40
0.0
 40
0.2183384984
 40
0.4521610561
 40
0.7118048012
 40
1.0
 40
1.0
 40
1.0
 40
1.0
 10
47.7952646184
 20
105.2243506326
 30
0.0
 10
47.8253657891
 20
105.2417278826
 30
0.0
 10
47.8817945307
 20
105.2888419739
 30
0.0
 10
47.9428883928
 20
105.3860255666
 30
0.0
 10
47.9803759591
 20
105.5057958578
 30
0.0
 10
47.9892445253
 20
105.5931121898
 30
0.0
 10
47.9902024497
 20
105.638979583
 30
0.0
  0
SPLINE
  5
3A3
100
AcDbEntity
  8
0
100
AcDbSpline
 62
7
  6
CONTINUOUS
 70
0
 71
3
 72
11
 73
7
 74
0
 42
0.0000001
 43
0.0000001
 44
0.0000000001
 40
0.0
 40
0.0
 40
0.0
 40
0.0
 40
0.2183384984
 40
0.4521610561
 40
0.7118048012
 40
1.0
 40
1.0
 40
1.0
 40
1.0
 10
45.1789586354
 20
106.7348414244
 30
0.0
 10
45.209059806
 20
106.7522186743
 30
0.0
 10
45.2654885477
 20
106.7993327656
 30
0.0
 10
45.3265824098
 20
106.8965163583
 30
0.0
 10
45.3640699761
 20
107.0162866495
 30
0.0
 10
45.3729385423
 20
107.1036029815
 30
0.0
 10
45.3738964666
 20
107.1494703747
 30
0.0
  0
SPLINE
  5
3A4
100
AcDbEntity
  8
0
100
AcDbSpline
 62
7
  6
CONTINUOUS
 70
0
 71
3
 72
11
 73
7
 74
0
 42
0.0000001
 43
0.0000001
 44
0.0000000001
 40
0.0
 40
0.0
 40
0.0
 40
0.0
 40
0.2183384984
 40
0.4521610561
 40
0.7118048012
 40
1.0
 40
1.0
 40
1.0
 40
1.0
 10
42.5626526523
 20
108.2453322161
 30
0.0
 10
42.592753823
 20
108.2627094661
 30
0.0
 10
42.6491825646
 20
108.3098235573
 30
0.0
 10
42.7102764267
 20
108.40700715
 30
0.0
 10
42.747763993
 20
108.5267774413
 30
0.0
 10
42.7566325592
 20
108.6140937733
 30
0.0
 10
42.7575904836
 20
108.6599611664
 30
0.0
  0
SPLINE
  5
3A5
100
AcDbEntity
  8
0
100
AcDbSpline
 62
7
  6
CONTINUOUS
 70
0
 71
3
 72
11
 73
7
 74
0
 42
0.0000001
 43
0.0000001
 44
0.0000000001
 40
0.0
 40
0.0
 40
0.0
 40
0.0
 40
0.2183384984
 40
0.4521610561
 40
0.7118048012
 40
1.0
 40
1.0
 40
1.0
 40
1.0
 10
39.9463466693
 20
109.7558230078
 30
0.0
 10
39.97644784
 20
109.7732002578
 30
0.0
 10
40.0328765816
 20
109.8203143491
 30
0.0
 10
40.0939704437
 20
109.9174979418
 30
0.0
 10
40.13145801
 20
110.037268233
 30
0.0
 10
40.1403265762
 20
110.124584565
 30
0.0
 10
40.1412845005
 20
110.1704519581
 30
0.0
  0
SPLINE
  5
3A6
100
AcDbEntity
  8
0
100
AcDbSpline
 62
7
  6
CONTINUOUS
 70
0
 71
3
 72
11
 73
7
 74
0
 42
0.0000001
 43
0.0000001
 44
0.0000000001
 40
0.0
 40
0.0
 40
0.0
 40
0.0
 40
0.2183384984
 40
0.4521610561
 40
0.7118048012
 40
1.0
 40
1.0
 40
1.0
 40
1.0
 10
37.3300406862
 20
111.2663137995
 30
0.0
 10
37.3601418569
 20
111.2836910495
 30
0.0
 10
37.4165705985
 20
111.3308051408
 30
0.0
 10
37.4776644606
 20
111.4279887335
 30
0.0
 10
37.515152027
 20
111.5477590247
 30
0.0
 10
37.5240205932
 20
111.6350753567
 30
0.0
 10
37.5249785175
 20
111.6809427499
 30
0.0
  0
SPLINE
  5
3A7
100
AcDbEntity
  8
0
100
AcDbSpline
 62
7
  6
CONTINUOUS
 70
0
 71
3
 72
11
 73
7
 74
0
 42
0.0000001
 43
0.0000001
 44
0.0000000001
 40
0.0
 40
0.0
 40
0.0
 40
0.0
 40
0.2183384984
 40
0.4521610561
 40
0.7118048012
 40
1.0
 40
1.0
 40
1.0
 40
1.0
 10
34.7137347032
 20
112.7768045913
 30
0.0
 10
34.7438358739
 20
112.7941818412
 30
0.0
 10
34.8002646155
 20
112.8412959325
 30
0.0
 10
34.8613584776
 20
112.9384795252
 30
0.0
 10
34.8988460439
 20
113.0582498165
 30
0.0
 10
34.9077146101
 20
113.1455661484
 30
0.0
 10
34.9086725344
 20
113.1914335416
 30
0.0
  0
SPLINE
  5
3A8
100
AcDbEntity
  8
0
100
AcDbSpline
 62
7
  6
CONTINUOUS
 70
0
 71
3
 72
11
 73
7
 74
0
 42
0.0000001
 43
0.0000001
 44
0.0000000001
 40
0.0
 40
0.0
 40
0.0
 40
0.0
 40
0.2183384984
 40
0.4521610561
 40
0.7118048012
 40
1.0
 40
1.0
 40
1.0
 40
1.0
 10
32.0974287201
 20
114.287295383
 30
0.0
 10
32.1275298908
 20
114.304672633
 30
0.0
 10
32.1839586324
 20
114.3517867242
 30
0.0
 10
32.2450524946
 20
114.4489703169
 30
0.0
 10
32.2825400609
 20
114.5687406082
 30
0.0
 10
32.2914086271
 20
114.6560569402
 30
0.0
 10
32.2923665514
 20
114.7019243333
 30
0.0
  0
SPLINE
  5
3A9
100
AcDbEntity
  8
0
100
AcDbSpline
 62
7
  6
CONTINUOUS
 70
0
 71
3
 72
11
 73
7
 74
0
 42
0.0000001
 43
0.0000001
 44
0.0000000001
 40
0.0
 40
0.0
 40
0.0
 40
0.0
 40
0.2197252415
 40
0.4550483617
 40
0.7141094948
 40
1.0
 40
1.0
 40
1.0
 40
1.0
 10
19.2650278229
 20
87.0479054854
 30
0.0
 10
19.1428278446
 20
86.9616691351
 30
0.0
 10
18.9173686519
 20
86.7412044606
 30
0.0
 10
18.6778033656
 20
86.3121443803
 30
0.0
 10
18.5346172506
 20
85.7964877578
 30
0.0
 10
18.5060610141
 20
85.4244339876
 30
0.0
 10
18.5060610141
 20
85.2298315232
 30
0.0
  0
SPLINE
  5
3AA
100
AcDbEntity
  8
0
100
AcDbSpline
 62
7
  6
CONTINUOUS
 70
0
 71
3
 72
11
 73
7
 74
0
 42
0.0000001
 43
0.0000001
 44
0.0000000001
 40
0.0
 40
0.0
 40
0.0
 40
0.0
 40
0.2160686667
 40
0.4500092136
 40
0.710388093
 40
1.0
 40
1.0
 40
1.0
 40
1.0
 10
23.6665302813
 20
79.9621880829
 30
0.0
 10
23.7875996645
 20
80.0495399094
 30
0.0
 10
24.0104419987
 20
80.2747070539
 30
0.0
 10
24.2440867683
 20
80.7123486895
 30
0.0
 10
24.3829762236
 20
81.2398647985
 30
0.0
 10
24.4104272191
 20
81.6209145795
 30
0.0
 10
24.4104272191
 20
81.821021223
 30
0.0
  0
SPLINE
  5
3AB
100
AcDbEntity
  8
0
100
AcDbSpline
 62
7
  6
CONTINUOUS
 70
0
 71
3
 72
11
 73
7
 74
0
 42
0.0000001
 43
0.0000001
 44
0.0000000001
 40
0.0
 40
0.0
 40
0.0
 40
0.0
 40
0.2115361935
 40
0.4399005474
 40
0.7010029029
 40
1.0
 40
1.0
 40
1.0
 40
1.0
 10
77.170587812
 20
35.8803832504
 30
0.0
 10
77.1966288584
 20
35.8954113666
 30
0.0
 10
77.2449210133
 20
35.9379564632
 30
0.0
 10
77.2914658755
 20
36.0280216733
 30
0.0
 10
77.3128581414
 20
36.1391448213
 30
0.0
 10
77.3113137526
 20
36.2192472144
 30
0.0
 10
77.3072026462
 20
36.2615452409
 30
0.0
  0
SPLINE
  5
3AC
100
AcDbEntity
  8
0
100
AcDbSpline
 62
7
  6
CONTINUOUS
 70
0
 71
3
 72
11
 73
7
 74
0
 42
0.0000001
 43
0.0000001
 44
0.0000000001
 40
0.0
 40
0.0
 40
0.0
 40
0.0
 40
0.2115361935
 40
0.4399005474
 40
0.7010029029
 40
1.0
 40
1.0
 40
1.0
 40
1.0
 10
74.5542818289
 20
37.3908740421
 30
0.0
 10
74.5803228754
 20
37.4059021583
 30
0.0
 10
74.6286150303
 20
37.448447255
 30
0.0
 10
74.6751598924
 20
37.5385124651
 30
0.0
 10
74.6965521583
 20
37.649635613
 30
0.0
 10
74.6950077696
 20
37.7297380061
 30
0.0
 10
74.6908966631
 20
37.7720360326
 30
0.0
  0
SPLINE
  5
3AD
100
AcDbEntity
  8
0
100
AcDbSpline
 62
7
  6
CONTINUOUS
 70
0
 71
3
 72
11
 73
7
 74
0
 42
0.0000001
 43
0.0000001
 44
0.0000000001
 40
0.0
 40
0.0
 40
0.0
 40
0.0
 40
0.2115361935
 40
0.4399005474
 40
0.7010029029
 40
1.0
 40
1.0
 40
1.0
 40
1.0
 10
71.9379758459
 20
38.9013648339
 30
0.0
 10
71.9640168923
 20
38.91639295
 30
0.0
 10
72.0123090472
 20
38.9589380467
 30
0.0
 10
72.0588539094
 20
39.0490032568
 30
0.0
 10
72.0802461753
 20
39.1601264048
 30
0.0
 10
72.0787017865
 20
39.2402287978
 30
0.0
 10
72.0745906801
 20
39.2825268243
 30
0.0
  0
SPLINE
  5
3AE
100
AcDbEntity
  8
0
100
AcDbSpline
 62
7
  6
CONTINUOUS
 70
0
 71
3
 72
11
 73
7
 74
0
 42
0.0000001
 43
0.0000001
 44
0.0000000001
 40
0.0
 40
0.0
 40
0.0
 40
0.0
 40
0.2115361935
 40
0.4399005474
 40
0.7010029029
 40
1.0
 40
1.0
 40
1.0
 40
1.0
 10
69.3216698628
 20
40.4118556256
 30
0.0
 10
69.3477109093
 20
40.4268837418
 30
0.0
 10
69.3960030642
 20
40.4694288384
 30
0.0
 10
69.4425479263
 20
40.5594940485
 30
0.0
 10
69.4639401923
 20
40.6706171965
 30
0.0
 10
69.4623958035
 20
40.7507195895
 30
0.0
 10
69.458284697
 20
40.793017616
 30
0.0
  0
SPLINE
  5
3AF
100
AcDbEntity
  8
0
100
AcDbSpline
 62
7
  6
CONTINUOUS
 70
0
 71
3
 72
9
 73
5
 74
0
 42
0.0000001
 43
0.0000001
 44
0.0000000001
 40
0.0
 40
0.0
 40
0.0
 40
0.0
 40
0.4796991207
 40
1.0
 40
1.0
 40
1.0
 40
1.0
 10
65.2771727731
 20
124.984610012
 30
0.0
 10
65.2772075677
 20
125.1165181418
 30
0.0
 10
65.3318280936
 20
125.3934263326
 30
0.0
 10
65.4776462694
 20
125.6324392244
 30
0.0
 10
65.567200309
 20
125.7440184035
 30
0.0
  0
SPLINE
  5
3B0
100
AcDbEntity
  8
0
100
AcDbSpline
 62
7
  6
CONTINUOUS
 70
0
 71
3
 72
9
 73
5
 74
0
 42
0.0000001
 43
0.0000001
 44
0.0000000001
 40
0.0
 40
0.0
 40
0.0
 40
0.0
 40
0.2388057827
 40
1.0
 40
1.0
 40
1.0
 40
1.0
 10
65.567200309
 20
125.7440184035
 30
0.0
 10
65.5907040584
 20
125.7733027225
 30
0.0
 10
65.6933221246
 20
125.892553655
 30
0.0
 10
65.811432833
 20
125.9980436545
 30
0.0
 10
65.9064113834
 20
126.0708784005
 30
0.0
  0
SPLINE
  5
3B1
100
AcDbEntity
  8
0
100
AcDbSpline
 62
7
  6
CONTINUOUS
 70
0
 71
3
 72
9
 73
5
 74
0
 42
0.0000001
 43
0.0000001
 44
0.0000000001
 40
0.0
 40
0.0
 40
0.0
 40
0.0
 40
0.4795578301
 40
1.0
 40
1.0
 40
1.0
 40
1.0
 10
65.7544331985
 20
125.5568289074
 30
0.0
 10
65.754433279
 20
125.6690459699
 30
0.0
 10
65.8011326217
 20
125.9047014288
 30
0.0
 10
65.9256495475
 20
126.1078557616
 30
0.0
 10
66.0020954589
 20
126.2026575328
 30
0.0
  0
SPLINE
  5
3B2
100
AcDbEntity
  8
0
100
AcDbSpline
 62
7
  6
CONTINUOUS
 70
0
 71
3
 72
9
 73
5
 74
0
 42
0.0000001
 43
0.0000001
 44
0.0000000001
 40
0.0
 40
0.0
 40
0.0
 40
0.0
 40
0.2363590658
 40
1.0
 40
1.0
 40
1.0
 40
1.0
 10
66.0020954589
 20
126.2026575328
 30
0.0
 10
66.0268560509
 20
126.2333635304
 30
0.0
 10
66.137123293
 20
126.3588278481
 30
0.0
 10
66.2671252398
 20
126.4661506755
 30
0.0
 10
66.3719996019
 20
126.5385588531
 30
0.0
  0
SPLINE
  5
3B3
100
AcDbEntity
  8
0
100
AcDbSpline
 62
7
  6
CONTINUOUS
 70
0
 71
3
 72
17
 73
13
 74
0
 42
0.0000001
 43
0.0000001
 44
0.0000000001
 40
0.0
 40
0.0
 40
0.0
 40
0.0
 40
0.0428570857
 40
0.0874804902
 40
0.1353072483
 40
0.1872646415
 40
0.3045161819
 40
0.4381811554
 40
0.5825275796
 40
0.7296946759
 40
0.8713030684
 40
1.0
 40
1.0
 40
1.0
 40
1.0
 10
66.1045533269
 20
125.55724464
 30
0.0
 10
66.1044869869
 20
125.4917671477
 30
0.0
 10
66.1219377293
 20
125.3575315391
 30
0.0
 10
66.1987939154
 20
125.1636866218
 30
0.0
 10
66.3236451009
 20
124.9799161952
 30
0.0
 10
66.5586843833
 20
124.7438361245
 30
0.0
 10
66.9593249728
 20
124.4998485138
 30
0.0
 10
67.5354309465
 20
124.3073207329
 30
0.0
 10
68.1820080267
 20
124.2163975719
 30
0.0
 10
68.8466293933
 20
124.2347422052
 30
0.0
 10
69.4750164617
 20
124.3604376762
 30
0.0
 10
69.860582082
 20
124.5195098915
 30
0.0
 10
70.0308642212
 20
124.6178217436
 30
0.0
  0
SPLINE
  5
3B4
100
AcDbEntity
  8
0
100
AcDbSpline
 62
7
  6
CONTINUOUS
 70
0
 71
3
 72
11
 73
7
 74
0
 42
0.0000001
 43
0.0000001
 44
0.0000000001
 40
0.0
 40
0.0
 40
0.0
 40
0.0
 40
0.2176420824
 40
0.4509208091
 40
0.7108323144
 40
1.0
 40
1.0
 40
1.0
 40
1.0
 10
67.7644338588
 20
125.8017792884
 30
0.0
 10
67.7644338648
 20
125.8261382941
 30
0.0
 10
67.7734536883
 20
125.8769356904
 30
0.0
 10
67.8119494762
 20
125.9478130103
 30
0.0
 10
67.8729664693
 20
126.0117003483
 30
0.0
 10
67.9238413888
 20
126.0468712457
 30
0.0
 10
67.9518697512
 20
126.0630533317
 30
0.0
  0
SPLINE
  5
3B5
100
AcDbEntity
  8
0
100
AcDbSpline
 62
7
  6
CONTINUOUS
 70
0
 71
3
 72
11
 73
7
 74
0
 42
0.0000001
 43
0.0000001
 44
0.0000000001
 40
0.0
 40
0.0
 40
0.0
 40
0.0
 40
0.2372428732
 40
0.4999994739
 40
0.7627563609
 40
1.0
 40
1.0
 40
1.0
 40
1.0
 10
67.9518697512
 20
126.0630533317
 30
0.0
 10
68.0161193421
 20
126.1001476288
 30
0.0
 10
68.1655315007
 20
126.1542703345
 30
0.0
 10
68.4044173797
 20
126.180203455
 30
0.0
 10
68.6433036192
 20
126.1542714246
 30
0.0
 10
68.7927163653
 20
126.1001494609
 30
0.0
 10
68.8569664311
 20
126.0630555073
 30
0.0
  0
SPLINE
  5
3B6
100
AcDbEntity
  8
0
100
AcDbSpline
 62
7
  6
CONTINUOUS
 70
0
 71
3
 72
11
 73
7
 74
0
 42
0.0000001
 43
0.0000001
 44
0.0000000001
 40
0.0
 40
0.0
 40
0.0
 40
0.0
 40
0.2891681824
 40
0.5490798645
 40
0.7823583806
 40
1.0
 40
1.0
 40
1.0
 40
1.0
 10
68.8569664311
 20
126.0630555073
 30
0.0
 10
68.884995326
 20
126.0468733834
 30
0.0
 10
68.9358712252
 20
126.01170234
 30
0.0
 10
68.9968894672
 20
125.9478145097
 30
0.0
 10
69.0353860762
 20
125.8769364776
 30
0.0
 10
69.0444060978
 20
125.8261384826
 30
0.0
 10
69.0444060918
 20
125.8017792092
 30
0.0
  0
SPLINE
  5
3B7
100
AcDbEntity
  8
0
100
AcDbSpline
 62
7
  6
CONTINUOUS
 70
0
 71
3
 72
9
 73
5
 74
0
 42
0.0000001
 43
0.0000001
 44
0.0000000001
 40
0.0
 40
0.0
 40
0.0
 40
0.0
 40
0.2314392251
 40
1.0
 40
1.0
 40
1.0
 40
1.0
 10
76.7695674966
 20
45.5084417302
 30
0.0
 10
76.7688871729
 20
45.5405827288
 30
0.0
 10
76.7579462892
 20
45.6792629171
 30
0.0
 10
76.7196598683
 20
45.8149876263
 30
0.0
 10
76.6801003767
 20
45.9141449938
 30
0.0
  0
SPLINE
  5
3B8
100
AcDbEntity
  8
0
100
AcDbSpline
 62
7
  6
CONTINUOUS
 70
0
 71
3
 72
9
 73
5
 74
0
 42
0.0000001
 43
0.0000001
 44
0.0000000001
 40
0.0
 40
0.0
 40
0.0
 40
0.0
 40
0.2537913299
 40
1.0
 40
1.0
 40
1.0
 40
1.0
 10
77.3070061691
 20
98.8893469972
 30
0.0
 10
77.2326463844
 20
98.0567111212
 30
0.0
 10
76.9674009031
 20
94.7735273207
 30
0.0
 10
76.8146015753
 20
91.4810651189
 30
0.0
 10
76.7695682631
 20
89.023580874
 30
0.0
  0
SPLINE
  5
3B9
100
AcDbEntity
  8
0
100
AcDbSpline
 62
7
  6
CONTINUOUS
 70
0
 71
3
 72
9
 73
5
 74
0
 42
0.0000001
 43
0.0000001
 44
0.0000000001
 40
0.0
 40
0.0
 40
0.0
 40
0.0
 40
0.2537913299
 40
1.0
 40
1.0
 40
1.0
 40
1.0
 10
74.6907001861
 20
100.399837789
 30
0.0
 10
74.6163404014
 20
99.5672019129
 30
0.0
 10
74.3510949201
 20
96.2840181125
 30
0.0
 10
74.1982955923
 20
92.9915559106
 30
0.0
 10
74.1532622801
 20
90.5340716657
 30
0.0
  0
SPLINE
  5
3BA
100
AcDbEntity
  8
0
100
AcDbSpline
 62
7
  6
CONTINUOUS
 70
0
 71
3
 72
9
 73
5
 74
0
 42
0.0000001
 43
0.0000001
 44
0.0000000001
 40
0.0
 40
0.0
 40
0.0
 40
0.0
 40
0.2537913299
 40
1.0
 40
1.0
 40
1.0
 40
1.0
 10
72.074394203
 20
101.9103285807
 30
0.0
 10
72.0000344183
 20
101.0776927046
 30
0.0
 10
71.734788937
 20
97.7945089042
 30
0.0
 10
71.5819896092
 20
94.5020467023
 30
0.0
 10
71.5369562971
 20
92.0445624574
 30
0.0
  0
SPLINE
  5
3BB
100
AcDbEntity
  8
0
100
AcDbSpline
 62
7
  6
CONTINUOUS
 70
0
 71
3
 72
9
 73
5
 74
0
 42
0.0000001
 43
0.0000001
 44
0.0000000001
 40
0.0
 40
0.0
 40
0.0
 40
0.0
 40
0.2537913299
 40
1.0
 40
1.0
 40
1.0
 40
1.0
 10
69.45808822
 20
103.4208193724
 30
0.0
 10
69.3837284353
 20
102.5881834964
 30
0.0
 10
69.118482954
 20
99.3049996959
 30
0.0
 10
68.9656836262
 20
96.0125374941
 30
0.0
 10
68.920650314
 20
93.5550532492
 30
0.0
  0
SPLINE
  5
3BC
100
AcDbEntity
  8
0
100
AcDbSpline
 62
7
  6
CONTINUOUS
 70
0
 71
3
 72
9
 73
5
 74
0
 42
0.0000001
 43
0.0000001
 44
0.0000000001
 40
0.0
 40
0.0
 40
0.0
 40
0.0
 40
0.2537913299
 40
1.0
 40
1.0
 40
1.0
 40
1.0
 10
66.841782237
 20
104.9313101641
 30
0.0
 10
66.7674224522
 20
104.0986742881
 30
0.0
 10
66.5021769709
 20
100.8154904876
 30
0.0
 10
66.3493776431
 20
97.5230282858
 30
0.0
 10
66.304344331
 20
95.0655440409
 30
0.0
  0
SPLINE
  5
3BD
100
AcDbEntity
  8
0
100
AcDbSpline
 62
7
  6
CONTINUOUS
 70
0
 71
3
 72
9
 73
5
 74
0
 42
0.0000001
 43
0.0000001
 44
0.0000000001
 40
0.0
 40
0.0
 40
0.0
 40
0.0
 40
0.2537913299
 40
1.0
 40
1.0
 40
1.0
 40
1.0
 10
64.2254762539
 20
106.4418009559
 30
0.0
 10
64.1511164692
 20
105.6091650798
 30
0.0
 10
63.8858709879
 20
102.3259812794
 30
0.0
 10
63.7330716601
 20
99.0335190775
 30
0.0
 10
63.6880383479
 20
96.5760348326
 30
0.0
  0
SPLINE
  5
3BE
100
AcDbEntity
  8
0
100
AcDbSpline
 62
7
  6
CONTINUOUS
 70
0
 71
3
 72
9
 73
5
 74
0
 42
0.0000001
 43
0.0000001
 44
0.0000000001
 40
0.0
 40
0.0
 40
0.0
 40
0.0
 40
0.2537913299
 40
1.0
 40
1.0
 40
1.0
 40
1.0
 10
61.6091702709
 20
107.9522917476
 30
0.0
 10
61.5348104861
 20
107.1196558715
 30
0.0
 10
61.2695650048
 20
103.8364720711
 30
0.0
 10
61.1167656771
 20
100.5440098692
 30
0.0
 10
61.0717323649
 20
98.0865256243
 30
0.0
  0
SPLINE
  5
3BF
100
AcDbEntity
  8
0
100
AcDbSpline
 62
7
  6
CONTINUOUS
 70
0
 71
3
 72
9
 73
5
 74
0
 42
0.0000001
 43
0.0000001
 44
0.0000000001
 40
0.0
 40
0.0
 40
0.0
 40
0.0
 40
0.2537913299
 40
1.0
 40
1.0
 40
1.0
 40
1.0
 10
58.9928642878
 20
109.4627825393
 30
0.0
 10
58.9185045031
 20
108.6301466633
 30
0.0
 10
58.6532590218
 20
105.3469628628
 30
0.0
 10
58.500459694
 20
102.054500661
 30
0.0
 10
58.4554263818
 20
99.5970164161
 30
0.0
  0
SPLINE
  5
3C0
100
AcDbEntity
  8
0
100
AcDbSpline
 62
7
  6
CONTINUOUS
 70
0
 71
3
 72
9
 73
5
 74
0
 42
0.0000001
 43
0.0000001
 44
0.0000000001
 40
0.0
 40
0.0
 40
0.0
 40
0.0
 40
0.2537913299
 40
1.0
 40
1.0
 40
1.0
 40
1.0
 10
56.3765583048
 20
110.973273331
 30
0.0
 10
56.30219852
 20
110.140637455
 30
0.0
 10
56.0369530387
 20
106.8574536545
 30
0.0
 10
55.884153711
 20
103.5649914527
 30
0.0
 10
55.8391203988
 20
101.1075072078
 30
0.0
  0
SPLINE
  5
3C1
100
AcDbEntity
  8
0
100
AcDbSpline
 62
7
  6
CONTINUOUS
 70
0
 71
3
 72
9
 73
5
 74
0
 42
0.0000001
 43
0.0000001
 44
0.0000000001
 40
0.0
 40
0.0
 40
0.0
 40
0.0
 40
0.2537913299
 40
1.0
 40
1.0
 40
1.0
 40
1.0
 10
53.7602523217
 20
112.4837641228
 30
0.0
 10
53.685892537
 20
111.6511282467
 30
0.0
 10
53.4206470557
 20
108.3679444463
 30
0.0
 10
53.2678477279
 20
105.0754822444
 30
0.0
 10
53.2228144158
 20
102.6179979995
 30
0.0
  0
SPLINE
  5
3C2
100
AcDbEntity
  8
0
100
AcDbSpline
 62
7
  6
CONTINUOUS
 70
0
 71
3
 72
9
 73
5
 74
0
 42
0.0000001
 43
0.0000001
 44
0.0000000001
 40
0.0
 40
0.0
 40
0.0
 40
0.0
 40
0.2537913299
 40
1.0
 40
1.0
 40
1.0
 40
1.0
 10
51.1439463387
 20
113.9942549145
 30
0.0
 10
51.069586554
 20
113.1616190384
 30
0.0
 10
50.8043410727
 20
109.878435238
 30
0.0
 10
50.6515417449
 20
106.5859730361
 30
0.0
 10
50.6065084327
 20
104.1284887912
 30
0.0
  0
SPLINE
  5
3C3
100
AcDbEntity
  8
0
100
AcDbSpline
 62
7
  6
CONTINUOUS
 70
0
 71
3
 72
9
 73
5
 74
0
 42
0.0000001
 43
0.0000001
 44
0.0000000001
 40
0.0
 40
0.0
 40
0.0
 40
0.0
 40
0.2537913299
 40
1.0
 40
1.0
 40
1.0
 40
1.0
 10
48.5276403556
 20
115.5047457062
 30
0.0
 10
48.4532805709
 20
114.6721098302
 30
0.0
 10
48.1880350896
 20
111.3889260297
 30
0.0
 10
48.0352357618
 20
108.0964638279
 30
0.0
 10
47.9902024497
 20
105.638979583
 30
0.0
  0
SPLINE
  5
3C4
100
AcDbEntity
  8
0
100
AcDbSpline
 62
7
  6
CONTINUOUS
 70
0
 71
3
 72
9
 73
5
 74
0
 42
0.0000001
 43
0.0000001
 44
0.0000000001
 40
0.0
 40
0.0
 40
0.0
 40
0.0
 40
0.2537913299
 40
1.0
 40
1.0
 40
1.0
 40
1.0
 10
45.9113343726
 20
117.0152364979
 30
0.0
 10
45.8369745879
 20
116.1826006219
 30
0.0
 10
45.5717291066
 20
112.8994168214
 30
0.0
 10
45.4189297788
 20
109.6069546196
 30
0.0
 10
45.3738964666
 20
107.1494703747
 30
0.0
  0
SPLINE
  5
3C5
100
AcDbEntity
  8
0
100
AcDbSpline
 62
7
  6
CONTINUOUS
 70
0
 71
3
 72
9
 73
5
 74
0
 42
0.0000001
 43
0.0000001
 44
0.0000000001
 40
0.0
 40
0.0
 40
0.0
 40
0.0
 40
0.2537913299
 40
1.0
 40
1.0
 40
1.0
 40
1.0
 10
43.2950283896
 20
118.5257272897
 30
0.0
 10
43.2206686048
 20
117.6930914136
 30
0.0
 10
42.9554231235
 20
114.4099076132
 30
0.0
 10
42.8026237958
 20
111.1174454113
 30
0.0
 10
42.7575904836
 20
108.6599611664
 30
0.0
  0
SPLINE
  5
3C6
100
AcDbEntity
  8
0
100
AcDbSpline
 62
7
  6
CONTINUOUS
 70
0
 71
3
 72
9
 73
5
 74
0
 42
0.0000001
 43
0.0000001
 44
0.0000000001
 40
0.0
 40
0.0
 40
0.0
 40
0.0
 40
0.253045242
 40
1.0
 40
1.0
 40
1.0
 40
1.0
 10
76.7695674966
 20
45.5084417302
 30
0.0
 10
76.7800364344
 20
44.9492801068
 30
0.0
 10
76.8365115005
 20
42.7398671031
 30
0.0
 10
76.9538189773
 20
40.5319438451
 30
0.0
 10
77.0778858667
 20
38.8857549588
 30
0.0
  0
SPLINE
  5
3C7
100
AcDbEntity
  8
0
100
AcDbSpline
 62
7
  6
CONTINUOUS
 70
0
 71
3
 72
9
 73
5
 74
0
 42
0.0000001
 43
0.0000001
 44
0.0000000001
 40
0.0
 40
0.0
 40
0.0
 40
0.0
 40
0.2537913299
 40
1.0
 40
1.0
 40
1.0
 40
1.0
 10
40.6787224065
 20
120.0362180814
 30
0.0
 10
40.6043626218
 20
119.2035822053
 30
0.0
 10
40.3391171405
 20
115.9203984049
 30
0.0
 10
40.1863178127
 20
112.627936203
 30
0.0
 10
40.1412845005
 20
110.1704519581
 30
0.0
  0
SPLINE
  5
3C8
100
AcDbEntity
  8
0
100
AcDbSpline
 62
7
  6
CONTINUOUS
 70
0
 71
3
 72
9
 73
5
 74
0
 42
0.0000001
 43
0.0000001
 44
0.0000000001
 40
0.0
 40
0.0
 40
0.0
 40
0.0
 40
0.2537913299
 40
1.0
 40
1.0
 40
1.0
 40
1.0
 10
38.0624164235
 20
121.5467088731
 30
0.0
 10
37.9880566387
 20
120.7140729971
 30
0.0
 10
37.7228111574
 20
117.4308891966
 30
0.0
 10
37.5700118297
 20
114.1384269948
 30
0.0
 10
37.5249785175
 20
111.6809427499
 30
0.0
  0
SPLINE
  5
3C9
100
AcDbEntity
  8
0
100
AcDbSpline
 62
7
  6
CONTINUOUS
 70
0
 71
3
 72
9
 73
5
 74
0
 42
0.0000001
 43
0.0000001
 44
0.0000000001
 40
0.0
 40
0.0
 40
0.0
 40
0.0
 40
0.2537913299
 40
1.0
 40
1.0
 40
1.0
 40
1.0
 10
35.4461104404
 20
123.0571996648
 30
0.0
 10
35.3717506557
 20
122.2245637888
 30
0.0
 10
35.1065051744
 20
118.9413799884
 30
0.0
 10
34.9537058466
 20
115.6489177865
 30
0.0
 10
34.9086725344
 20
113.1914335416
 30
0.0
  0
SPLINE
  5
3CA
100
AcDbEntity
  8
0
100
AcDbSpline
 62
7
  6
CONTINUOUS
 70
0
 71
3
 72
9
 73
5
 74
0
 42
0.0000001
 43
0.0000001
 44
0.0000000001
 40
0.0
 40
0.0
 40
0.0
 40
0.0
 40
0.2537913299
 40
1.0
 40
1.0
 40
1.0
 40
1.0
 10
32.8298044574
 20
124.5676904566
 30
0.0
 10
32.7554446727
 20
123.7350545805
 30
0.0
 10
32.4901991913
 20
120.4518707801
 30
0.0
 10
32.3373998636
 20
117.1594085782
 30
0.0
 10
32.2923665514
 20
114.7019243333
 30
0.0
  0
SPLINE
  5
3CB
100
AcDbEntity
  8
0
100
AcDbSpline
 62
7
  6
CONTINUOUS
 70
0
 71
3
 72
17
 73
13
 74
0
 42
0.0000001
 43
0.0000001
 44
0.0000000001
 40
0.0
 40
0.0
 40
0.0
 40
0.0
 40
0.1282341905
 40
0.2692023748
 40
0.4160283212
 40
0.560603135
 40
0.6950271437
 40
0.8132005806
 40
0.8654661303
 40
0.9133734834
 40
0.9577598816
 40
1.0
 40
1.0
 40
1.0
 40
1.0
 10
18.5060610141
 20
85.2298315232
 30
0.0
 10
18.5060610141
 20
84.8840731132
 30
0.0
 10
18.6041483685
 20
84.1573273206
 30
0.0
 10
18.9711062837
 20
83.091551088
 30
0.0
 10
19.5346548652
 20
82.0647713799
 30
0.0
 10
20.2476504732
 20
81.1577410766
 30
0.0
 10
21.0506097143
 20
80.440601853
 30
0.0
 10
21.774021228
 20
80.0295028883
 30
0.0
 10
22.3406187117
 20
79.8607227113
 30
0.0
 10
22.7304661405
 20
79.8171869313
 30
0.0
 10
23.0943904804
 20
79.8536160545
 30
0.0
 10
23.3169807257
 20
79.9336215916
 30
0.0
 10
23.418235384
 20
79.9857649628
 30
0.0
  0
SPLINE
  5
3CC
100
AcDbEntity
  8
0
100
AcDbSpline
 62
7
  6
CONTINUOUS
 70
0
 71
3
 72
11
 73
7
 74
0
 42
0.0000001
 43
0.0000001
 44
0.0000000001
 40
0.0
 40
0.0
 40
0.0
 40
0.0
 40
0.2226046637
 40
0.4596671197
 40
0.7183815263
 40
1.0
 40
1.0
 40
1.0
 40
1.0
 10
31.793445827
 20
125.7431531643
 30
0.0
 10
31.7602873304
 20
125.7240085333
 30
0.0
 10
31.6977648923
 20
125.6734016551
 30
0.0
 10
31.6263969562
 20
125.5709030669
 30
0.0
 10
31.577819175
 20
125.4452181082
 30
0.0
 10
31.5616995444
 20
125.3530993801
 30
0.0
 10
31.5572596974
 20
125.3048643838
 30
0.0
  0
SPLINE
  5
3CD
100
AcDbEntity
  8
0
100
AcDbSpline
 62
7
  6
CONTINUOUS
 70
0
 71
3
 72
15
 73
11
 74
0
 42
0.0000001
 43
0.0000001
 44
0.0000000001
 40
0.0
 40
0.0
 40
0.0
 40
0.0
 40
0.0869334263
 40
0.1864332398
 40
0.3038601831
 40
0.4376938458
 40
0.5821973164
 40
0.729466879
 40
0.8712538361
 40
1.0
 40
1.0
 40
1.0
 40
1.0
 10
64.540753943
 20
119.3086327025
 30
0.0
 10
64.5406618838
 20
119.3587610328
 30
0.0
 10
64.5103584714
 20
119.4672172648
 30
0.0
 10
64.3919591947
 20
119.6015989743
 30
0.0
 10
64.2173401532
 20
119.7078444103
 30
0.0
 10
63.9993965937
 20
119.7805523658
 30
0.0
 10
63.755157852
 20
119.8147226151
 30
0.0
 10
63.5040451726
 20
119.8077484478
 30
0.0
 10
63.2667282668
 20
119.7600937656
 30
0.0
 10
63.1211039191
 20
119.6999587917
 30
0.0
 10
63.0568365074
 20
119.6627954677
 30
0.0
  0
SPLINE
  5
3CE
100
AcDbEntity
  8
0
100
AcDbSpline
 62
7
  6
CONTINUOUS
 70
0
 71
3
 72
11
 73
7
 74
0
 42
0.0000001
 43
0.0000001
 44
0.0000000001
 40
0.0
 40
0.0
 40
0.0
 40
0.0
 40
0.2205375523
 40
0.4561744228
 40
0.7147309632
 40
1.0
 40
1.0
 40
1.0
 40
1.0
 10
23.5783052295
 20
80.0831680477
 30
0.0
 10
23.6832882766
 20
80.1577578311
 30
0.0
 10
23.8783682308
 20
80.3451154157
 30
0.0
 10
24.0951897886
 20
80.706280569
 30
0.0
 10
24.2394242656
 20
81.1411325279
 30
0.0
 10
24.2839016614
 20
81.4571982972
 30
0.0
 10
24.2955065062
 20
81.6233766389
 30
0.0
  0
SPLINE
  5
3CF
100
AcDbEntity
  8
0
100
AcDbSpline
 62
7
  6
CONTINUOUS
 70
0
 71
3
 72
10
 73
6
 74
0
 42
0.0000001
 43
0.0000001
 44
0.0000000001
 40
0.0
 40
0.0
 40
0.0
 40
0.0
 40
0.545443242
 40
0.78015178
 40
1.0
 40
1.0
 40
1.0
 40
1.0
 10
58.3056401173
 20
116.9155154157
 30
0.0
 10
58.2376576249
 20
116.8762059598
 30
0.0
 10
58.1489940615
 20
116.7991554073
 30
0.0
 10
58.0817489422
 20
116.6702720224
 30
0.0
 10
58.0702437712
 20
116.6043893521
 30
0.0
 10
58.0702756443
 20
116.5727370755
 30
0.0
  0
SPLINE
  5
3D0
100
AcDbEntity
  8
0
100
AcDbSpline
 62
7
  6
CONTINUOUS
 70
0
 71
3
 72
11
 73
7
 74
0
 42
0.0000001
 43
0.0000001
 44
0.0000000001
 40
0.0
 40
0.0
 40
0.0
 40
0.0
 40
0.2897052941
 40
0.5490919993
 40
0.7822182535
 40
1.0
 40
1.0
 40
1.0
 40
1.0
 10
66.5305948067
 20
124.4749815159
 30
0.0
 10
66.4143142736
 20
124.5421145942
 30
0.0
 10
66.2033520231
 20
124.6874166871
 30
0.0
 10
65.9512224298
 20
124.9523900365
 30
0.0
 10
65.7917333696
 20
125.2455154322
 30
0.0
 10
65.754433126
 20
125.4558945619
 30
0.0
 10
65.7544331985
 20
125.5568289074
 30
0.0
  0
SPLINE
  5
3D1
100
AcDbEntity
  8
0
100
AcDbSpline
 62
7
  6
CONTINUOUS
 70
0
 71
3
 72
10
 73
6
 74
0
 42
0.0000001
 43
0.0000001
 44
0.0000000001
 40
0.0
 40
0.0
 40
0.0
 40
0.0
 40
0.54544301
 40
0.7801516313
 40
1.0
 40
1.0
 40
1.0
 40
1.0
 10
63.5477929955
 20
113.8893274611
 30
0.0
 10
63.4808435406
 20
113.8506153375
 30
0.0
 10
63.393527597
 20
113.7747351349
 30
0.0
 10
63.3273045785
 20
113.6478100564
 30
0.0
 10
63.3159742556
 20
113.5829284547
 30
0.0
 10
63.3160056574
 20
113.5517571204
 30
0.0
  0
SPLINE
  5
3D2
100
AcDbEntity
  8
0
100
AcDbSpline
 62
7
  6
CONTINUOUS
 70
0
 71
3
 72
11
 73
7
 74
0
 42
0.0000001
 43
0.0000001
 44
0.0000000001
 40
0.0
 40
0.0
 40
0.0
 40
0.0
 40
0.219823824
 40
0.4552786761
 40
0.7143219652
 40
1.0
 40
1.0
 40
1.0
 40
1.0
 10
19.1790122522
 20
87.1701684072
 30
0.0
 10
19.0534643615
 20
87.0802757788
 30
0.0
 10
18.8221213633
 20
86.8513192331
 30
0.0
 10
18.5763160747
 20
86.40771751
 30
0.0
 10
18.4293124974
 20
85.8755033352
 30
0.0
 10
18.3999945553
 20
85.4917374992
 30
0.0
 10
18.3999945553
 20
85.2910676364
 30
0.0
  0
SPLINE
  5
3D3
100
AcDbEntity
  8
0
100
AcDbSpline
 62
7
  6
CONTINUOUS
 70
0
 71
3
 72
9
 73
5
 74
0
 42
0.0000001
 43
0.0000001
 44
0.0000000001
 40
0.0
 40
0.0
 40
0.0
 40
0.0
 40
0.5115944796
 40
1.0
 40
1.0
 40
1.0
 40
1.0
 10
65.2742526618
 20
122.230526357
 30
0.0
 10
65.2216160575
 20
122.1381802284
 30
0.0
 10
65.1384836731
 20
121.9451777159
 30
0.0
 10
65.1089310825
 20
121.7365149554
 30
0.0
 10
65.1089220359
 20
121.6350389035
 30
0.0
  0
SPLINE
  5
3D4
100
AcDbEntity
  8
0
100
AcDbSpline
 62
7
  6
CONTINUOUS
 70
0
 71
3
 72
10
 73
6
 74
0
 42
0.0000001
 43
0.0000001
 44
0.0000000001
 40
0.0
 40
0.0
 40
0.0
 40
0.0
 40
0.2500630933
 40
0.6257243124
 40
1.0
 40
1.0
 40
1.0
 40
1.0
 10
79.1872512106
 20
85.2432234597
 30
0.0
 10
79.1872512106
 20
85.1733828035
 30
0.0
 10
79.1883817998
 20
84.9986248048
 30
0.0
 10
79.1871626249
 20
84.7193292465
 30
0.0
 10
79.1893274737
 20
84.5098848195
 30
0.0
 10
79.190019541
 20
84.4053548531
 30
0.0
  0
SPLINE
  5
3D5
100
AcDbEntity
  8
0
100
AcDbSpline
 62
7
  6
CONTINUOUS
 70
0
 71
3
 72
15
 73
11
 74
0
 42
0.0000001
 43
0.0000001
 44
0.0000000001
 40
0.0
 40
0.0
 40
0.0
 40
0.0
 40
0.1295142615
 40
0.271375575
 40
0.4182997095
 40
0.5622353777
 40
0.6954770493
 40
0.8125419251
 40
0.9122100428
 40
1.0
 40
1.0
 40
1.0
 40
1.0
 10
31.0196125717
 20
115.4368410539
 30
0.0
 10
31.0183804283
 20
115.3593914664
 30
0.0
 10
31.0374818157
 20
115.196559207
 30
0.0
 10
31.1150016499
 20
114.9574027499
 30
0.0
 10
31.2366761951
 20
114.7275263423
 30
0.0
 10
31.3923804589
 20
114.5256578895
 30
0.0
 10
31.5698265346
 20
114.3678775865
 30
0.0
 10
31.7556843588
 20
114.2667575158
 30
0.0
 10
31.9384881701
 20
114.231032081
 30
0.0
 10
32.0519568973
 20
114.2610447352
 30
0.0
 10
32.0974287201
 20
114.287295383
 30
0.0
  0
SPLINE
  5
3D6
100
AcDbEntity
  8
0
100
AcDbSpline
 62
7
  6
CONTINUOUS
 70
0
 71
3
 72
15
 73
11
 74
0
 42
0.0000001
 43
0.0000001
 44
0.0000000001
 40
0.0
 40
0.0
 40
0.0
 40
0.0
 40
0.0869289609
 40
0.1864101666
 40
0.303805153
 40
0.437602933
 40
0.5820856113
 40
0.7293488824
 40
0.8711862542
 40
1.0
 40
1.0
 40
1.0
 40
1.0
 10
92.7491016245
 20
111.4296137206
 30
0.0
 10
92.7490105069
 20
111.4794052566
 30
0.0
 10
92.7189355181
 20
111.5871254217
 30
0.0
 10
92.6014026095
 20
111.7206327679
 30
0.0
 10
92.4280370682
 20
111.8262203062
 30
0.0
 10
92.2116285334
 20
111.898524996
 30
0.0
 10
91.9690740063
 20
111.9325913309
 30
0.0
 10
91.7196144697
 20
111.925797123
 30
0.0
 10
91.4838046839
 20
111.8786152579
 30
0.0
 10
91.3389696594
 20
111.8191043485
 30
0.0
 10
91.2750963717
 20
111.7821709544
 30
0.0
  0
SPLINE
  5
3D7
100
AcDbEntity
  8
0
100
AcDbSpline
 62
7
  6
CONTINUOUS
 70
0
 71
3
 72
15
 73
11
 74
0
 42
0.0000001
 43
0.0000001
 44
0.0000000001
 40
0.0
 40
0.0
 40
0.0
 40
0.0
 40
0.1295142615
 40
0.271375575
 40
0.4182997095
 40
0.5622353777
 40
0.6954770493
 40
0.8125419251
 40
0.9122100428
 40
1.0
 40
1.0
 40
1.0
 40
1.0
 10
33.6359185547
 20
113.9263502622
 30
0.0
 10
33.6346864113
 20
113.8489006747
 30
0.0
 10
33.6537877987
 20
113.6860684152
 30
0.0
 10
33.7313076329
 20
113.4469119582
 30
0.0
 10
33.8529821782
 20
113.2170355505
 30
0.0
 10
34.008686442
 20
113.0151670977
 30
0.0
 10
34.1861325177
 20
112.8573867948
 30
0.0
 10
34.3719903419
 20
112.7562667241
 30
0.0
 10
34.5547941532
 20
112.7205412893
 30
0.0
 10
34.6682628804
 20
112.7505539434
 30
0.0
 10
34.7137347032
 20
112.7768045913
 30
0.0
  0
SPLINE
  5
3D8
100
AcDbEntity
  8
0
100
AcDbSpline
 62
7
  6
CONTINUOUS
 70
0
 71
3
 72
15
 73
11
 74
0
 42
0.0000001
 43
0.0000001
 44
0.0000000001
 40
0.0
 40
0.0
 40
0.0
 40
0.0
 40
0.1295142615
 40
0.271375575
 40
0.4182997095
 40
0.5622353777
 40
0.6954770493
 40
0.8125419251
 40
0.9122100428
 40
1.0
 40
1.0
 40
1.0
 40
1.0
 10
36.2522245378
 20
112.4158594705
 30
0.0
 10
36.2509923943
 20
112.338409883
 30
0.0
 10
36.2700937818
 20
112.1755776235
 30
0.0
 10
36.347613616
 20
111.9364211664
 30
0.0
 10
36.4692881612
 20
111.7065447588
 30
0.0
 10
36.624992425
 20
111.504676306
 30
0.0
 10
36.8024385007
 20
111.346896003
 30
0.0
 10
36.9882963249
 20
111.2457759324
 30
0.0
 10
37.1711001362
 20
111.2100504976
 30
0.0
 10
37.2845688634
 20
111.2400631517
 30
0.0
 10
37.3300406862
 20
111.2663137995
 30
0.0
  0
SPLINE
  5
3D9
100
AcDbEntity
  8
0
100
AcDbSpline
 62
7
  6
CONTINUOUS
 70
0
 71
3
 72
15
 73
11
 74
0
 42
0.0000001
 43
0.0000001
 44
0.0000000001
 40
0.0
 40
0.0
 40
0.0
 40
0.0
 40
0.1295142615
 40
0.271375575
 40
0.4182997095
 40
0.5622353777
 40
0.6954770493
 40
0.8125419251
 40
0.9122100428
 40
1.0
 40
1.0
 40
1.0
 40
1.0
 10
38.8685305208
 20
110.9053686787
 30
0.0
 10
38.8672983774
 20
110.8279190912
 30
0.0
 10
38.8863997648
 20
110.6650868318
 30
0.0
 10
38.963919599
 20
110.4259303747
 30
0.0
 10
39.0855941442
 20
110.1960539671
 30
0.0
 10
39.2412984081
 20
109.9941855143
 30
0.0
 10
39.4187444838
 20
109.8364052113
 30
0.0
 10
39.6046023079
 20
109.7352851406
 30
0.0
 10
39.7874061193
 20
109.6995597058
 30
0.0
 10
39.9008748465
 20
109.72957236
 30
0.0
 10
39.9463466693
 20
109.7558230078
 30
0.0
  0
SPLINE
  5
3DA
100
AcDbEntity
  8
0
100
AcDbSpline
 62
7
  6
CONTINUOUS
 70
0
 71
3
 72
15
 73
11
 74
0
 42
0.0000001
 43
0.0000001
 44
0.0000000001
 40
0.0
 40
0.0
 40
0.0
 40
0.0
 40
0.1295142615
 40
0.271375575
 40
0.4182997095
 40
0.5622353777
 40
0.6954770493
 40
0.8125419251
 40
0.9122100428
 40
1.0
 40
1.0
 40
1.0
 40
1.0
 10
41.4848365039
 20
109.394877887
 30
0.0
 10
41.4836043604
 20
109.3174282995
 30
0.0
 10
41.5027057479
 20
109.15459604
 30
0.0
 10
41.5802255821
 20
108.915439583
 30
0.0
 10
41.7019001273
 20
108.6855631754
 30
0.0
 10
41.8576043911
 20
108.4836947226
 30
0.0
 10
42.0350504668
 20
108.3259144196
 30
0.0
 10
42.220908291
 20
108.2247943489
 30
0.0
 10
42.4037121023
 20
108.1890689141
 30
0.0
 10
42.5171808295
 20
108.2190815683
 30
0.0
 10
42.5626526523
 20
108.2453322161
 30
0.0
  0
SPLINE
  5
3DB
100
AcDbEntity
  8
0
100
AcDbSpline
 62
7
  6
CONTINUOUS
 70
0
 71
3
 72
11
 73
7
 74
0
 42
0.0000001
 43
0.0000001
 44
0.0000000001
 40
0.0
 40
0.0
 40
0.0
 40
0.0
 40
0.2176420824
 40
0.4509208091
 40
0.7108323144
 40
1.0
 40
1.0
 40
1.0
 40
1.0
 10
69.0444060918
 20
125.8017792092
 30
0.0
 10
69.0444060859
 20
125.7774202035
 30
0.0
 10
69.0353862623
 20
125.7266228071
 30
0.0
 10
68.9968904744
 20
125.6557454872
 30
0.0
 10
68.9358734813
 20
125.5918581492
 30
0.0
 10
68.8849985618
 20
125.5566872519
 30
0.0
 10
68.8569701994
 20
125.5405051659
 30
0.0
  0
SPLINE
  5
3DC
100
AcDbEntity
  8
0
100
AcDbSpline
 62
7
  6
CONTINUOUS
 70
0
 71
3
 72
15
 73
11
 74
0
 42
0.0000001
 43
0.0000001
 44
0.0000000001
 40
0.0
 40
0.0
 40
0.0
 40
0.0
 40
0.1295142615
 40
0.271375575
 40
0.4182997095
 40
0.5622353777
 40
0.6954770493
 40
0.8125419251
 40
0.9122100428
 40
1.0
 40
1.0
 40
1.0
 40
1.0
 10
44.1011424869
 20
107.8843870953
 30
0.0
 10
44.0999103435
 20
107.8069375078
 30
0.0
 10
44.1190117309
 20
107.6441052483
 30
0.0
 10
44.1965315651
 20
107.4049487912
 30
0.0
 10
44.3182061103
 20
107.1750723836
 30
0.0
 10
44.4739103742
 20
106.9732039308
 30
0.0
 10
44.6513564499
 20
106.8154236279
 30
0.0
 10
44.837214274
 20
106.7143035572
 30
0.0
 10
45.0200180854
 20
106.6785781224
 30
0.0
 10
45.1334868126
 20
106.7085907765
 30
0.0
 10
45.1789586354
 20
106.7348414244
 30
0.0
  0
SPLINE
  5
3DD
100
AcDbEntity
  8
0
100
AcDbSpline
 62
7
  6
CONTINUOUS
 70
0
 71
3
 72
13
 73
9
 74
0
 42
0.0000001
 43
0.0000001
 44
0.0000000001
 40
0.0
 40
0.0
 40
0.0
 40
0.0
 40
0.0934292733
 40
0.1922094655
 40
0.3003297328
 40
0.4198518861
 40
0.6925221632
 40
1.0
 40
1.0
 40
1.0
 40
1.0
 10
90.1327956415
 20
112.9401045123
 30
0.0
 10
90.1327420931
 20
112.9693662108
 30
0.0
 10
90.1232404427
 20
113.0298978527
 30
0.0
 10
90.0820540844
 20
113.1156687161
 30
0.0
 10
90.0162425708
 20
113.1950111288
 30
0.0
 10
89.8935348921
 20
113.2937733797
 30
0.0
 10
89.6912595798
 20
113.3859550306
 30
0.0
 10
89.5116774795
 20
113.4216621678
 30
0.0
 10
89.4158479894
 20
113.4311808103
 30
0.0
  0
SPLINE
  5
3DE
100
AcDbEntity
  8
0
100
AcDbSpline
 62
7
  6
CONTINUOUS
 70
0
 71
3
 72
9
 73
5
 74
0
 42
0.0000001
 43
0.0000001
 44
0.0000000001
 40
0.0
 40
0.0
 40
0.0
 40
0.0
 40
0.51585265
 40
1.0
 40
1.0
 40
1.0
 40
1.0
 10
89.4158479894
 20
113.4311808103
 30
0.0
 10
89.2996923177
 20
113.4427184311
 30
0.0
 10
89.0713273445
 20
113.4386879769
 30
0.0
 10
88.8491421544
 20
113.3815206176
 30
0.0
 10
88.7486945733
 20
113.3377925787
 30
0.0
  0
SPLINE
  5
3DF
100
AcDbEntity
  8
0
100
AcDbSpline
 62
7
  6
CONTINUOUS
 70
0
 71
3
 72
9
 73
5
 74
0
 42
0.0000001
 43
0.0000001
 44
0.0000000001
 40
0.0
 40
0.0
 40
0.0
 40
0.0
 40
0.2565381658
 40
1.0
 40
1.0
 40
1.0
 40
1.0
 10
88.7486945733
 20
113.3377925787
 30
0.0
 10
88.7408049744
 20
113.3343579845
 30
0.0
 10
88.7102282753
 20
113.3205689943
 30
0.0
 10
88.680378352
 20
113.3051445349
 30
0.0
 10
88.6587903886
 20
113.2926617461
 30
0.0
  0
SPLINE
  5
3E0
100
AcDbEntity
  8
0
100
AcDbSpline
 62
7
  6
CONTINUOUS
 70
0
 71
3
 72
15
 73
11
 74
0
 42
0.0000001
 43
0.0000001
 44
0.0000000001
 40
0.0
 40
0.0
 40
0.0
 40
0.0
 40
0.1295142615
 40
0.271375575
 40
0.4182997095
 40
0.5622353777
 40
0.6954770493
 40
0.8125419251
 40
0.9122100428
 40
1.0
 40
1.0
 40
1.0
 40
1.0
 10
46.7174484699
 20
106.3738963036
 30
0.0
 10
46.7162163265
 20
106.2964467161
 30
0.0
 10
46.735317714
 20
106.1336144566
 30
0.0
 10
46.8128375482
 20
105.8944579995
 30
0.0
 10
46.9345120934
 20
105.6645815919
 30
0.0
 10
47.0902163572
 20
105.4627131391
 30
0.0
 10
47.2676624329
 20
105.3049328361
 30
0.0
 10
47.4535202571
 20
105.2038127655
 30
0.0
 10
47.6363240684
 20
105.1680873307
 30
0.0
 10
47.7497927956
 20
105.1980999848
 30
0.0
 10
47.7952646184
 20
105.2243506326
 30
0.0
  0
SPLINE
  5
3E1
100
AcDbEntity
  8
0
100
AcDbSpline
 62
7
  6
CONTINUOUS
 70
0
 71
3
 72
15
 73
11
 74
0
 42
0.0000001
 43
0.0000001
 44
0.0000000001
 40
0.0
 40
0.0
 40
0.0
 40
0.0
 40
0.1295142615
 40
0.271375575
 40
0.4182997095
 40
0.5622353777
 40
0.6954770493
 40
0.8125419251
 40
0.9122100428
 40
1.0
 40
1.0
 40
1.0
 40
1.0
 10
49.333754453
 20
104.8634055118
 30
0.0
 10
49.3325223096
 20
104.7859559243
 30
0.0
 10
49.351623697
 20
104.6231236649
 30
0.0
 10
49.4291435312
 20
104.3839672078
 30
0.0
 10
49.5508180764
 20
104.1540908002
 30
0.0
 10
49.7065223402
 20
103.9522223474
 30
0.0
 10
49.883968416
 20
103.7944420444
 30
0.0
 10
50.0698262401
 20
103.6933219737
 30
0.0
 10
50.2526300515
 20
103.6575965389
 30
0.0
 10
50.3660987787
 20
103.6876091931
 30
0.0
 10
50.4115706014
 20
103.7138598409
 30
0.0
  0
SPLINE
  5
3E2
100
AcDbEntity
  8
0
100
AcDbSpline
 62
7
  6
CONTINUOUS
 70
0
 71
3
 72
9
 73
5
 74
0
 42
0.0000001
 43
0.0000001
 44
0.0000000001
 40
0.0
 40
0.0
 40
0.0
 40
0.0
 40
0.4847340893
 40
1.0
 40
1.0
 40
1.0
 40
1.0
 10
87.5164896584
 20
114.4505953041
 30
0.0
 10
87.5164332746
 20
114.4814064548
 30
0.0
 10
87.5058591998
 20
114.5453127788
 30
0.0
 10
87.476656511
 20
114.6028070961
 30
0.0
 10
87.4584276439
 20
114.6300173025
 30
0.0
  0
SPLINE
  5
3E3
100
AcDbEntity
  8
0
100
AcDbSpline
 62
7
  6
CONTINUOUS
 70
0
 71
3
 72
10
 73
6
 74
0
 42
0.0000001
 43
0.0000001
 44
0.0000000001
 40
0.0
 40
0.0
 40
0.0
 40
0.0
 40
0.5186039276
 40
0.7708010892
 40
1.0
 40
1.0
 40
1.0
 40
1.0
 10
86.9647270825
 20
114.9152669581
 30
0.0
 10
86.8052092878
 20
114.9509692763
 30
0.0
 10
86.5562321502
 20
114.9615748114
 30
0.0
 10
86.2466699847
 20
114.8979456206
 30
0.0
 10
86.1050254323
 20
114.8393155798
 30
0.0
 10
86.0424844056
 20
114.8031525378
 30
0.0
  0
SPLINE
  5
3E4
100
AcDbEntity
  8
0
100
AcDbSpline
 62
7
  6
CONTINUOUS
 70
0
 71
3
 72
15
 73
11
 74
0
 42
0.0000001
 43
0.0000001
 44
0.0000000001
 40
0.0
 40
0.0
 40
0.0
 40
0.0
 40
0.1295142615
 40
0.271375575
 40
0.4182997095
 40
0.5622353777
 40
0.6954770493
 40
0.8125419251
 40
0.9122100428
 40
1.0
 40
1.0
 40
1.0
 40
1.0
 10
51.950060436
 20
103.3529147201
 30
0.0
 10
51.9488282926
 20
103.2754651326
 30
0.0
 10
51.96792968
 20
103.1126328731
 30
0.0
 10
52.0454495142
 20
102.8734764161
 30
0.0
 10
52.1671240595
 20
102.6436000085
 30
0.0
 10
52.3228283233
 20
102.4417315557
 30
0.0
 10
52.500274399
 20
102.2839512527
 30
0.0
 10
52.6861322232
 20
102.182831182
 30
0.0
 10
52.8689360345
 20
102.1471057472
 30
0.0
 10
52.9824047617
 20
102.1771184014
 30
0.0
 10
53.0278765845
 20
102.2033690492
 30
0.0
  0
SPLINE
  5
3E5
100
AcDbEntity
  8
0
100
AcDbSpline
 62
7
  6
CONTINUOUS
 70
0
 71
3
 72
9
 73
5
 74
0
 42
0.0000001
 43
0.0000001
 44
0.0000000001
 40
0.0
 40
0.0
 40
0.0
 40
0.0
 40
0.4847340893
 40
1.0
 40
1.0
 40
1.0
 40
1.0
 10
84.9001836754
 20
115.9610860958
 30
0.0
 10
84.9001272915
 20
115.9918972465
 30
0.0
 10
84.8895532168
 20
116.0558035705
 30
0.0
 10
84.860350528
 20
116.1132978879
 30
0.0
 10
84.8421216608
 20
116.1405080942
 30
0.0
  0
SPLINE
  5
3E6
100
AcDbEntity
  8
0
100
AcDbSpline
 62
7
  6
CONTINUOUS
 70
0
 71
3
 72
10
 73
6
 74
0
 42
0.0000001
 43
0.0000001
 44
0.0000000001
 40
0.0
 40
0.0
 40
0.0
 40
0.0
 40
0.5186039276
 40
0.7708010892
 40
1.0
 40
1.0
 40
1.0
 40
1.0
 10
84.3484210995
 20
116.4257577498
 30
0.0
 10
84.1889033047
 20
116.461460068
 30
0.0
 10
83.9399261671
 20
116.4720656031
 30
0.0
 10
83.6303640017
 20
116.4084364123
 30
0.0
 10
83.4887194492
 20
116.3498063716
 30
0.0
 10
83.4261784225
 20
116.3136433295
 30
0.0
  0
SPLINE
  5
3E7
100
AcDbEntity
  8
0
100
AcDbSpline
 62
7
  6
CONTINUOUS
 70
0
 71
3
 72
9
 73
5
 74
0
 42
0.0000001
 43
0.0000001
 44
0.0000000001
 40
0.0
 40
0.0
 40
0.0
 40
0.0
 40
0.4847340893
 40
1.0
 40
1.0
 40
1.0
 40
1.0
 10
82.2838776923
 20
117.4715768875
 30
0.0
 10
82.2838213085
 20
117.5023880382
 30
0.0
 10
82.2732472338
 20
117.5662943622
 30
0.0
 10
82.2440445449
 20
117.6237886796
 30
0.0
 10
82.2258156778
 20
117.6509988859
 30
0.0
  0
SPLINE
  5
3E8
100
AcDbEntity
  8
0
100
AcDbSpline
 62
7
  6
CONTINUOUS
 70
0
 71
3
 72
10
 73
6
 74
0
 42
0.0000001
 43
0.0000001
 44
0.0000000001
 40
0.0
 40
0.0
 40
0.0
 40
0.0
 40
0.5186039276
 40
0.7708010892
 40
1.0
 40
1.0
 40
1.0
 40
1.0
 10
81.7321151164
 20
117.9362485416
 30
0.0
 10
81.5725973217
 20
117.9719508597
 30
0.0
 10
81.3236201841
 20
117.9825563948
 30
0.0
 10
81.0140580186
 20
117.918927204
 30
0.0
 10
80.8724134662
 20
117.8602971633
 30
0.0
 10
80.8098724395
 20
117.8241341213
 30
0.0
  0
SPLINE
  5
3E9
100
AcDbEntity
  8
0
100
AcDbSpline
 62
7
  6
CONTINUOUS
 70
0
 71
3
 72
15
 73
11
 74
0
 42
0.0000001
 43
0.0000001
 44
0.0000000001
 40
0.0
 40
0.0
 40
0.0
 40
0.0
 40
0.1295142615
 40
0.271375575
 40
0.4182997095
 40
0.5622353777
 40
0.6954770493
 40
0.8125419251
 40
0.9122100428
 40
1.0
 40
1.0
 40
1.0
 40
1.0
 10
54.5663664191
 20
101.8424239284
 30
0.0
 10
54.5651342757
 20
101.7649743409
 30
0.0
 10
54.5842356631
 20
101.6021420814
 30
0.0
 10
54.6617554973
 20
101.3629856243
 30
0.0
 10
54.7834300425
 20
101.1331092167
 30
0.0
 10
54.9391343063
 20
100.9312407639
 30
0.0
 10
55.116580382
 20
100.773460461
 30
0.0
 10
55.3024382062
 20
100.6723403903
 30
0.0
 10
55.4852420175
 20
100.6366149555
 30
0.0
 10
55.5987107448
 20
100.6666276096
 30
0.0
 10
55.6441825675
 20
100.6928782575
 30
0.0
  0
SPLINE
  5
3EA
100
AcDbEntity
  8
0
100
AcDbSpline
 62
7
  6
CONTINUOUS
 70
0
 71
3
 72
15
 73
11
 74
0
 42
0.0000001
 43
0.0000001
 44
0.0000000001
 40
0.0
 40
0.0
 40
0.0
 40
0.0
 40
0.0869289609
 40
0.1864101666
 40
0.303805153
 40
0.437602933
 40
0.5820856113
 40
0.7293488824
 40
0.8711862542
 40
1.0
 40
1.0
 40
1.0
 40
1.0
 10
79.6675717093
 20
118.9820676792
 30
0.0
 10
79.6674805917
 20
119.0318592153
 30
0.0
 10
79.6374056029
 20
119.1395793803
 30
0.0
 10
79.5198726943
 20
119.2730867265
 30
0.0
 10
79.3465071529
 20
119.3786742648
 30
0.0
 10
79.1300986182
 20
119.4509789547
 30
0.0
 10
78.8875440911
 20
119.4850452895
 30
0.0
 10
78.6380845545
 20
119.4782510816
 30
0.0
 10
78.4022747687
 20
119.4310692165
 30
0.0
 10
78.2574397442
 20
119.3715583071
 30
0.0
 10
78.1935664565
 20
119.334624913
 30
0.0
  0
SPLINE
  5
3EB
100
AcDbEntity
  8
0
100
AcDbSpline
 62
7
  6
CONTINUOUS
 70
0
 71
3
 72
13
 73
9
 74
0
 42
0.0000001
 43
0.0000001
 44
0.0000000001
 40
0.0
 40
0.0
 40
0.0
 40
0.0
 40
0.1142249338
 40
0.2375584468
 40
0.4999994088
 40
0.7624406902
 40
0.885774603
 40
1.0
 40
1.0
 40
1.0
 40
1.0
 10
70.278260747
 20
124.4749905242
 30
0.0
 10
70.1500180386
 20
124.4009500039
 30
0.0
 10
69.8694569204
 20
124.2703394973
 30
0.0
 10
69.2477639207
 20
124.0814520729
 30
0.0
 10
68.4044309429
 20
123.9897558822
 30
0.0
 10
67.561097046
 20
124.0814480774
 30
0.0
 10
66.9394015484
 20
124.2703324994
 30
0.0
 10
66.658838569
 20
124.4009416202
 30
0.0
 10
66.5305948067
 20
124.4749815159
 30
0.0
  0
SPLINE
  5
3EC
100
AcDbEntity
  8
0
100
AcDbSpline
 62
7
  6
CONTINUOUS
 70
0
 71
3
 72
15
 73
11
 74
0
 42
0.0000001
 43
0.0000001
 44
0.0000000001
 40
0.0
 40
0.0
 40
0.0
 40
0.0
 40
0.1295142615
 40
0.271375575
 40
0.4182997095
 40
0.5622353777
 40
0.6954770493
 40
0.8125419251
 40
0.9122100428
 40
1.0
 40
1.0
 40
1.0
 40
1.0
 10
57.1826724021
 20
100.3319331367
 30
0.0
 10
57.1814402587
 20
100.2544835492
 30
0.0
 10
57.2005416461
 20
100.0916512897
 30
0.0
 10
57.2780614803
 20
99.8524948326
 30
0.0
 10
57.3997360256
 20
99.622618425
 30
0.0
 10
57.5554402894
 20
99.4207499722
 30
0.0
 10
57.7328863651
 20
99.2629696692
 30
0.0
 10
57.9187441892
 20
99.1618495986
 30
0.0
 10
58.1015480006
 20
99.1261241638
 30
0.0
 10
58.2150167278
 20
99.1561368179
 30
0.0
 10
58.2604885506
 20
99.1823874657
 30
0.0
  0
SPLINE
  5
3ED
100
AcDbEntity
  8
0
100
AcDbSpline
 62
7
  6
CONTINUOUS
 70
0
 71
3
 72
9
 73
5
 74
0
 42
0.0000001
 43
0.0000001
 44
0.0000000001
 40
0.0
 40
0.0
 40
0.0
 40
0.0
 40
0.2646908028
 40
1.0
 40
1.0
 40
1.0
 40
1.0
 10
66.7781594855
 20
126.4957292144
 30
0.0
 10
66.7401094847
 20
126.4737611673
 30
0.0
 10
66.599021575
 20
126.3863976988
 30
0.0
 10
66.468520752
 20
126.2807305496
 30
0.0
 10
66.3847329881
 20
126.191978296
 30
0.0
  0
SPLINE
  5
3EE
100
AcDbEntity
  8
0
100
AcDbSpline
 62
7
  6
CONTINUOUS
 70
0
 71
3
 72
9
 73
5
 74
0
 42
0.0000001
 43
0.0000001
 44
0.0000000001
 40
0.0
 40
0.0
 40
0.0
 40
0.0
 40
0.2552524357
 40
1.0
 40
1.0
 40
1.0
 40
1.0
 10
66.3847329881
 20
126.191978296
 30
0.0
 10
66.3760772041
 20
126.1828096501
 30
0.0
 10
66.3426762641
 20
126.1464136414
 30
0.0
 10
66.3113637399
 20
126.1080875656
 30
0.0
 10
66.2894820878
 20
126.0785133612
 30
0.0
  0
SPLINE
  5
3EF
100
AcDbEntity
  8
0
100
AcDbSpline
 62
7
  6
CONTINUOUS
 70
0
 71
3
 72
9
 73
5
 74
0
 42
0.0000001
 43
0.0000001
 44
0.0000000001
 40
0.0
 40
0.0
 40
0.0
 40
0.0
 40
0.5179033965
 40
1.0
 40
1.0
 40
1.0
 40
1.0
 10
66.2894820878
 20
126.0785133612
 30
0.0
 10
66.2319457549
 20
126.0007499794
 30
0.0
 10
66.1388844007
 20
125.8352572843
 30
0.0
 10
66.1046445596
 20
125.6472911127
 30
0.0
 10
66.1045533269
 20
125.55724464
 30
0.0
  0
SPLINE
  5
3F0
100
AcDbEntity
  8
0
100
AcDbSpline
 62
7
  6
CONTINUOUS
 70
0
 71
3
 72
10
 73
6
 74
0
 42
0.0000001
 43
0.0000001
 44
0.0000000001
 40
0.0
 40
0.0
 40
0.0
 40
0.0
 40
0.2506496932
 40
0.6251703513
 40
1.0
 40
1.0
 40
1.0
 40
1.0
 10
79.190019541
 20
47.2877980798
 30
0.0
 10
79.1895578301
 20
47.2175280565
 30
0.0
 10
79.1875674507
 20
47.0422651458
 30
0.0
 10
79.1885467812
 20
46.7619027457
 30
0.0
 10
79.1872512106
 20
46.5518192308
 30
0.0
 10
79.1872512106
 20
46.4467328996
 30
0.0
  0
SPLINE
  5
3F1
100
AcDbEntity
  8
0
100
AcDbSpline
 62
7
  6
CONTINUOUS
 70
0
 71
3
 72
15
 73
11
 74
0
 42
0.0000001
 43
0.0000001
 44
0.0000000001
 40
0.0
 40
0.0
 40
0.0
 40
0.0
 40
0.1295142615
 40
0.271375575
 40
0.4182997095
 40
0.5622353777
 40
0.6954770493
 40
0.8125419251
 40
0.9122100428
 40
1.0
 40
1.0
 40
1.0
 40
1.0
 10
59.7989783852
 20
98.8214423449
 30
0.0
 10
59.7977462417
 20
98.7439927574
 30
0.0
 10
59.8168476292
 20
98.581160498
 30
0.0
 10
59.8943674634
 20
98.3420040409
 30
0.0
 10
60.0160420086
 20
98.1121276333
 30
0.0
 10
60.1717462724
 20
97.9102591805
 30
0.0
 10
60.3491923481
 20
97.7524788775
 30
0.0
 10
60.5350501723
 20
97.6513588068
 30
0.0
 10
60.7178539836
 20
97.615633372
 30
0.0
 10
60.8313227108
 20
97.6456460262
 30
0.0
 10
60.8767945336
 20
97.671896674
 30
0.0
  0
SPLINE
  5
3F2
100
AcDbEntity
  8
0
100
AcDbSpline
 62
7
  6
CONTINUOUS
 70
0
 71
3
 72
15
 73
11
 74
0
 42
0.0000001
 43
0.0000001
 44
0.0000000001
 40
0.0
 40
0.0
 40
0.0
 40
0.0
 40
0.0869289609
 40
0.1864101666
 40
0.303805153
 40
0.437602933
 40
0.5820856113
 40
0.7293488824
 40
0.8711862542
 40
1.0
 40
1.0
 40
1.0
 40
1.0
 10
63.969735811
 20
128.0450124296
 30
0.0
 10
63.9696446934
 20
128.0948039656
 30
0.0
 10
63.9395697046
 20
128.2025241306
 30
0.0
 10
63.822036796
 20
128.3360314768
 30
0.0
 10
63.6486712547
 20
128.4416190152
 30
0.0
 10
63.43226272
 20
128.513923705
 30
0.0
 10
63.1897081929
 20
128.5479900399
 30
0.0
 10
62.9402486562
 20
128.5411958319
 30
0.0
 10
62.7044388704
 20
128.4940139669
 30
0.0
 10
62.5596038459
 20
128.4345030575
 30
0.0
 10
62.4957305582
 20
128.3975696633
 30
0.0
  0
SPLINE
  5
3F3
100
AcDbEntity
  8
0
100
AcDbSpline
 62
7
  6
CONTINUOUS
 70
0
 71
3
 72
9
 73
5
 74
0
 42
0.0000001
 43
0.0000001
 44
0.0000000001
 40
0.0
 40
0.0
 40
0.0
 40
0.0
 40
0.4778410253
 40
1.0
 40
1.0
 40
1.0
 40
1.0
 10
66.7781594855
 20
124.9443746219
 30
0.0
 10
66.9224006751
 20
125.0276518144
 30
0.0
 10
67.244305158
 20
125.1678559566
 30
0.0
 10
67.5844579988
 20
125.2507183727
 30
0.0
 10
67.7639627435
 20
125.2807675465
 30
0.0
  0
SPLINE
  5
3F4
100
AcDbEntity
  8
0
100
AcDbSpline
 62
7
  6
CONTINUOUS
 70
0
 71
3
 72
9
 73
5
 74
0
 42
0.0000001
 43
0.0000001
 44
0.0000000001
 40
0.0
 40
0.0
 40
0.0
 40
0.0
 40
0.5221603615
 40
1.0
 40
1.0
 40
1.0
 40
1.0
 10
69.0448764535
 20
125.2807984259
 30
0.0
 10
69.2244125386
 20
125.2507534049
 30
0.0
 10
69.5646247947
 20
125.1678917849
 30
0.0
 10
69.8865857368
 20
125.0276719593
 30
0.0
 10
70.030850679
 20
124.9443824404
 30
0.0
  0
SPLINE
  5
3F5
100
AcDbEntity
  8
0
100
AcDbSpline
 62
7
  6
CONTINUOUS
 70
0
 71
3
 72
15
 73
11
 74
0
 42
0.0000001
 43
0.0000001
 44
0.0000000001
 40
0.0
 40
0.0
 40
0.0
 40
0.0
 40
0.1295142615
 40
0.271375575
 40
0.4182997095
 40
0.5622353777
 40
0.6954770493
 40
0.8125419251
 40
0.9122100428
 40
1.0
 40
1.0
 40
1.0
 40
1.0
 10
62.4152843682
 20
97.3109515532
 30
0.0
 10
62.4140522248
 20
97.2335019657
 30
0.0
 10
62.4331536122
 20
97.0706697062
 30
0.0
 10
62.5106734464
 20
96.8315132492
 30
0.0
 10
62.6323479916
 20
96.6016368416
 30
0.0
 10
62.7880522555
 20
96.3997683888
 30
0.0
 10
62.9654983312
 20
96.2419880858
 30
0.0
 10
63.1513561553
 20
96.1408680151
 30
0.0
 10
63.3341599667
 20
96.1051425803
 30
0.0
 10
63.4476286939
 20
96.1351552345
 30
0.0
 10
63.4931005167
 20
96.1614058823
 30
0.0
  0
SPLINE
  5
3F6
100
AcDbEntity
  8
0
100
AcDbSpline
 62
7
  6
CONTINUOUS
 70
0
 71
3
 72
10
 73
6
 74
0
 42
0.0000001
 43
0.0000001
 44
0.0000000001
 40
0.0
 40
0.0
 40
0.0
 40
0.0
 40
0.5454452729
 40
0.7801530928
 40
1.0
 40
1.0
 40
1.0
 40
1.0
 10
34.7684264407
 20
130.5047257424
 30
0.0
 10
34.7014735609
 20
130.4660116385
 30
0.0
 10
34.6141501257
 20
130.3901321224
 30
0.0
 10
34.5479212246
 20
130.263202043
 30
0.0
 10
34.5365902988
 20
130.1983176629
 30
0.0
 10
34.5366217081
 20
130.1671450706
 30
0.0
  0
SPLINE
  5
3F7
100
AcDbEntity
  8
0
100
AcDbSpline
 62
7
  6
CONTINUOUS
 70
0
 71
3
 72
15
 73
11
 74
0
 42
0.0000001
 43
0.0000001
 44
0.0000000001
 40
0.0
 40
0.0
 40
0.0
 40
0.0
 40
0.1295142615
 40
0.271375575
 40
0.4182997095
 40
0.5622353777
 40
0.6954770493
 40
0.8125419251
 40
0.9122100428
 40
1.0
 40
1.0
 40
1.0
 40
1.0
 10
65.0315903513
 20
95.8004607615
 30
0.0
 10
65.0303582078
 20
95.723011174
 30
0.0
 10
65.0494595953
 20
95.5601789145
 30
0.0
 10
65.1269794295
 20
95.3210224574
 30
0.0
 10
65.2486539747
 20
95.0911460498
 30
0.0
 10
65.4043582385
 20
94.889277597
 30
0.0
 10
65.5818043142
 20
94.7314972941
 30
0.0
 10
65.7676621384
 20
94.6303772234
 30
0.0
 10
65.9504659497
 20
94.5946517886
 30
0.0
 10
66.0639346769
 20
94.6246644427
 30
0.0
 10
66.1094064997
 20
94.6509150906
 30
0.0
  0
SPLINE
  5
3F8
100
AcDbEntity
  8
0
100
AcDbSpline
 62
7
  6
CONTINUOUS
 70
0
 71
3
 72
15
 73
11
 74
0
 42
0.0000001
 43
0.0000001
 44
0.0000000001
 40
0.0
 40
0.0
 40
0.0
 40
0.0
 40
0.1378637021
 40
0.2853183072
 40
0.4352329972
 40
0.5797411539
 40
0.7116731707
 40
0.8257500912
 40
0.9203168351
 40
1.0
 40
1.0
 40
1.0
 40
1.0
 10
68.217007063
 20
41.3652457807
 30
0.0
 10
68.2366039303
 20
41.2945623195
 30
0.0
 10
68.2908091826
 20
41.1519160868
 30
0.0
 10
68.4038439092
 20
40.9490683302
 30
0.0
 10
68.5448887309
 20
40.7600734484
 30
0.0
 10
68.704734009
 20
40.5980391966
 30
0.0
 10
68.8723755668
 20
40.4735814213
 30
0.0
 10
69.0372461304
 20
40.3949995199
 30
0.0
 10
69.1908824595
 20
40.3672354019
 30
0.0
 10
69.2849505681
 20
40.3906651627
 30
0.0
 10
69.3216698628
 20
40.4118556256
 30
0.0
  0
SPLINE
  5
3F9
100
AcDbEntity
  8
0
100
AcDbSpline
 62
7
  6
CONTINUOUS
 70
0
 71
3
 72
16
 73
12
 74
0
 42
0.0000001
 43
0.0000001
 44
0.0000000001
 40
0.0
 40
0.0
 40
0.0
 40
0.0
 40
0.125733157
 40
0.2673562508
 40
0.4168690922
 40
0.5650117783
 40
0.7024632636
 40
0.8217156683
 40
0.8733486233
 40
0.9197253494
 40
1.0
 40
1.0
 40
1.0
 40
1.0
 10
70.8016094097
 20
40.0192473875
 30
0.0
 10
70.8089344138
 20
39.9457043044
 30
0.0
 10
70.8452709627
 20
39.7913105301
 30
0.0
 10
70.9436708451
 20
39.5658788505
 30
0.0
 10
71.0823048476
 20
39.3468910933
 30
0.0
 10
71.2498570216
 20
39.1523118021
 30
0.0
 10
71.4326233936
 20
38.9983329649
 30
0.0
 10
71.592722476
 20
38.9093288255
 30
0.0
 10
71.7158652929
 20
38.8731393664
 30
0.0
 10
71.8201540095
 20
38.8610976396
 30
0.0
 10
71.8971069454
 20
38.8777796609
 30
0.0
 10
71.9379758459
 20
38.9013648339
 30
0.0
  0
SPLINE
  5
3FA
100
AcDbEntity
  8
0
100
AcDbSpline
 62
7
  6
CONTINUOUS
 70
0
 71
3
 72
15
 73
11
 74
0
 42
0.0000001
 43
0.0000001
 44
0.0000000001
 40
0.0
 40
0.0
 40
0.0
 40
0.0
 40
0.0869289609
 40
0.1864101666
 40
0.303805153
 40
0.437602933
 40
0.5820856113
 40
0.7293488824
 40
0.8711862542
 40
1.0
 40
1.0
 40
1.0
 40
1.0
 10
61.353429828
 20
129.5555032213
 30
0.0
 10
61.3533387104
 20
129.6052947573
 30
0.0
 10
61.3232637216
 20
129.7130149224
 30
0.0
 10
61.205730813
 20
129.8465222686
 30
0.0
 10
61.0323652716
 20
129.9521098069
 30
0.0
 10
60.8159567369
 20
130.0244144967
 30
0.0
 10
60.5734022098
 20
130.0584808316
 30
0.0
 10
60.3239426732
 20
130.0516866237
 30
0.0
 10
60.0881328874
 20
130.0045047586
 30
0.0
 10
59.9432978629
 20
129.9449938492
 30
0.0
 10
59.8794245751
 20
129.9080604551
 30
0.0
  0
SPLINE
  5
3FB
100
AcDbEntity
  8
0
100
AcDbSpline
 62
7
  6
CONTINUOUS
 70
0
 71
3
 72
16
 73
12
 74
0
 42
0.0000001
 43
0.0000001
 44
0.0000000001
 40
0.0
 40
0.0
 40
0.0
 40
0.0
 40
0.125733157
 40
0.2673562508
 40
0.4168690922
 40
0.5650117783
 40
0.7024632636
 40
0.8217156683
 40
0.8733486233
 40
0.9197253494
 40
1.0
 40
1.0
 40
1.0
 40
1.0
 10
73.4179153927
 20
38.5087565957
 30
0.0
 10
73.4252403968
 20
38.4352135127
 30
0.0
 10
73.4615769457
 20
38.2808197384
 30
0.0
 10
73.5599768281
 20
38.0553880588
 30
0.0
 10
73.6986108306
 20
37.8364003016
 30
0.0
 10
73.8661630046
 20
37.6418210104
 30
0.0
 10
74.0489293767
 20
37.4878421732
 30
0.0
 10
74.209028459
 20
37.3988380338
 30
0.0
 10
74.332171276
 20
37.3626485747
 30
0.0
 10
74.4364599925
 20
37.3506068479
 30
0.0
 10
74.5134129285
 20
37.3672888692
 30
0.0
 10
74.5542818289
 20
37.3908740421
 30
0.0
  0
SPLINE
  5
3FC
100
AcDbEntity
  8
0
100
AcDbSpline
 62
7
  6
CONTINUOUS
 70
0
 71
3
 72
11
 73
7
 74
0
 42
0.0000001
 43
0.0000001
 44
0.0000000001
 40
0.0
 40
0.0
 40
0.0
 40
0.0
 40
0.2372405738
 40
0.5000004574
 40
0.7627600882
 40
1.0
 40
1.0
 40
1.0
 40
1.0
 10
70.030850679
 20
126.4957370329
 30
0.0
 10
69.7999540801
 20
126.6290422306
 30
0.0
 10
69.2630088693
 20
126.8235651678
 30
0.0
 10
68.4045027227
 20
126.9167606544
 30
0.0
 10
67.545997747
 20
126.8235613236
 30
0.0
 10
67.0090544788
 20
126.6290357052
 30
0.0
 10
66.7781594855
 20
126.4957292144
 30
0.0
  0
SPLINE
  5
3FD
100
AcDbEntity
  8
0
100
AcDbSpline
 62
7
  6
CONTINUOUS
 70
0
 71
3
 72
16
 73
12
 74
0
 42
0.0000001
 43
0.0000001
 44
0.0000000001
 40
0.0
 40
0.0
 40
0.0
 40
0.0
 40
0.125733157
 40
0.2673562508
 40
0.4168690922
 40
0.5650117783
 40
0.7024632636
 40
0.8217156683
 40
0.8733486233
 40
0.9197253494
 40
1.0
 40
1.0
 40
1.0
 40
1.0
 10
76.0342213757
 20
36.998265804
 30
0.0
 10
76.0415463799
 20
36.9247227209
 30
0.0
 10
76.0778829287
 20
36.7703289466
 30
0.0
 10
76.1762828112
 20
36.5448972671
 30
0.0
 10
76.3149168137
 20
36.3259095098
 30
0.0
 10
76.4824689877
 20
36.1313302187
 30
0.0
 10
76.6652353597
 20
35.9773513815
 30
0.0
 10
76.8253344421
 20
35.888347242
 30
0.0
 10
76.948477259
 20
35.852157783
 30
0.0
 10
77.0527659756
 20
35.8401160562
 30
0.0
 10
77.1297189115
 20
35.8567980774
 30
0.0
 10
77.170587812
 20
35.8803832504
 30
0.0
  0
SPLINE
  5
3FE
100
AcDbEntity
  8
0
100
AcDbSpline
 62
7
  6
CONTINUOUS
 70
0
 71
3
 72
15
 73
11
 74
0
 42
0.0000001
 43
0.0000001
 44
0.0000000001
 40
0.0
 40
0.0
 40
0.0
 40
0.0
 40
0.1295142615
 40
0.271375575
 40
0.4182997095
 40
0.5622353777
 40
0.6954770493
 40
0.8125419251
 40
0.9122100428
 40
1.0
 40
1.0
 40
1.0
 40
1.0
 10
67.6478963343
 20
94.2899699698
 30
0.0
 10
67.6466641909
 20
94.2125203823
 30
0.0
 10
67.6657655783
 20
94.0496881228
 30
0.0
 10
67.7432854125
 20
93.8105316657
 30
0.0
 10
67.8649599577
 20
93.5806552581
 30
0.0
 10
68.0206642215
 20
93.3787868053
 30
0.0
 10
68.1981102973
 20
93.2210065023
 30
0.0
 10
68.3839681214
 20
93.1198864317
 30
0.0
 10
68.5667719328
 20
93.0841609969
 30
0.0
 10
68.68024066
 20
93.114173651
 30
0.0
 10
68.7257124827
 20
93.1404242988
 30
0.0
  0
SPLINE
  5
3FF
100
AcDbEntity
  8
0
100
AcDbSpline
 62
7
  6
CONTINUOUS
 70
0
 71
3
 72
10
 73
6
 74
0
 42
0.0000001
 43
0.0000001
 44
0.0000000001
 40
0.0
 40
0.0
 40
0.0
 40
0.0
 40
0.5454452729
 40
0.7801530928
 40
1.0
 40
1.0
 40
1.0
 40
1.0
 10
37.3847324237
 20
128.9942349506
 30
0.0
 10
37.317779544
 20
128.9555208468
 30
0.0
 10
37.2304561087
 20
128.8796413306
 30
0.0
 10
37.1642272077
 20
128.7527112513
 30
0.0
 10
37.1528962818
 20
128.6878268712
 30
0.0
 10
37.1529276912
 20
128.6566542789
 30
0.0
  0
SPLINE
  5
400
100
AcDbEntity
  8
0
100
AcDbSpline
 62
7
  6
CONTINUOUS
 70
0
 71
3
 72
15
 73
11
 74
0
 42
0.0000001
 43
0.0000001
 44
0.0000000001
 40
0.0
 40
0.0
 40
0.0
 40
0.0
 40
0.0869289609
 40
0.1864101666
 40
0.303805153
 40
0.437602933
 40
0.5820856113
 40
0.7293488824
 40
0.8711862542
 40
1.0
 40
1.0
 40
1.0
 40
1.0
 10
58.7371238449
 20
131.065994013
 30
0.0
 10
58.7370327273
 20
131.1157855491
 30
0.0
 10
58.7069577385
 20
131.2235057141
 30
0.0
 10
58.58942483
 20
131.3570130603
 30
0.0
 10
58.4160592886
 20
131.4626005986
 30
0.0
 10
58.1996507539
 20
131.5349052885
 30
0.0
 10
57.9570962268
 20
131.5689716233
 30
0.0
 10
57.7076366901
 20
131.5621774154
 30
0.0
 10
57.4718269043
 20
131.5149955503
 30
0.0
 10
57.3269918798
 20
131.4554846409
 30
0.0
 10
57.2631185921
 20
131.4185512468
 30
0.0
  0
SPLINE
  5
401
100
AcDbEntity
  8
0
100
AcDbSpline
 62
7
  6
CONTINUOUS
 70
0
 71
3
 72
15
 73
11
 74
0
 42
0.0000001
 43
0.0000001
 44
0.0000000001
 40
0.0
 40
0.0
 40
0.0
 40
0.0
 40
0.1295142615
 40
0.271375575
 40
0.4182997095
 40
0.5622353777
 40
0.6954770493
 40
0.8125419251
 40
0.9122100428
 40
1.0
 40
1.0
 40
1.0
 40
1.0
 10
70.2642023173
 20
92.779479178
 30
0.0
 10
70.2629701739
 20
92.7020295905
 30
0.0
 10
70.2820715614
 20
92.5391973311
 30
0.0
 10
70.3595913956
 20
92.300040874
 30
0.0
 10
70.4812659408
 20
92.0701644664
 30
0.0
 10
70.6369702046
 20
91.8682960136
 30
0.0
 10
70.8144162803
 20
91.7105157106
 30
0.0
 10
71.0002741045
 20
91.6093956399
 30
0.0
 10
71.1830779158
 20
91.5736702051
 30
0.0
 10
71.296546643
 20
91.6036828593
 30
0.0
 10
71.3420184658
 20
91.6299335071
 30
0.0
  0
SPLINE
  5
402
100
AcDbEntity
  8
0
100
AcDbSpline
 62
7
  6
CONTINUOUS
 70
0
 71
3
 72
15
 73
11
 74
0
 42
0.0000001
 43
0.0000001
 44
0.0000000001
 40
0.0
 40
0.0
 40
0.0
 40
0.0
 40
0.1295142615
 40
0.271375575
 40
0.4182997095
 40
0.5622353777
 40
0.6954770493
 40
0.8125419251
 40
0.9122100428
 40
1.0
 40
1.0
 40
1.0
 40
1.0
 10
72.8805083004
 20
91.2689883863
 30
0.0
 10
72.879276157
 20
91.1915387988
 30
0.0
 10
72.8983775444
 20
91.0287065393
 30
0.0
 10
72.9758973786
 20
90.7895500823
 30
0.0
 10
73.0975719238
 20
90.5596736747
 30
0.0
 10
73.2532761876
 20
90.3578052219
 30
0.0
 10
73.4307222634
 20
90.2000249189
 30
0.0
 10
73.6165800875
 20
90.0989048482
 30
0.0
 10
73.7993838989
 20
90.0631794134
 30
0.0
 10
73.9128526261
 20
90.0931920676
 30
0.0
 10
73.9583244488
 20
90.1194427154
 30
0.0
  0
SPLINE
  5
403
100
AcDbEntity
  8
0
100
AcDbSpline
 62
7
  6
CONTINUOUS
 70
0
 71
3
 72
10
 73
6
 74
0
 42
0.0000001
 43
0.0000001
 44
0.0000000001
 40
0.0
 40
0.0
 40
0.0
 40
0.0
 40
0.5454452729
 40
0.7801530928
 40
1.0
 40
1.0
 40
1.0
 40
1.0
 10
40.0010384068
 20
127.4837441589
 30
0.0
 10
39.934085527
 20
127.445030055
 30
0.0
 10
39.8467620918
 20
127.3691505389
 30
0.0
 10
39.7805331907
 20
127.2422204596
 30
0.0
 10
39.7692022648
 20
127.1773360795
 30
0.0
 10
39.7692336742
 20
127.1461634871
 30
0.0
  0
SPLINE
  5
404
100
AcDbEntity
  8
0
100
AcDbSpline
 62
7
  6
CONTINUOUS
 70
0
 71
3
 72
15
 73
11
 74
0
 42
0.0000001
 43
0.0000001
 44
0.0000000001
 40
0.0
 40
0.0
 40
0.0
 40
0.0
 40
0.0869289609
 40
0.1864101666
 40
0.303805153
 40
0.437602933
 40
0.5820856113
 40
0.7293488824
 40
0.8711862542
 40
1.0
 40
1.0
 40
1.0
 40
1.0
 10
56.1208178619
 20
132.5764848048
 30
0.0
 10
56.1207267443
 20
132.6262763408
 30
0.0
 10
56.0906517555
 20
132.7339965058
 30
0.0
 10
55.9731188469
 20
132.867503852
 30
0.0
 10
55.7997533055
 20
132.9730913903
 30
0.0
 10
55.5833447708
 20
133.0453960802
 30
0.0
 10
55.3407902437
 20
133.079462415
 30
0.0
 10
55.0913307071
 20
133.0726682071
 30
0.0
 10
54.8555209213
 20
133.025486342
 30
0.0
 10
54.7106858968
 20
132.9659754327
 30
0.0
 10
54.6468126091
 20
132.9290420385
 30
0.0
  0
SPLINE
  5
405
100
AcDbEntity
  8
0
100
AcDbSpline
 62
7
  6
CONTINUOUS
 70
0
 71
3
 72
15
 73
11
 74
0
 42
0.0000001
 43
0.0000001
 44
0.0000000001
 40
0.0
 40
0.0
 40
0.0
 40
0.0
 40
0.1295142615
 40
0.271375575
 40
0.4182997095
 40
0.5622353777
 40
0.6954770493
 40
0.8125419251
 40
0.9122100428
 40
1.0
 40
1.0
 40
1.0
 40
1.0
 10
75.4968142834
 20
89.7584975946
 30
0.0
 10
75.49558214
 20
89.6810480071
 30
0.0
 10
75.5146835274
 20
89.5182157476
 30
0.0
 10
75.5922033616
 20
89.2790592906
 30
0.0
 10
75.7138779069
 20
89.0491828829
 30
0.0
 10
75.8695821707
 20
88.8473144301
 30
0.0
 10
76.0470282464
 20
88.6895341272
 30
0.0
 10
76.2328860705
 20
88.5884140565
 30
0.0
 10
76.4156898819
 20
88.5526886217
 30
0.0
 10
76.5291586091
 20
88.5827012758
 30
0.0
 10
76.5746304319
 20
88.6089519237
 30
0.0
  0
SPLINE
  5
406
100
AcDbEntity
  8
0
100
AcDbSpline
 62
7
  6
CONTINUOUS
 70
0
 71
3
 72
15
 73
11
 74
0
 42
0.0000001
 43
0.0000001
 44
0.0000000001
 40
0.0
 40
0.0
 40
0.0
 40
0.0
 40
0.0869289609
 40
0.1864101666
 40
0.303805153
 40
0.437602933
 40
0.5820856113
 40
0.7293488824
 40
0.8711862542
 40
1.0
 40
1.0
 40
1.0
 40
1.0
 10
53.5045118789
 20
134.0869755965
 30
0.0
 10
53.5044207613
 20
134.1367671325
 30
0.0
 10
53.4743457725
 20
134.2444872975
 30
0.0
 10
53.3568128639
 20
134.3779946437
 30
0.0
 10
53.1834473225
 20
134.4835821821
 30
0.0
 10
52.9670387878
 20
134.5558868719
 30
0.0
 10
52.7244842607
 20
134.5899532068
 30
0.0
 10
52.4750247241
 20
134.5831589988
 30
0.0
 10
52.2392149382
 20
134.5359771338
 30
0.0
 10
52.0943799138
 20
134.4764662244
 30
0.0
 10
52.030506626
 20
134.4395328302
 30
0.0
  0
SPLINE
  5
407
100
AcDbEntity
  8
0
100
AcDbSpline
 62
7
  6
CONTINUOUS
 70
0
 71
3
 72
17
 73
13
 74
0
 42
0.0000001
 43
0.0000001
 44
0.0000000001
 40
0.0
 40
0.0
 40
0.0
 40
0.0
 40
0.1286941336
 40
0.2702828551
 40
0.4174432093
 40
0.5617858854
 40
0.6954550557
 40
0.8127164787
 40
0.8646777286
 40
0.9125121125
 40
0.9571388443
 40
1.0
 40
1.0
 40
1.0
 40
1.0
 10
70.6180986677
 20
123.7072377558
 30
0.0
 10
70.3864907164
 20
123.5735196409
 30
0.0
 10
69.8621063902
 20
123.3571523894
 30
0.0
 10
69.0074521984
 20
123.1862015487
 30
0.0
 10
68.1035202475
 20
123.161178263
 30
0.0
 10
67.2240688312
 20
123.2847862929
 30
0.0
 10
66.4404165188
 20
123.5465652983
 30
0.0
 10
65.8953810166
 20
123.8783372079
 30
0.0
 10
65.5755648748
 20
124.1993824956
 30
0.0
 10
65.4056300711
 20
124.4493038047
 30
0.0
 10
65.3010146453
 20
124.7129650681
 30
0.0
 10
65.2771492786
 20
124.8955408643
 30
0.0
 10
65.2771727731
 20
124.984610012
 30
0.0
  0
SPLINE
  5
408
100
AcDbEntity
  8
0
100
AcDbSpline
 62
7
  6
CONTINUOUS
 70
0
 71
3
 72
15
 73
11
 74
0
 42
0.0000001
 43
0.0000001
 44
0.0000000001
 40
0.0
 40
0.0
 40
0.0
 40
0.0
 40
0.0869289609
 40
0.1864101666
 40
0.303805153
 40
0.437602933
 40
0.5820856113
 40
0.7293488824
 40
0.8711862542
 40
1.0
 40
1.0
 40
1.0
 40
1.0
 10
50.8882058958
 20
135.5974663882
 30
0.0
 10
50.8881147782
 20
135.6472579242
 30
0.0
 10
50.8580397894
 20
135.7549780893
 30
0.0
 10
50.7405068808
 20
135.8884854355
 30
0.0
 10
50.5671413395
 20
135.9940729738
 30
0.0
 10
50.3507328048
 20
136.0663776636
 30
0.0
 10
50.1081782777
 20
136.1004439985
 30
0.0
 10
49.858718741
 20
136.0936497906
 30
0.0
 10
49.6229089552
 20
136.0464679255
 30
0.0
 10
49.4780739307
 20
135.9869570161
 30
0.0
 10
49.414200643
 20
135.950023622
 30
0.0
  0
SPLINE
  5
409
100
AcDbEntity
  8
0
100
AcDbSpline
 62
7
  6
CONTINUOUS
 70
0
 71
3
 72
9
 73
5
 74
0
 42
0.0000001
 43
0.0000001
 44
0.0000000001
 40
0.0
 40
0.0
 40
0.0
 40
0.0
 40
0.2429472001
 40
1.0
 40
1.0
 40
1.0
 40
1.0
 10
68.9343456589
 20
41.6768206173
 30
0.0
 10
68.7451007044
 20
43.0929101407
 30
0.0
 10
68.0716720036
 20
48.9355888991
 30
0.0
 10
67.8080694745
 20
54.8233080857
 30
0.0
 10
67.8080694745
 20
59.2752437572
 30
0.0
  0
SPLINE
  5
40A
100
AcDbEntity
  8
0
100
AcDbSpline
 62
7
  6
CONTINUOUS
 70
0
 71
3
 72
9
 73
5
 74
0
 42
0.0000001
 43
0.0000001
 44
0.0000000001
 40
0.0
 40
0.0
 40
0.0
 40
0.0
 40
0.2462049718
 40
1.0
 40
1.0
 40
1.0
 40
1.0
 10
75.4968142834
 20
89.7584975946
 30
0.0
 10
75.511707352
 20
90.5695101228
 30
0.0
 10
75.6026174917
 20
93.8629583192
 30
0.0
 10
75.813512792
 20
97.1529088046
 30
0.0
 10
76.0344614091
 20
99.6265209245
 30
0.0
  0
SPLINE
  5
40B
100
AcDbEntity
  8
0
100
AcDbSpline
 62
7
  6
CONTINUOUS
 70
0
 71
3
 72
15
 73
11
 74
0
 42
0.0000001
 43
0.0000001
 44
0.0000000001
 40
0.0
 40
0.0
 40
0.0
 40
0.0
 40
0.0869289609
 40
0.1864101666
 40
0.303805153
 40
0.437602933
 40
0.5820856113
 40
0.7293488824
 40
0.8711862542
 40
1.0
 40
1.0
 40
1.0
 40
1.0
 10
48.2718999128
 20
137.1079571799
 30
0.0
 10
48.2718087952
 20
137.157748716
 30
0.0
 10
48.2417338064
 20
137.265468881
 30
0.0
 10
48.1242008978
 20
137.3989762272
 30
0.0
 10
47.9508353564
 20
137.5045637655
 30
0.0
 10
47.7344268217
 20
137.5768684554
 30
0.0
 10
47.4918722946
 20
137.6109347902
 30
0.0
 10
47.242412758
 20
137.6041405823
 30
0.0
 10
47.0066029722
 20
137.5569587172
 30
0.0
 10
46.8617679477
 20
137.4974478079
 30
0.0
 10
46.7978946599
 20
137.4605144137
 30
0.0
  0
SPLINE
  5
40C
100
AcDbEntity
  8
0
100
AcDbSpline
 62
7
  6
CONTINUOUS
 70
0
 71
3
 72
9
 73
5
 74
0
 42
0.0000001
 43
0.0000001
 44
0.0000000001
 40
0.0
 40
0.0
 40
0.0
 40
0.0
 40
0.2462049718
 40
1.0
 40
1.0
 40
1.0
 40
1.0
 10
72.8805083004
 20
91.2689883863
 30
0.0
 10
72.895401369
 20
92.0800009145
 30
0.0
 10
72.9863115086
 20
95.3734491109
 30
0.0
 10
73.1972068089
 20
98.6633995963
 30
0.0
 10
73.4181554261
 20
101.1370117162
 30
0.0
  0
SPLINE
  5
40D
100
AcDbEntity
  8
0
100
AcDbSpline
 62
7
  6
CONTINUOUS
 70
0
 71
3
 72
9
 73
5
 74
0
 42
0.0000001
 43
0.0000001
 44
0.0000000001
 40
0.0
 40
0.0
 40
0.0
 40
0.0
 40
0.2462049718
 40
1.0
 40
1.0
 40
1.0
 40
1.0
 10
70.2642023173
 20
92.779479178
 30
0.0
 10
70.279095386
 20
93.5904917062
 30
0.0
 10
70.3700055256
 20
96.8839399026
 30
0.0
 10
70.5809008259
 20
100.173890388
 30
0.0
 10
70.801849443
 20
102.6475025079
 30
0.0
  0
SPLINE
  5
40E
100
AcDbEntity
  8
0
100
AcDbSpline
 62
7
  6
CONTINUOUS
 70
0
 71
3
 72
9
 73
5
 74
0
 42
0.0000001
 43
0.0000001
 44
0.0000000001
 40
0.0
 40
0.0
 40
0.0
 40
0.0
 40
0.2438340995
 40
1.0
 40
1.0
 40
1.0
 40
1.0
 10
67.8080694745
 20
59.2752437572
 30
0.0
 10
67.8080694745
 20
60.8145226003
 30
0.0
 10
67.9061892416
 20
67.1271383571
 30
0.0
 10
68.3853624873
 20
73.4323107917
 30
0.0
 10
68.9343456589
 20
78.1741708506
 30
0.0
  0
SPLINE
  5
40F
100
AcDbEntity
  8
0
100
AcDbSpline
 62
7
  6
CONTINUOUS
 70
0
 71
3
 72
9
 73
5
 74
0
 42
0.0000001
 43
0.0000001
 44
0.0000000001
 40
0.0
 40
0.0
 40
0.0
 40
0.0
 40
0.2462049718
 40
1.0
 40
1.0
 40
1.0
 40
1.0
 10
67.6478963343
 20
94.2899699698
 30
0.0
 10
67.6627894029
 20
95.100982498
 30
0.0
 10
67.7536995426
 20
98.3944306943
 30
0.0
 10
67.9645948429
 20
101.6843811797
 30
0.0
 10
68.18554346
 20
104.1579932996
 30
0.0
  0
SPLINE
  5
410
100
AcDbEntity
  8
0
100
AcDbSpline
 62
7
  6
CONTINUOUS
 70
0
 71
3
 72
11
 73
7
 74
0
 42
0.0000001
 43
0.0000001
 44
0.0000000001
 40
0.0
 40
0.0
 40
0.0
 40
0.0
 40
0.2226046637
 40
0.4596671197
 40
0.7183815263
 40
1.0
 40
1.0
 40
1.0
 40
1.0
 10
76.2706475387
 20
100.064809705
 30
0.0
 10
76.2374890422
 20
100.045665074
 30
0.0
 10
76.1749666041
 20
99.9950581958
 30
0.0
 10
76.103598668
 20
99.8925596076
 30
0.0
 10
76.0550208867
 20
99.7668746489
 30
0.0
 10
76.0389012561
 20
99.6747559208
 30
0.0
 10
76.0344614091
 20
99.6265209245
 30
0.0
  0
SPLINE
  5
411
100
AcDbEntity
  8
0
100
AcDbSpline
 62
7
  6
CONTINUOUS
 70
0
 71
3
 72
9
 73
5
 74
0
 42
0.0000001
 43
0.0000001
 44
0.0000000001
 40
0.0
 40
0.0
 40
0.0
 40
0.0
 40
0.2439539623
 40
1.0
 40
1.0
 40
1.0
 40
1.0
 10
79.1872512106
 20
85.2432234597
 30
0.0
 10
79.1872512106
 20
86.5336252705
 30
0.0
 10
79.2677104764
 20
91.8229954976
 30
0.0
 10
79.6608525549
 20
97.1064085747
 30
0.0
 10
80.111676242
 20
101.0800447625
 30
0.0
  0
SPLINE
  5
412
100
AcDbEntity
  8
0
100
AcDbSpline
 62
7
  6
CONTINUOUS
 70
0
 71
3
 72
9
 73
5
 74
0
 42
0.0000001
 43
0.0000001
 44
0.0000000001
 40
0.0
 40
0.0
 40
0.0
 40
0.0
 40
0.2462049718
 40
1.0
 40
1.0
 40
1.0
 40
1.0
 10
65.0315903513
 20
95.8004607615
 30
0.0
 10
65.0464834199
 20
96.6114732897
 30
0.0
 10
65.1373935595
 20
99.9049214861
 30
0.0
 10
65.3482888598
 20
103.1948719715
 30
0.0
 10
65.5692374769
 20
105.6684840914
 30
0.0
  0
SPLINE
  5
413
100
AcDbEntity
  8
0
100
AcDbSpline
 62
7
  6
CONTINUOUS
 70
0
 71
3
 72
9
 73
5
 74
0
 42
0.0000001
 43
0.0000001
 44
0.0000000001
 40
0.0
 40
0.0
 40
0.0
 40
0.0
 40
0.2462049718
 40
1.0
 40
1.0
 40
1.0
 40
1.0
 10
62.4152843682
 20
97.3109515532
 30
0.0
 10
62.4301774368
 20
98.1219640814
 30
0.0
 10
62.5210875765
 20
101.4154122778
 30
0.0
 10
62.7319828768
 20
104.7053627632
 30
0.0
 10
62.9529314939
 20
107.1789748831
 30
0.0
  0
SPLINE
  5
414
100
AcDbEntity
  8
0
100
AcDbSpline
 62
7
  6
CONTINUOUS
 70
0
 71
3
 72
10
 73
6
 74
0
 42
0.0000001
 43
0.0000001
 44
0.0000000001
 40
0.0
 40
0.0
 40
0.0
 40
0.0
 40
0.5454452729
 40
0.7801530928
 40
1.0
 40
1.0
 40
1.0
 40
1.0
 10
42.6173443898
 20
125.9732533672
 30
0.0
 10
42.5503915101
 20
125.9345392633
 30
0.0
 10
42.4630680748
 20
125.8586597472
 30
0.0
 10
42.3968391738
 20
125.7317296679
 30
0.0
 10
42.3855082479
 20
125.6668452878
 30
0.0
 10
42.3855396573
 20
125.6356726954
 30
0.0
  0
SPLINE
  5
415
100
AcDbEntity
  8
0
100
AcDbSpline
 62
7
  6
CONTINUOUS
 70
0
 71
3
 72
9
 73
5
 74
0
 42
0.0000001
 43
0.0000001
 44
0.0000000001
 40
0.0
 40
0.0
 40
0.0
 40
0.0
 40
0.2462049718
 40
1.0
 40
1.0
 40
1.0
 40
1.0
 10
59.7989783852
 20
98.8214423449
 30
0.0
 10
59.8138714538
 20
99.6324548731
 30
0.0
 10
59.9047815934
 20
102.9259030695
 30
0.0
 10
60.1156768937
 20
106.2158535549
 30
0.0
 10
60.3366255108
 20
108.6894656748
 30
0.0
  0
SPLINE
  5
416
100
AcDbEntity
  8
0
100
AcDbSpline
 62
7
  6
CONTINUOUS
 70
0
 71
3
 72
11
 73
7
 74
0
 42
0.0000001
 43
0.0000001
 44
0.0000000001
 40
0.0
 40
0.0
 40
0.0
 40
0.0
 40
0.2226046637
 40
0.4596671197
 40
0.7183815263
 40
1.0
 40
1.0
 40
1.0
 40
1.0
 10
73.6543415557
 20
101.5753004967
 30
0.0
 10
73.6211830591
 20
101.5561558657
 30
0.0
 10
73.558660621
 20
101.5055489875
 30
0.0
 10
73.4872926849
 20
101.4030503993
 30
0.0
 10
73.4387149037
 20
101.2773654406
 30
0.0
 10
73.4225952731
 20
101.1852467125
 30
0.0
 10
73.4181554261
 20
101.1370117162
 30
0.0
  0
SPLINE
  5
417
100
AcDbEntity
  8
0
100
AcDbSpline
 62
7
  6
CONTINUOUS
 70
0
 71
3
 72
9
 73
5
 74
0
 42
0.0000001
 43
0.0000001
 44
0.0000000001
 40
0.0
 40
0.0
 40
0.0
 40
0.0
 40
0.2462049718
 40
1.0
 40
1.0
 40
1.0
 40
1.0
 10
57.1826724021
 20
100.3319331367
 30
0.0
 10
57.1975654707
 20
101.1429456649
 30
0.0
 10
57.2884756104
 20
104.4363938612
 30
0.0
 10
57.4993709107
 20
107.7263443466
 30
0.0
 10
57.7203195278
 20
110.1999564665
 30
0.0
  0
SPLINE
  5
418
100
AcDbEntity
  8
0
100
AcDbSpline
 62
7
  6
CONTINUOUS
 70
0
 71
3
 72
10
 73
6
 74
0
 42
0.0000001
 43
0.0000001
 44
0.0000000001
 40
0.0
 40
0.0
 40
0.0
 40
0.0
 40
0.5454452729
 40
0.7801530928
 40
1.0
 40
1.0
 40
1.0
 40
1.0
 10
45.2336503729
 20
124.4627625755
 30
0.0
 10
45.1666974931
 20
124.4240484716
 30
0.0
 10
45.0793740579
 20
124.3481689555
 30
0.0
 10
45.0131451568
 20
124.2212388761
 30
0.0
 10
45.0018142309
 20
124.156354496
 30
0.0
 10
45.0018456403
 20
124.1251819037
 30
0.0
  0
SPLINE
  5
419
100
AcDbEntity
  8
0
100
AcDbSpline
 62
7
  6
CONTINUOUS
 70
0
 71
3
 72
11
 73
7
 74
0
 42
0.0000001
 43
0.0000001
 44
0.0000000001
 40
0.0
 40
0.0
 40
0.0
 40
0.0
 40
0.2226046637
 40
0.4596671197
 40
0.7183815263
 40
1.0
 40
1.0
 40
1.0
 40
1.0
 10
71.0380355726
 20
103.0857912884
 30
0.0
 10
71.0048770761
 20
103.0666466575
 30
0.0
 10
70.942354638
 20
103.0160397792
 30
0.0
 10
70.8709867019
 20
102.9135411911
 30
0.0
 10
70.8224089207
 20
102.7878562323
 30
0.0
 10
70.80628929
 20
102.6957375042
 30
0.0
 10
70.801849443
 20
102.6475025079
 30
0.0
  0
SPLINE
  5
41A
100
AcDbEntity
  8
0
100
AcDbSpline
 62
7
  6
CONTINUOUS
 70
0
 71
3
 72
9
 73
5
 74
0
 42
0.0000001
 43
0.0000001
 44
0.0000000001
 40
0.0
 40
0.0
 40
0.0
 40
0.0
 40
0.2462049718
 40
1.0
 40
1.0
 40
1.0
 40
1.0
 10
54.5663664191
 20
101.8424239284
 30
0.0
 10
54.5812594877
 20
102.6534364566
 30
0.0
 10
54.6721696273
 20
105.946884653
 30
0.0
 10
54.8830649276
 20
109.2368351384
 30
0.0
 10
55.1040135448
 20
111.7104472583
 30
0.0
  0
SPLINE
  5
41B
100
AcDbEntity
  8
0
100
AcDbSpline
 62
7
  6
CONTINUOUS
 70
0
 71
3
 72
10
 73
6
 74
0
 42
0.0000001
 43
0.0000001
 44
0.0000000001
 40
0.0
 40
0.0
 40
0.0
 40
0.0
 40
0.5454452729
 40
0.7801530928
 40
1.0
 40
1.0
 40
1.0
 40
1.0
 10
47.8499563559
 20
122.9522717838
 30
0.0
 10
47.7830034762
 20
122.9135576799
 30
0.0
 10
47.6956800409
 20
122.8376781637
 30
0.0
 10
47.6294511399
 20
122.7107480844
 30
0.0
 10
47.618120214
 20
122.6458637043
 30
0.0
 10
47.6181516234
 20
122.614691112
 30
0.0
  0
SPLINE
  5
41C
100
AcDbEntity
  8
0
100
AcDbSpline
 62
7
  6
CONTINUOUS
 70
0
 71
3
 72
9
 73
5
 74
0
 42
0.0000001
 43
0.0000001
 44
0.0000000001
 40
0.0
 40
0.0
 40
0.0
 40
0.0
 40
0.2462049718
 40
1.0
 40
1.0
 40
1.0
 40
1.0
 10
51.950060436
 20
103.3529147201
 30
0.0
 10
51.9649535046
 20
104.1639272483
 30
0.0
 10
52.0558636443
 20
107.4573754447
 30
0.0
 10
52.2667589446
 20
110.7473259301
 30
0.0
 10
52.4877075617
 20
113.22093805
 30
0.0
  0
SPLINE
  5
41D
100
AcDbEntity
  8
0
100
AcDbSpline
 62
7
  6
CONTINUOUS
 70
0
 71
3
 72
10
 73
6
 74
0
 42
0.0000001
 43
0.0000001
 44
0.0000000001
 40
0.0
 40
0.0
 40
0.0
 40
0.0
 40
0.5454452729
 40
0.7801530928
 40
1.0
 40
1.0
 40
1.0
 40
1.0
 10
50.4662623389
 20
121.441780992
 30
0.0
 10
50.3993094592
 20
121.4030668881
 30
0.0
 10
50.3119860239
 20
121.327187372
 30
0.0
 10
50.2457571229
 20
121.2002572927
 30
0.0
 10
50.234426197
 20
121.1353729126
 30
0.0
 10
50.2344576064
 20
121.1042003202
 30
0.0
  0
SPLINE
  5
41E
100
AcDbEntity
  8
0
100
AcDbSpline
 62
7
  6
CONTINUOUS
 70
0
 71
3
 72
9
 73
5
 74
0
 42
0.0000001
 43
0.0000001
 44
0.0000000001
 40
0.0
 40
0.0
 40
0.0
 40
0.0
 40
0.2462049718
 40
1.0
 40
1.0
 40
1.0
 40
1.0
 10
49.333754453
 20
104.8634055118
 30
0.0
 10
49.3486475216
 20
105.67441804
 30
0.0
 10
49.4395576612
 20
108.9678662364
 30
0.0
 10
49.6504529615
 20
112.2578167218
 30
0.0
 10
49.8714015787
 20
114.7314288417
 30
0.0
  0
SPLINE
  5
41F
100
AcDbEntity
  8
0
100
AcDbSpline
 62
7
  6
CONTINUOUS
 70
0
 71
3
 72
11
 73
7
 74
0
 42
0.0000001
 43
0.0000001
 44
0.0000000001
 40
0.0
 40
0.0
 40
0.0
 40
0.0
 40
0.2226046637
 40
0.4596671197
 40
0.7183815263
 40
1.0
 40
1.0
 40
1.0
 40
1.0
 10
68.4217295896
 20
104.5962820802
 30
0.0
 10
68.3885710931
 20
104.5771374492
 30
0.0
 10
68.3260486549
 20
104.5265305709
 30
0.0
 10
68.2546807188
 20
104.4240319828
 30
0.0
 10
68.2061029376
 20
104.298347024
 30
0.0
 10
68.189983307
 20
104.206228296
 30
0.0
 10
68.18554346
 20
104.1579932996
 30
0.0
  0
SPLINE
  5
420
100
AcDbEntity
  8
0
100
AcDbSpline
 62
7
  6
CONTINUOUS
 70
0
 71
3
 72
13
 73
9
 74
0
 42
0.0000001
 43
0.0000001
 44
0.0000000001
 40
0.0
 40
0.0
 40
0.0
 40
0.0
 40
0.1142253587
 40
0.237559206
 40
0.5000004539
 40
0.7624414493
 40
0.885775028
 40
1.0
 40
1.0
 40
1.0
 40
1.0
 10
66.5305948067
 20
123.9034298239
 30
0.0
 10
66.6588385261
 20
123.829389953
 30
0.0
 10
66.939401363
 20
123.6987808477
 30
0.0
 10
67.5610966931
 20
123.5098964818
 30
0.0
 10
68.4044304818
 20
123.4182041902
 30
0.0
 10
69.2477635678
 20
123.5099002846
 30
0.0
 10
69.8694567351
 20
123.698787765
 30
0.0
 10
70.1500179956
 20
123.8293982871
 30
0.0
 10
70.278260747
 20
123.9034388322
 30
0.0
  0
SPLINE
  5
421
100
AcDbEntity
  8
0
100
AcDbSpline
 62
7
  6
CONTINUOUS
 70
0
 71
3
 72
9
 73
5
 74
0
 42
0.0000001
 43
0.0000001
 44
0.0000000001
 40
0.0
 40
0.0
 40
0.0
 40
0.0
 40
0.2462049718
 40
1.0
 40
1.0
 40
1.0
 40
1.0
 10
46.7174484699
 20
106.3738963036
 30
0.0
 10
46.7323415386
 20
107.1849088318
 30
0.0
 10
46.8232516782
 20
110.4783570281
 30
0.0
 10
47.0341469785
 20
113.7683075135
 30
0.0
 10
47.2550955956
 20
116.2419196334
 30
0.0
  0
SPLINE
  5
422
100
AcDbEntity
  8
0
100
AcDbSpline
 62
7
  6
CONTINUOUS
 70
0
 71
3
 72
10
 73
6
 74
0
 42
0.0000001
 43
0.0000001
 44
0.0000000001
 40
0.0
 40
0.0
 40
0.0
 40
0.0
 40
0.5454452729
 40
0.7801530928
 40
1.0
 40
1.0
 40
1.0
 40
1.0
 10
66.1640982372
 20
112.3788362417
 30
0.0
 10
66.0971453575
 20
112.3401221378
 30
0.0
 10
66.0098219222
 20
112.2642426217
 30
0.0
 10
65.9435930212
 20
112.1373125423
 30
0.0
 10
65.9322620953
 20
112.0724281622
 30
0.0
 10
65.9322935047
 20
112.0412555699
 30
0.0
  0
SPLINE
  5
423
100
AcDbEntity
  8
0
100
AcDbSpline
 62
7
  6
CONTINUOUS
 70
0
 71
3
 72
9
 73
5
 74
0
 42
0.0000001
 43
0.0000001
 44
0.0000000001
 40
0.0
 40
0.0
 40
0.0
 40
0.0
 40
0.2462049718
 40
1.0
 40
1.0
 40
1.0
 40
1.0
 10
44.1011424869
 20
107.8843870953
 30
0.0
 10
44.1160355555
 20
108.6953996235
 30
0.0
 10
44.2069456952
 20
111.9888478199
 30
0.0
 10
44.4178409955
 20
115.2787983053
 30
0.0
 10
44.6387896126
 20
117.7524104252
 30
0.0
  0
SPLINE
  5
424
100
AcDbEntity
  8
0
100
AcDbSpline
 62
7
  6
CONTINUOUS
 70
0
 71
3
 72
9
 73
5
 74
0
 42
0.0000001
 43
0.0000001
 44
0.0000000001
 40
0.0
 40
0.0
 40
0.0
 40
0.0
 40
0.2431027081
 40
1.0
 40
1.0
 40
1.0
 40
1.0
 10
80.111676242
 20
31.6773393065
 30
0.0
 10
79.9563712473
 20
32.8668940931
 30
0.0
 10
79.4039279992
 20
37.7712149083
 30
0.0
 10
79.1872512106
 20
42.7116372367
 30
0.0
 10
79.1872512106
 20
46.4467328996
 30
0.0
  0
SPLINE
  5
425
100
AcDbEntity
  8
0
100
AcDbSpline
 62
7
  6
CONTINUOUS
 70
0
 71
3
 72
9
 73
5
 74
0
 42
0.0000001
 43
0.0000001
 44
0.0000000001
 40
0.0
 40
0.0
 40
0.0
 40
0.0
 40
0.2473918379
 40
1.0
 40
1.0
 40
1.0
 40
1.0
 10
75.8051238934
 20
39.620567803
 30
0.0
 10
75.7700155212
 20
40.0864985644
 30
0.0
 10
75.6399031978
 20
41.9707451391
 30
0.0
 10
75.5565196136
 20
43.858183734
 30
0.0
 10
75.5186883682
 20
45.2791393185
 30
0.0
  0
SPLINE
  5
426
100
AcDbEntity
  8
0
100
AcDbSpline
 62
7
  6
CONTINUOUS
 70
0
 71
3
 72
11
 73
7
 74
0
 42
0.0000001
 43
0.0000001
 44
0.0000000001
 40
0.0
 40
0.0
 40
0.0
 40
0.0
 40
0.2226046637
 40
0.4596671197
 40
0.7183815263
 40
1.0
 40
1.0
 40
1.0
 40
1.0
 10
65.8054236065
 20
106.1067728719
 30
0.0
 10
65.77226511
 20
106.0876282409
 30
0.0
 10
65.7097426719
 20
106.0370213627
 30
0.0
 10
65.6383747358
 20
105.9345227745
 30
0.0
 10
65.5897969546
 20
105.8088378158
 30
0.0
 10
65.573677324
 20
105.7167190877
 30
0.0
 10
65.5692374769
 20
105.6684840914
 30
0.0
  0
SPLINE
  5
427
100
AcDbEntity
  8
0
100
AcDbSpline
 62
7
  6
CONTINUOUS
 70
0
 71
3
 72
11
 73
7
 74
0
 42
0.0000001
 43
0.0000001
 44
0.0000000001
 40
0.0
 40
0.0
 40
0.0
 40
0.0
 40
0.2897048095
 40
0.5490913441
 40
0.7822177942
 40
1.0
 40
1.0
 40
1.0
 40
1.0
 10
70.278260747
 20
123.9034388322
 30
0.0
 10
70.3945390916
 20
123.970571765
 30
0.0
 10
70.6054973165
 20
124.1158732859
 30
0.0
 10
70.8576217711
 20
124.3808446335
 30
0.0
 10
71.0171074045
 20
124.6739671453
 30
0.0
 10
71.0544067982
 20
124.8843438217
 30
0.0
 10
71.0544067522
 20
124.9852770694
 30
0.0
  0
SPLINE
  5
428
100
AcDbEntity
  8
0
100
AcDbSpline
 62
7
  6
CONTINUOUS
 70
0
 71
3
 72
10
 73
6
 74
0
 42
0.0000001
 43
0.0000001
 44
0.0000000001
 40
0.0
 40
0.0
 40
0.0
 40
0.0
 40
0.5454452729
 40
0.7801530928
 40
1.0
 40
1.0
 40
1.0
 40
1.0
 10
68.7804042203
 20
110.86834545
 30
0.0
 10
68.7134513405
 20
110.8296313461
 30
0.0
 10
68.6261279053
 20
110.7537518299
 30
0.0
 10
68.5598990042
 20
110.6268217506
 30
0.0
 10
68.5485680783
 20
110.5619373705
 30
0.0
 10
68.5485994877
 20
110.5307647782
 30
0.0
  0
SPLINE
  5
429
100
AcDbEntity
  8
0
100
AcDbSpline
 62
7
  6
CONTINUOUS
 70
0
 71
3
 72
9
 73
5
 74
0
 42
0.0000001
 43
0.0000001
 44
0.0000000001
 40
0.0
 40
0.0
 40
0.0
 40
0.0
 40
0.2462049718
 40
1.0
 40
1.0
 40
1.0
 40
1.0
 10
41.4848365039
 20
109.394877887
 30
0.0
 10
41.4997295725
 20
110.2058904152
 30
0.0
 10
41.5906397121
 20
113.4993386116
 30
0.0
 10
41.8015350124
 20
116.789289097
 30
0.0
 10
42.0224836295
 20
119.2629012169
 30
0.0
  0
SPLINE
  5
42A
100
AcDbEntity
  8
0
100
AcDbSpline
 62
7
  6
CONTINUOUS
 70
0
 71
3
 72
11
 73
7
 74
0
 42
0.0000001
 43
0.0000001
 44
0.0000000001
 40
0.0
 40
0.0
 40
0.0
 40
0.0
 40
0.2226046637
 40
0.4596671197
 40
0.7183815263
 40
1.0
 40
1.0
 40
1.0
 40
1.0
 10
63.1891176235
 20
107.6172636636
 30
0.0
 10
63.155959127
 20
107.5981190326
 30
0.0
 10
63.0934366889
 20
107.5475121544
 30
0.0
 10
63.0220687527
 20
107.4450135662
 30
0.0
 10
62.9734909715
 20
107.3193286075
 30
0.0
 10
62.9573713409
 20
107.2272098794
 30
0.0
 10
62.9529314939
 20
107.1789748831
 30
0.0
  0
SPLINE
  5
42B
100
AcDbEntity
  8
0
100
AcDbSpline
 62
7
  6
CONTINUOUS
 70
0
 71
3
 72
9
 73
5
 74
0
 42
0.0000001
 43
0.0000001
 44
0.0000000001
 40
0.0
 40
0.0
 40
0.0
 40
0.0
 40
0.2462049718
 40
1.0
 40
1.0
 40
1.0
 40
1.0
 10
38.8685305208
 20
110.9053686787
 30
0.0
 10
38.8834235894
 20
111.7163812069
 30
0.0
 10
38.9743337291
 20
115.0098294033
 30
0.0
 10
39.1852290294
 20
118.2997798887
 30
0.0
 10
39.4061776465
 20
120.7733920086
 30
0.0
  0
SPLINE
  5
42C
100
AcDbEntity
  8
0
100
AcDbSpline
 62
7
  6
CONTINUOUS
 70
0
 71
3
 72
9
 73
5
 74
0
 42
0.0000001
 43
0.0000001
 44
0.0000000001
 40
0.0
 40
0.0
 40
0.0
 40
0.0
 40
0.2462049718
 40
1.0
 40
1.0
 40
1.0
 40
1.0
 10
36.2522245378
 20
112.4158594705
 30
0.0
 10
36.2671176064
 20
113.2268719987
 30
0.0
 10
36.358027746
 20
116.520320195
 30
0.0
 10
36.5689230463
 20
119.8102706804
 30
0.0
 10
36.7898716635
 20
122.2838828003
 30
0.0
  0
SPLINE
  5
42D
100
AcDbEntity
  8
0
100
AcDbSpline
 62
7
  6
CONTINUOUS
 70
0
 71
3
 72
9
 73
5
 74
0
 42
0.0000001
 43
0.0000001
 44
0.0000000001
 40
0.0
 40
0.0
 40
0.0
 40
0.0
 40
0.2462049718
 40
1.0
 40
1.0
 40
1.0
 40
1.0
 10
33.6359185547
 20
113.9263502622
 30
0.0
 10
33.6508116233
 20
114.7373627904
 30
0.0
 10
33.741721763
 20
118.0308109868
 30
0.0
 10
33.9526170633
 20
121.3207614722
 30
0.0
 10
34.1735656804
 20
123.794373592
 30
0.0
  0
SPLINE
  5
42E
100
AcDbEntity
  8
0
100
AcDbSpline
 62
7
  6
CONTINUOUS
 70
0
 71
3
 72
9
 73
5
 74
0
 42
0.0000001
 43
0.0000001
 44
0.0000000001
 40
0.0
 40
0.0
 40
0.0
 40
0.0
 40
0.2462049718
 40
1.0
 40
1.0
 40
1.0
 40
1.0
 10
31.0196125717
 20
115.4368410539
 30
0.0
 10
31.0345056403
 20
116.2478535821
 30
0.0
 10
31.1254157799
 20
119.5413017785
 30
0.0
 10
31.3363110802
 20
122.8312522639
 30
0.0
 10
31.5572596974
 20
125.3048643838
 30
0.0
  0
SPLINE
  5
42F
100
AcDbEntity
  8
0
100
AcDbSpline
 62
7
  6
CONTINUOUS
 70
0
 71
3
 72
17
 73
13
 74
0
 42
0.0000001
 43
0.0000001
 44
0.0000000001
 40
0.0
 40
0.0
 40
0.0
 40
0.0
 40
0.1280309134
 40
0.2688748221
 40
0.4151759021
 40
0.5587682043
 40
0.6921414116
 40
0.8099052505
 40
0.8624543899
 40
0.9110373401
 40
0.9564668807
 40
1.0
 40
1.0
 40
1.0
 40
1.0
 10
24.3043607603
 20
81.8822573362
 30
0.0
 10
24.3043607603
 20
82.2289532851
 30
0.0
 10
24.2110470625
 20
82.9578176741
 30
0.0
 10
23.8618767497
 20
84.031742449
 30
0.0
 10
23.3204498141
 20
85.070937059
 30
0.0
 10
22.6264456191
 20
85.9904852809
 30
0.0
 10
21.8328531884
 20
86.7161110423
 30
0.0
 10
21.10758608
 20
87.1267378248
 30
0.0
 10
20.5351856674
 20
87.2906009323
 30
0.0
 10
20.1376056134
 20
87.3293217434
 30
0.0
 10
19.7645571498
 20
87.2869411784
 30
0.0
 10
19.5357347296
 20
87.2029207192
 30
0.0
 10
19.4310299237
 20
87.1487592265
 30
0.0
  0
SPLINE
  5
430
100
AcDbEntity
  8
0
100
AcDbSpline
 62
7
  6
CONTINUOUS
 70
0
 71
3
 72
11
 73
7
 74
0
 42
0.0000001
 43
0.0000001
 44
0.0000000001
 40
0.0
 40
0.0
 40
0.0
 40
0.0
 40
0.2226046637
 40
0.4596671197
 40
0.7183815263
 40
1.0
 40
1.0
 40
1.0
 40
1.0
 10
60.5728116404
 20
109.1277544553
 30
0.0
 10
60.5396531439
 20
109.1086098244
 30
0.0
 10
60.4771307058
 20
109.0580029461
 30
0.0
 10
60.4057627697
 20
108.955504358
 30
0.0
 10
60.3571849885
 20
108.8298193992
 30
0.0
 10
60.3410653579
 20
108.7377006711
 30
0.0
 10
60.3366255108
 20
108.6894656748
 30
0.0
  0
SPLINE
  5
431
100
AcDbEntity
  8
0
100
AcDbSpline
 62
7
  6
CONTINUOUS
 70
0
 71
3
 72
10
 73
6
 74
0
 42
0.0000001
 43
0.0000001
 44
0.0000000001
 40
0.0
 40
0.0
 40
0.0
 40
0.0
 40
0.5454452729
 40
0.7801530928
 40
1.0
 40
1.0
 40
1.0
 40
1.0
 10
71.3967102033
 20
109.3578546582
 30
0.0
 10
71.3297573236
 20
109.3191405543
 30
0.0
 10
71.2424338883
 20
109.2432610382
 30
0.0
 10
71.1762049873
 20
109.1163309589
 30
0.0
 10
71.1648740614
 20
109.0514465788
 30
0.0
 10
71.1649054707
 20
109.0202739864
 30
0.0
  0
SPLINE
  5
432
100
AcDbEntity
  8
0
100
AcDbSpline
 62
7
  6
CONTINUOUS
 70
0
 71
3
 72
11
 73
7
 74
0
 42
0.0000001
 43
0.0000001
 44
0.0000000001
 40
0.0
 40
0.0
 40
0.0
 40
0.0
 40
0.2226046637
 40
0.4596671197
 40
0.7183815263
 40
1.0
 40
1.0
 40
1.0
 40
1.0
 10
57.9565056574
 20
110.6382452471
 30
0.0
 10
57.9233471609
 20
110.6191006161
 30
0.0
 10
57.8608247228
 20
110.5684937378
 30
0.0
 10
57.7894567866
 20
110.4659951497
 30
0.0
 10
57.7408790054
 20
110.3403101909
 30
0.0
 10
57.7247593748
 20
110.2481914629
 30
0.0
 10
57.7203195278
 20
110.1999564665
 30
0.0
  0
SPLINE
  5
433
100
AcDbEntity
  8
0
100
AcDbSpline
 62
7
  6
CONTINUOUS
 70
0
 71
3
 72
11
 73
7
 74
0
 42
0.0000001
 43
0.0000001
 44
0.0000000001
 40
0.0
 40
0.0
 40
0.0
 40
0.0
 40
0.2226046637
 40
0.4596671197
 40
0.7183815263
 40
1.0
 40
1.0
 40
1.0
 40
1.0
 10
55.3401996744
 20
112.1487360388
 30
0.0
 10
55.3070411778
 20
112.1295914078
 30
0.0
 10
55.2445187397
 20
112.0789845296
 30
0.0
 10
55.1731508036
 20
111.9764859414
 30
0.0
 10
55.1245730224
 20
111.8508009827
 30
0.0
 10
55.1084533918
 20
111.7586822546
 30
0.0
 10
55.1040135448
 20
111.7104472583
 30
0.0
  0
SPLINE
  5
434
100
AcDbEntity
  8
0
100
AcDbSpline
 62
7
  6
CONTINUOUS
 70
0
 71
3
 72
11
 73
7
 74
0
 42
0.0000001
 43
0.0000001
 44
0.0000000001
 40
0.0
 40
0.0
 40
0.0
 40
0.0
 40
0.2226046637
 40
0.4596671197
 40
0.7183815263
 40
1.0
 40
1.0
 40
1.0
 40
1.0
 10
52.7238936913
 20
113.6592268305
 30
0.0
 10
52.6907351948
 20
113.6400821995
 30
0.0
 10
52.6282127567
 20
113.5894753213
 30
0.0
 10
52.5568448206
 20
113.4869767331
 30
0.0
 10
52.5082670394
 20
113.3612917744
 30
0.0
 10
52.4921474087
 20
113.2691730463
 30
0.0
 10
52.4877075617
 20
113.22093805
 30
0.0
  0
SPLINE
  5
435
100
AcDbEntity
  8
0
100
AcDbSpline
 62
7
  6
CONTINUOUS
 70
0
 71
3
 72
10
 73
6
 74
0
 42
0.0000001
 43
0.0000001
 44
0.0000000001
 40
0.0
 40
0.0
 40
0.0
 40
0.0
 40
0.5454452729
 40
0.7801530928
 40
1.0
 40
1.0
 40
1.0
 40
1.0
 10
74.0130161863
 20
107.8473638665
 30
0.0
 10
73.9460633066
 20
107.8086497626
 30
0.0
 10
73.8587398713
 20
107.7327702465
 30
0.0
 10
73.7925109703
 20
107.6058401672
 30
0.0
 10
73.7811800444
 20
107.5409557871
 30
0.0
 10
73.7812114538
 20
107.5097831947
 30
0.0
  0
SPLINE
  5
436
100
AcDbEntity
  8
0
100
AcDbSpline
 62
7
  6
CONTINUOUS
 70
0
 71
3
 72
11
 73
7
 74
0
 42
0.0000001
 43
0.0000001
 44
0.0000000001
 40
0.0
 40
0.0
 40
0.0
 40
0.0
 40
0.2226046637
 40
0.4596671197
 40
0.7183815263
 40
1.0
 40
1.0
 40
1.0
 40
1.0
 10
50.1075877083
 20
115.1697176222
 30
0.0
 10
50.0744292118
 20
115.1505729913
 30
0.0
 10
50.0119067736
 20
115.099966113
 30
0.0
 10
49.9405388375
 20
114.9974675249
 30
0.0
 10
49.8919610563
 20
114.8717825661
 30
0.0
 10
49.8758414257
 20
114.779663838
 30
0.0
 10
49.8714015787
 20
114.7314288417
 30
0.0
  0
SPLINE
  5
437
100
AcDbEntity
  8
0
100
AcDbSpline
 62
7
  6
CONTINUOUS
 70
0
 71
3
 72
9
 73
5
 74
0
 42
0.0000001
 43
0.0000001
 44
0.0000000001
 40
0.0
 40
0.0
 40
0.0
 40
0.0
 40
0.4879284805
 40
1.0
 40
1.0
 40
1.0
 40
1.0
 10
71.7088995337
 20
121.6350094999
 30
0.0
 10
71.7089087613
 20
121.7385150045
 30
0.0
 10
71.6781348579
 20
121.9516018923
 30
0.0
 10
71.5916375855
 20
122.1480409082
 30
0.0
 10
71.5369723871
 20
122.2419107517
 30
0.0
  0
SPLINE
  5
438
100
AcDbEntity
  8
0
100
AcDbSpline
 62
7
  6
CONTINUOUS
 70
0
 71
3
 72
10
 73
6
 74
0
 42
0.0000001
 43
0.0000001
 44
0.0000000001
 40
0.0
 40
0.0
 40
0.0
 40
0.0
 40
0.5454452729
 40
0.7801530928
 40
1.0
 40
1.0
 40
1.0
 40
1.0
 10
76.6293221694
 20
106.3368730748
 30
0.0
 10
76.5623692896
 20
106.2981589709
 30
0.0
 10
76.4750458544
 20
106.2222794548
 30
0.0
 10
76.4088169533
 20
106.0953493754
 30
0.0
 10
76.3974860275
 20
106.0304649953
 30
0.0
 10
76.3975174368
 20
105.999292403
 30
0.0
  0
SPLINE
  5
439
100
AcDbEntity
  8
0
100
AcDbSpline
 62
7
  6
CONTINUOUS
 70
0
 71
3
 72
11
 73
7
 74
0
 42
0.0000001
 43
0.0000001
 44
0.0000000001
 40
0.0
 40
0.0
 40
0.0
 40
0.0
 40
0.2177825235
 40
0.4509170094
 40
0.7103088388
 40
1.0
 40
1.0
 40
1.0
 40
1.0
 10
71.5344339503
 20
124.9843462905
 30
0.0
 10
71.5344025198
 20
124.8651915536
 30
0.0
 10
71.4903675992
 20
124.616837464
 30
0.0
 10
71.3020540323
 20
124.2708041063
 30
0.0
 10
71.0044018019
 20
123.9580139669
 30
0.0
 10
70.755362091
 20
123.7864863571
 30
0.0
 10
70.6180986677
 20
123.7072377558
 30
0.0
  0
SPLINE
  5
43A
100
AcDbEntity
  8
0
100
AcDbSpline
 62
7
  6
CONTINUOUS
 70
0
 71
3
 72
8
 73
4
 74
0
 42
0.0000001
 43
0.0000001
 44
0.0000000001
 40
0.0
 40
0.0
 40
0.0
 40
0.0
 40
1.0
 40
1.0
 40
1.0
 40
1.0
 10
29.0705580418
 20
98.6043110058
 30
0.0
 10
29.68047205
 20
98.9747662815
 30
0.0
 10
30.2921404126
 20
99.3423274924
 30
0.0
 10
30.9021556332
 20
99.7126160817
 30
0.0
  0
SPLINE
  5
43B
100
AcDbEntity
  8
0
100
AcDbSpline
 62
7
  6
CONTINUOUS
 70
0
 71
3
 72
11
 73
7
 74
0
 42
0.0000001
 43
0.0000001
 44
0.0000000001
 40
0.0
 40
0.0
 40
0.0
 40
0.0
 40
0.2226046637
 40
0.4596671197
 40
0.7183815263
 40
1.0
 40
1.0
 40
1.0
 40
1.0
 10
47.4912817252
 20
116.680208414
 30
0.0
 10
47.4581232287
 20
116.661063783
 30
0.0
 10
47.3956007906
 20
116.6104569047
 30
0.0
 10
47.3242328545
 20
116.5079583166
 30
0.0
 10
47.2756550733
 20
116.3822733578
 30
0.0
 10
47.2595354426
 20
116.2901546298
 30
0.0
 10
47.2550955956
 20
116.2419196334
 30
0.0
  0
SPLINE
  5
43C
100
AcDbEntity
  8
0
100
AcDbSpline
 62
7
  6
CONTINUOUS
 70
0
 71
3
 72
11
 73
7
 74
0
 42
0.0000001
 43
0.0000001
 44
0.0000000001
 40
0.0
 40
0.0
 40
0.0
 40
0.0
 40
0.2177821597
 40
0.4509085942
 40
0.7102952033
 40
1.0
 40
1.0
 40
1.0
 40
1.0
 10
71.0544067522
 20
125.5568281399
 30
0.0
 10
71.0544066797
 20
125.4558949585
 30
0.0
 10
71.0171072653
 20
125.2455184336
 30
0.0
 10
70.857621584
 20
124.9523960968
 30
0.0
 10
70.6054971684
 20
124.6874249234
 30
0.0
 10
70.3945390347
 20
124.5421234242
 30
0.0
 10
70.278260747
 20
124.4749905242
 30
0.0
  0
SPLINE
  5
43D
100
AcDbEntity
  8
0
100
AcDbSpline
 62
7
  6
CONTINUOUS
 70
0
 71
3
 72
11
 73
7
 74
0
 42
0.0000001
 43
0.0000001
 44
0.0000000001
 40
0.0
 40
0.0
 40
0.0
 40
0.0
 40
0.2177817004
 40
0.450907939
 40
0.7102947186
 40
1.0
 40
1.0
 40
1.0
 40
1.0
 10
65.7544331985
 20
124.9852765939
 30
0.0
 10
65.7544332445
 20
124.8843423147
 30
0.0
 10
65.7917335089
 20
124.6739633366
 30
0.0
 10
65.9512226169
 20
124.3808381158
 30
0.0
 10
66.2033521711
 20
124.1158649406
 30
0.0
 10
66.4143143304
 20
123.9705628694
 30
0.0
 10
66.5305948067
 20
123.9034298239
 30
0.0
  0
SPLINE
  5
43E
100
AcDbEntity
  8
0
100
AcDbSpline
 62
7
  6
CONTINUOUS
 70
0
 71
3
 72
11
 73
7
 74
0
 42
0.0000001
 43
0.0000001
 44
0.0000000001
 40
0.0
 40
0.0
 40
0.0
 40
0.0
 40
0.2432039369
 40
0.4285576087
 40
0.6164274699
 40
1.0
 40
1.0
 40
1.0
 40
1.0
 10
29.0488987867
 20
62.2270281623
 30
0.0
 10
28.8633327439
 20
63.6393504314
 30
0.0
 10
28.5784343175
 20
66.1338287945
 30
0.0
 10
28.2782448088
 20
69.7321730569
 30
0.0
 10
28.0220651094
 20
74.1576677553
 30
0.0
 10
27.9431147046
 20
77.5052757629
 30
0.0
 10
27.9426464201
 20
79.7518844282
 30
0.0
  0
SPLINE
  5
43F
100
AcDbEntity
  8
0
100
AcDbSpline
 62
7
  6
CONTINUOUS
 70
0
 71
3
 72
11
 73
7
 74
0
 42
0.0000001
 43
0.0000001
 44
0.0000000001
 40
0.0
 40
0.0
 40
0.0
 40
0.0
 40
0.2177817004
 40
0.450907939
 40
0.7102947186
 40
1.0
 40
1.0
 40
1.0
 40
1.0
 10
70.7045003767
 20
125.5567756854
 30
0.0
 10
70.7045003367
 20
125.644379022
 30
0.0
 10
70.6721265224
 20
125.8269720974
 30
0.0
 10
70.5337020135
 20
126.0813826664
 30
0.0
 10
70.3148725891
 20
126.3113593844
 30
0.0
 10
70.1317733565
 20
126.4374706161
 30
0.0
 10
70.030850679
 20
126.4957370329
 30
0.0
  0
SPLINE
  5
440
100
AcDbEntity
  8
0
100
AcDbSpline
 62
7
  6
CONTINUOUS
 70
0
 71
3
 72
10
 73
6
 74
0
 42
0.0000001
 43
0.0000001
 44
0.0000000001
 40
0.0
 40
0.0
 40
0.0
 40
0.0
 40
0.2454538799
 40
0.4940487751
 40
1.0
 40
1.0
 40
1.0
 40
1.0
 10
28.0010952539
 20
83.9521265318
 30
0.0
 10
28.0339833135
 20
85.1480160707
 30
0.0
 10
28.1265501199
 20
87.5544576265
 30
0.0
 10
28.4170723981
 20
92.4200724521
 30
0.0
 10
28.7628504037
 20
96.082955024
 30
0.0
 10
29.0422668944
 20
98.5330790917
 30
0.0
  0
SPLINE
  5
441
100
AcDbEntity
  8
0
100
AcDbSpline
 62
7
  6
CONTINUOUS
 70
0
 71
3
 72
11
 73
7
 74
0
 42
0.0000001
 43
0.0000001
 44
0.0000000001
 40
0.0
 40
0.0
 40
0.0
 40
0.0
 40
0.2226046637
 40
0.4596671197
 40
0.7183815263
 40
1.0
 40
1.0
 40
1.0
 40
1.0
 10
44.8749757422
 20
118.1906992057
 30
0.0
 10
44.8418172457
 20
118.1715545747
 30
0.0
 10
44.7792948076
 20
118.1209476965
 30
0.0
 10
44.7079268714
 20
118.0184491083
 30
0.0
 10
44.6593490902
 20
117.8927641496
 30
0.0
 10
44.6432294596
 20
117.8006454215
 30
0.0
 10
44.6387896126
 20
117.7524104252
 30
0.0
  0
SPLINE
  5
442
100
AcDbEntity
  8
0
100
AcDbSpline
 62
7
  6
CONTINUOUS
 70
0
 71
3
 72
9
 73
5
 74
0
 42
0.0000001
 43
0.0000001
 44
0.0000000001
 40
0.0
 40
0.0
 40
0.0
 40
0.0
 40
0.2423457223
 40
1.0
 40
1.0
 40
1.0
 40
1.0
 10
66.5381482605
 20
124.7813512188
 30
0.0
 10
66.5564456581
 20
124.7960195102
 30
0.0
 10
66.6332066457
 20
124.8549668518
 30
0.0
 10
66.7146658788
 20
124.9077167898
 30
0.0
 10
66.7781594855
 20
124.9443746219
 30
0.0
  0
SPLINE
  5
443
100
AcDbEntity
  8
0
100
AcDbSpline
 62
7
  6
CONTINUOUS
 70
0
 71
3
 72
8
 73
4
 74
0
 42
0.0000001
 43
0.0000001
 44
0.0000000001
 40
0.0
 40
0.0
 40
0.0
 40
0.0
 40
1.0
 40
1.0
 40
1.0
 40
1.0
 10
31.259539503
 20
99.9252382514
 30
0.0
 10
31.1663495905
 20
99.8686175458
 30
0.0
 10
31.0711841252
 20
99.8152917742
 30
0.0
 10
30.9779942127
 20
99.7586710685
 30
0.0
  0
SPLINE
  5
444
100
AcDbEntity
  8
0
100
AcDbSpline
 62
7
  6
CONTINUOUS
 70
0
 71
3
 72
11
 73
7
 74
0
 42
0.0000001
 43
0.0000001
 44
0.0000000001
 40
0.0
 40
0.0
 40
0.0
 40
0.0
 40
0.2891681824
 40
0.5490798645
 40
0.7823583806
 40
1.0
 40
1.0
 40
1.0
 40
1.0
 10
67.9518735195
 20
125.5405029903
 30
0.0
 10
67.9238446247
 20
125.5566851142
 30
0.0
 10
67.8729687254
 20
125.5918561575
 30
0.0
 10
67.8119504834
 20
125.6557439879
 30
0.0
 10
67.7734538745
 20
125.72662202
 30
0.0
 10
67.7644338528
 20
125.7774200149
 30
0.0
 10
67.7644338588
 20
125.8017792884
 30
0.0
  0
SPLINE
  5
445
100
AcDbEntity
  8
0
100
AcDbSpline
 62
7
  6
CONTINUOUS
 70
0
 71
3
 72
11
 73
7
 74
0
 42
0.0000001
 43
0.0000001
 44
0.0000000001
 40
0.0
 40
0.0
 40
0.0
 40
0.0
 40
0.2372428732
 40
0.4999994739
 40
0.7627563609
 40
1.0
 40
1.0
 40
1.0
 40
1.0
 10
68.8569701994
 20
125.5405051659
 30
0.0
 10
68.7927206085
 20
125.5034108687
 30
0.0
 10
68.64330845
 20
125.4492881631
 30
0.0
 10
68.4044225709
 20
125.4233550426
 30
0.0
 10
68.1655363314
 20
125.4492870729
 30
0.0
 10
68.0161235853
 20
125.5034090367
 30
0.0
 10
67.9518735195
 20
125.5405029903
 30
0.0
  0
SPLINE
  5
446
100
AcDbEntity
  8
0
100
AcDbSpline
 62
7
  6
CONTINUOUS
 70
0
 71
3
 72
11
 73
7
 74
0
 42
0.0000001
 43
0.0000001
 44
0.0000000001
 40
0.0
 40
0.0
 40
0.0
 40
0.0
 40
0.2226046637
 40
0.4596671197
 40
0.7183815263
 40
1.0
 40
1.0
 40
1.0
 40
1.0
 10
42.2586697591
 20
119.7011899974
 30
0.0
 10
42.2255112626
 20
119.6820453664
 30
0.0
 10
42.1629888245
 20
119.6314384882
 30
0.0
 10
42.0916208884
 20
119.5289399
 30
0.0
 10
42.0430431072
 20
119.4032549413
 30
0.0
 10
42.0269234766
 20
119.3111362132
 30
0.0
 10
42.0224836295
 20
119.2629012169
 30
0.0
  0
SPLINE
  5
447
100
AcDbEntity
  8
0
100
AcDbSpline
 62
7
  6
CONTINUOUS
 70
0
 71
3
 72
10
 73
6
 74
0
 42
0.0000001
 43
0.0000001
 44
0.0000000001
 40
0.0
 40
0.0
 40
0.0
 40
0.0
 40
0.5454452729
 40
0.7801530928
 40
1.0
 40
1.0
 40
1.0
 40
1.0
 10
79.2456281524
 20
104.8263822831
 30
0.0
 10
79.1786752727
 20
104.7876681792
 30
0.0
 10
79.0913518374
 20
104.711788663
 30
0.0
 10
79.0251229364
 20
104.5848585837
 30
0.0
 10
79.0137920105
 20
104.5199742036
 30
0.0
 10
79.0138234199
 20
104.4888016113
 30
0.0
  0
SPLINE
  5
448
100
AcDbEntity
  8
0
100
AcDbSpline
 62
7
  6
CONTINUOUS
 70
0
 71
3
 72
11
 73
7
 74
0
 42
0.0000001
 43
0.0000001
 44
0.0000000001
 40
0.0
 40
0.0
 40
0.0
 40
0.0
 40
0.2226046637
 40
0.4596671197
 40
0.7183815263
 40
1.0
 40
1.0
 40
1.0
 40
1.0
 10
39.6423637761
 20
121.2116807891
 30
0.0
 10
39.6092052796
 20
121.1925361582
 30
0.0
 10
39.5466828415
 20
121.1419292799
 30
0.0
 10
39.4753149053
 20
121.0394306918
 30
0.0
 10
39.4267371241
 20
120.913745733
 30
0.0
 10
39.4106174935
 20
120.8216270049
 30
0.0
 10
39.4061776465
 20
120.7733920086
 30
0.0
  0
SPLINE
  5
449
100
AcDbEntity
  8
0
100
AcDbSpline
 62
7
  6
CONTINUOUS
 70
0
 71
3
 72
17
 73
13
 74
0
 42
0.0000001
 43
0.0000001
 44
0.0000000001
 40
0.0
 40
0.0
 40
0.0
 40
0.0
 40
0.1303498374
 40
0.2712195493
 40
0.4164678025
 40
0.559062114
 40
0.6922459588
 40
0.8106695993
 40
0.8635783918
 40
0.9123294167
 40
0.9574730246
 40
1.0
 40
1.0
 40
1.0
 40
1.0
 10
18.4101255419
 20
85.005200669
 30
0.0
 10
18.4339788067
 20
84.6619474364
 30
0.0
 10
18.5664767777
 20
83.952564491
 30
0.0
 10
18.9581903131
 20
82.9205192388
 30
0.0
 10
19.5230804066
 20
81.934630055
 30
0.0
 10
20.2199818569
 20
81.0628504572
 30
0.0
 10
20.9974529438
 20
80.363981741
 30
0.0
 10
21.695360771
 20
79.9490727441
 30
0.0
 10
22.2462482605
 20
79.7587126615
 30
0.0
 10
22.6296416493
 20
79.6904508618
 30
0.0
 10
22.9919813516
 20
79.693425855
 30
0.0
 10
23.2199528618
 20
79.7452246799
 30
0.0
 10
23.3256345788
 20
79.783080785
 30
0.0
  0
SPLINE
  5
44A
100
AcDbEntity
  8
0
100
AcDbSpline
 62
7
  6
CONTINUOUS
 70
0
 71
3
 72
10
 73
6
 74
0
 42
0.0000001
 43
0.0000001
 44
0.0000000001
 40
0.0
 40
0.0
 40
0.0
 40
0.0
 40
0.5454431941
 40
0.7801517502
 40
1.0
 40
1.0
 40
1.0
 40
1.0
 10
53.0825689212
 20
119.9312905422
 30
0.0
 10
53.015619188
 20
119.8925782577
 30
0.0
 10
52.9283026353
 20
119.8166981112
 30
0.0
 10
52.8620791385
 20
119.6897726263
 30
0.0
 10
52.8507487666
 20
119.6248907989
 30
0.0
 10
52.850780169
 20
119.5937193624
 30
0.0
  0
SPLINE
  5
44B
100
AcDbEntity
  8
0
100
AcDbSpline
 62
7
  6
CONTINUOUS
 70
0
 71
3
 72
11
 73
7
 74
0
 42
0.0000001
 43
0.0000001
 44
0.0000000001
 40
0.0
 40
0.0
 40
0.0
 40
0.0
 40
0.2226046637
 40
0.4596671197
 40
0.7183815263
 40
1.0
 40
1.0
 40
1.0
 40
1.0
 10
37.0260577931
 20
122.7221715809
 30
0.0
 10
36.9928992965
 20
122.7030269499
 30
0.0
 10
36.9303768584
 20
122.6524200717
 30
0.0
 10
36.8590089223
 20
122.5499214835
 30
0.0
 10
36.8104311411
 20
122.4242365247
 30
0.0
 10
36.7943115105
 20
122.3321177967
 30
0.0
 10
36.7898716635
 20
122.2838828003
 30
0.0
  0
SPLINE
  5
44C
100
AcDbEntity
  8
0
100
AcDbSpline
 62
7
  6
CONTINUOUS
 70
0
 71
3
 72
11
 73
7
 74
0
 42
0.0000001
 43
0.0000001
 44
0.0000000001
 40
0.0
 40
0.0
 40
0.0
 40
0.0
 40
0.2226046637
 40
0.4596671197
 40
0.7183815263
 40
1.0
 40
1.0
 40
1.0
 40
1.0
 10
34.40975181
 20
124.2326623726
 30
0.0
 10
34.3765933135
 20
124.2135177416
 30
0.0
 10
34.3140708754
 20
124.1629108634
 30
0.0
 10
34.2427029392
 20
124.0604122752
 30
0.0
 10
34.194125158
 20
123.9347273165
 30
0.0
 10
34.1780055274
 20
123.8426085884
 30
0.0
 10
34.1735656804
 20
123.794373592
 30
0.0
  0
ELLIPSE
  5
44D
100
AcDbEntity
  8
0
100
AcDbEllipse
 62
7
  6
CONTINUOUS
 10
58.4391622409
 20
122.3292791862
 30
0.0
 11
0.8558793393
 21
0.0000002166
 31
0.0
 40
0.5773420155
 41
5.4970829707
 42
8.6401462032
  0
ELLIPSE
  5
44E
100
AcDbEntity
  8
0
100
AcDbEllipse
 62
7
  6
CONTINUOUS
 10
31.9302988101
 20
80.9685935155
 30
0.0
 11
-0.0042151059
 21
127.8165050825
 31
0.0
 40
0.0075575228
 41
1.4232357586
 42
1.4242109774
  0
ELLIPSE
  5
44F
100
AcDbEntity
  8
0
100
AcDbEllipse
 62
7
  6
CONTINUOUS
 10
68.9043861747
 20
116.2873160238
 30
0.0
 11
0.8558793393
 21
0.0000002166
 31
0.0
 40
0.5773420155
 41
5.4970880493
 42
8.6401459707
  0
ENDSEC
  0
SECTION
  2
OBJECTS
  0
DICTIONARY
  5
C
100
AcDbDictionary
280
0
281
1
  3
ACAD_GROUP
350
D
  3
ACAD_MLINESTYLE
350
17
  3
ACAD_LAYOUT
350
1A
  3
ACAD_PLOTSETTINGS
350
19
  3
ACAD_PLOTSTYLENAME
350
E
  0
DICTIONARY
  5
D
102
{ACAD_REACTORS
330
C
102
}
100
AcDbDictionary
280
0
281
1
  0
ACDBDICTIONARYWDFLT
  5
E
102
{ACAD_REACTORS
330
C
102
}
100
AcDbDictionary
281
1
  3
Normal
350
F
100
AcDbDictionaryWithDefault
340
F
  0
DICTIONARY
  5
17
102
{ACAD_REACTORS
330
C
102
}
100
AcDbDictionary
280
0
281
1
  3
Standard
350
18
  0
DICTIONARY
  5
19
102
{ACAD_REACTORS
330
C
102
}
100
AcDbDictionary
281
1
  0
DICTIONARY
  5
1A
102
{ACAD_REACTORS
330
C
102
}
100
AcDbDictionary
281
1
  3
Model
350
450
  3
Layout1
350
451
  0
ACDBPLACEHOLDER
  5
F
102
{ACAD_REACTORS
330
E
102
}
  0
MLINESTYLE
  5
18
102
{ACAD_REACTORS
330
17
102
}
100
AcDbMlineStyle
  2
STANDARD
 70
0
  3

 62
256
 51
90.0
 52
90.0
 71
2
 49
0.5
 62
256
  6
BYLAYER
 49
-0.5
 62
256
  6
BYLAYER
  0
LAYOUT
  5
450
102
{ACAD_REACTORS
330
1A
102
}
100
AcDbPlotSettings
  1

  2
none_device
  4

  6

 40
0.0
 41
0.0
 42
0.0
 43
0.0
 44
210.0
 45
297.0
 46
0.0
 47
0.0
 48
0.0
 49
0.0
140
0.0
141
0.0
142
1.0
143
1.0
 70
1024
 72
1
 73
0
 74
0
  7

 75
0
147
1.0
148
0.0
149
0.0
100
AcDbLayout
  1
Model
 70
0
 71
0
 10
0.0
 20
0.0
 11
210.0
 21
297.0
 12
0.0
 22
0.0
 32
0.0
 14
0.0
 24
0.0
 34
0.0
 15
0.0
 25
0.0
 35
0.0
146
0.0
 13
0.0
 23
0.0
 33
0.0
 16
1.0
 26
0.0
 36
0.0
 17
0.0
 27
1.0
 37
0.0
 76
0
330
210
345
0
346
0
  0
LAYOUT
  5
451
102
{ACAD_REACTORS
330
1A
102
}
100
AcDbPlotSettings
  1

  2
none_device
  4

  6

 40
0.0
 41
0.0
 42
0.0
 43
0.0
 44
210.0
 45
297.0
 46
0.0
 47
0.0
 48
0.0
 49
0.0
140
0.0
141
0.0
142
1.0
143
1.0
 70
0
 72
1
 73
0
 74
0
  7

 75
0
147
1.0
148
0.0
149
0.0
100
AcDbLayout
  1
Layout1
 70
0
 71
1
 10
0.0
 20
0.0
 11
210.0
 21
297.0
 12
0.0
 22
0.0
 32
0.0
 14
0.0
 24
0.0
 34
0.0
 15
0.0
 25
0.0
 35
0.0
146
0.0
 13
0.0
 23
0.0
 33
0.0
 16
1.0
 26
0.0
 36
0.0
 17
0.0
 27
1.0
 37
0.0
 76
0
330
211
345
0
346
0
  0
ENDSEC
  0
EOF
