999
DXF file: C:\Users\sesa63760\Dev\_Creo\CAD\MCADPD0004692_3D-CAD\drw0001_6.dxf
999
Pro/ENGINEER 2019471 by Parametric Technology Corporation
  0
SECTION
  2
HEADER
  9
$ACADVER
  1
AC1024
  9
$DWGCODEPAGE
  3
ANSI_1252
  9
$EXTMAX
 10
102.3703316255
 20
144.7808975846
 30
0.0
  9
$EXTMIN
 10
0.0
 20
0.0
 30
0.0
  9
$LIMMIN
 10
0.0
 20
0.0
  9
$LIMMAX
 10
102.3703316255
 20
144.7808975846
  9
$VIEWCTR
 10
51.1851658127
 20
72.3904487923
  9
$VIEWSIZE
 40
144.7808975846
  9
$CLAYER
  8
0
  9
$LTSCALE
 40
9.4375696203
  9
$CELTYPE
  6
BYLAYER
  9
$DIMSCALE
 40
1.0
  9
$DIMASZ
 40
1.2186944241
  9
$DIMEXO
 40
1.0
  9
$DIMDLI
 40
6.5205026468
  9
$DIMEXE
 40
1.0
  9
$DIMCEN
 40
1.5443295742
  9
$DIMLFAC
 40
1.0
  9
$DIMBLK
  1
_FILLED
  9
$DIMALT
 70
0
  9
$DIMALTF
 40
0.0393700787
  9
$DIMTXT
 40
1.7061721938
  9
$DIMTOL
 70
1
  9
$DIMLIM
 70
0
  9
$DIMTFAC
 40
1.0
  9
$DIMTP
 40
0.01
  9
$DIMTM
 40
0.01
  9
$DIMGAP
 40
0.625
  9
$DIMDSEP
 70
46
  9
$AUNITS
 70
0
  9
$PDMODE
 70
3
  9
$PDSIZE
 40
0.3125
  9
$HANDSEED
  5
275
  9
$TILEMODE
 70
1
  9
$MEASUREMENT
 70
1
  9
$INSUNITS
 70
4
  0
ENDSEC
  0
SECTION
  2
CLASSES
  0
CLASS
  1
ACDBDICTIONARYWDFLT
  2
AcDbDictionaryWithDefault
  3
AutoCAD 2000
 90
0
 91
1
280
0
281
0
  0
CLASS
  1
ACDBPLACEHOLDER
  2
AcDbPlaceHolder
  3
AutoCAD 2000
 90
0
 91
1
280
0
281
0
  0
CLASS
  1
LAYOUT
  2
AcDbLayout
  3
AutoCAD 2000
 90
0
 91
0
280
0
281
0
  0
ENDSEC
  0
SECTION
  2
TABLES
  0
TABLE
  2
VPORT
  5
8
100
AcDbSymbolTable
 70
2
  0
VPORT
  5
1F4
100
AcDbSymbolTableRecord
100
AcDbViewportTableRecord
  2
*ACTIVE
 70
0
 10
0.0
 20
0.0
 11
1.0
 21
1.0
 12
51.1851658127
 22
72.3904487923
 13
0.0
 23
0.0
 14
1.0
 24
1.0
 15
0.0
 25
0.0
 16
0.0
 26
0.0
 36
1.0
 17
0.0
 27
0.0
 37
0.0
 40
144.7808975846
 41
0.7070707071
 42
50.0
 43
0.0
 44
0.0
 50
0.0
 51
0.0
 71
0
 72
100
 73
1
 74
1
 75
0
 76
0
 77
0
 78
0
  0
ENDTAB
  0
TABLE
  2
LTYPE
  5
5
100
AcDbSymbolTable
 70
6
  0
LTYPE
  5
14
100
AcDbSymbolTableRecord
100
AcDbLinetypeTableRecord
  2
BYBLOCK
 70
0
  3

 72
65
 73
0
 40
0.0
  0
LTYPE
  5
15
100
AcDbSymbolTableRecord
100
AcDbLinetypeTableRecord
  2
BYLAYER
 70
0
  3

 72
65
 73
0
 40
0.0
  0
LTYPE
  5
16
100
AcDbSymbolTableRecord
100
AcDbLinetypeTableRecord
  2
CONTINUOUS
 70
64
  3
Solid line
 72
65
 73
0
 40
0.0
  0
LTYPE
  5
1F5
100
AcDbSymbolTableRecord
100
AcDbLinetypeTableRecord
  2
CENTER
 70
64
  3
____ _ ____ _ ____ _ ____ _ ____ _ ____ _ ____
 72
65
 73
4
 40
0.6
 49
0.375
 74
0
 49
-0.075
 74
0
 49
0.075
 74
0
 49
-0.075
 74
0
  0
LTYPE
  5
1F6
100
AcDbSymbolTableRecord
100
AcDbLinetypeTableRecord
  2
HIDDEN
 70
64
  3
- - - - - - - - - - - - - - - - - - - -
 72
65
 73
2
 40
0.2
 49
0.1
 74
0
 49
-0.1
 74
0
  0
LTYPE
  5
1F7
100
AcDbSymbolTableRecord
100
AcDbLinetypeTableRecord
  2
PHANTOM
 70
64
  3
_____ _ _ _____ _ _ _____ _ _ _____
 72
65
 73
6
 40
0.8
 49
0.45
 74
0
 49
-0.05
 74
0
 49
0.1
 74
0
 49
-0.05
 74
0
 49
0.1
 74
0
 49
-0.05
 74
0
  0
LTYPE
  5
1F8
100
AcDbSymbolTableRecord
100
AcDbLinetypeTableRecord
  2
DOT
 70
64
  3
. . . . . . . . . . . . . . . . . . . .
 72
65
 73
2
 40
0.2
 49
0.1
 74
0
 49
-0.1
 74
0
  0
LTYPE
  5
1F9
100
AcDbSymbolTableRecord
100
AcDbLinetypeTableRecord
  2
DASHED
 70
64
  3
- - - - - - - - - - - - - - - - - - - -
 72
65
 73
2
 40
0.2
 49
0.1
 74
0
 49
-0.1
 74
0
  0
ENDTAB
  0
TABLE
  2
LAYER
  5
2
100
AcDbSymbolTable
 70
36
  0
LAYER
  5
10
100
AcDbSymbolTableRecord
100
AcDbLayerTableRecord
  2
0
 70
0
 62
7
  6
CONTINUOUS
370
-3
390
F
  0
LAYER
  5
1FA
100
AcDbSymbolTableRecord
100
AcDbLayerTableRecord
  2
DEFAULT_1
 70
0
 62
7
  6
CENTER
370
-3
390
F
  0
LAYER
  5
1FB
100
AcDbSymbolTableRecord
100
AcDbLayerTableRecord
  2
DEFAULT_2
 70
0
 62
7
  6
HIDDEN
370
-3
390
F
  0
LAYER
  5
1FC
100
AcDbSymbolTableRecord
100
AcDbLayerTableRecord
  2
DEFAULT_3
 70
0
 62
7
  6
PHANTOM
370
-3
390
F
  0
LAYER
  5
1FD
100
AcDbSymbolTableRecord
100
AcDbLayerTableRecord
  2
00_COMPONENTS
 70
0
 62
7
  6
CONTINUOUS
370
-3
390
F
  0
LAYER
  5
1FE
100
AcDbSymbolTableRecord
100
AcDbLayerTableRecord
  2
01_1_DEFAULT_DATUMS
 70
0
 62
7
  6
CONTINUOUS
370
-3
390
F
  0
LAYER
  5
1FF
100
AcDbSymbolTableRecord
100
AcDbLayerTableRecord
  2
01_PLANES
 70
0
 62
7
  6
CONTINUOUS
370
-3
390
F
  0
LAYER
  5
200
100
AcDbSymbolTableRecord
100
AcDbLayerTableRecord
  2
02_COORD_SYS
 70
0
 62
7
  6
CONTINUOUS
370
-3
390
F
  0
LAYER
  5
201
100
AcDbSymbolTableRecord
100
AcDbLayerTableRecord
  2
03_AXES
 70
0
 62
7
  6
CONTINUOUS
370
-3
390
F
  0
LAYER
  5
202
100
AcDbSymbolTableRecord
100
AcDbLayerTableRecord
  2
04_POINTS
 70
0
 62
7
  6
CONTINUOUS
370
-3
390
F
  0
LAYER
  5
203
100
AcDbSymbolTableRecord
100
AcDbLayerTableRecord
  2
05_CURVES
 70
0
 62
7
  6
CONTINUOUS
370
-3
390
F
  0
LAYER
  5
204
100
AcDbSymbolTableRecord
100
AcDbLayerTableRecord
  2
06_SURFS
 70
0
 62
7
  6
CONTINUOUS
370
-3
390
F
  0
LAYER
  5
205
100
AcDbSymbolTableRecord
100
AcDbLayerTableRecord
  2
07_COSMETICS
 70
0
 62
7
  6
CONTINUOUS
370
-3
390
F
  0
LAYER
  5
206
100
AcDbSymbolTableRecord
100
AcDbLayerTableRecord
  2
10_NOTES
 70
0
 62
7
  6
CONTINUOUS
370
-3
390
F
  0
LAYER
  5
207
100
AcDbSymbolTableRecord
100
AcDbLayerTableRecord
  2
11_NOTES_PUB
 70
0
 62
7
  6
CONTINUOUS
370
-3
390
F
  0
LAYER
  5
208
100
AcDbSymbolTableRecord
100
AcDbLayerTableRecord
  2
13_REF_GTOL
 70
0
 62
7
  6
CONTINUOUS
370
-3
390
F
  0
LAYER
  5
209
100
AcDbSymbolTableRecord
100
AcDbLayerTableRecord
  2
16_MISC
 70
0
 62
7
  6
CONTINUOUS
370
-3
390
F
  0
LAYER
  5
20A
100
AcDbSymbolTableRecord
100
AcDbLayerTableRecord
  2
17_NO_PRINT
 70
0
 62
7
  6
CONTINUOUS
370
-3
390
F
  0
LAYER
  5
20B
100
AcDbSymbolTableRecord
100
AcDbLayerTableRecord
  2
18_DATUM_CAMS_JOINTS
 70
0
 62
7
  6
CONTINUOUS
370
-3
390
F
  0
LAYER
  5
20C
100
AcDbSymbolTableRecord
100
AcDbLayerTableRecord
  2
19_DATUM_FUNCTIONAL
 70
0
 62
7
  6
CONTINUOUS
370
-3
390
F
  0
LAYER
  5
20D
100
AcDbSymbolTableRecord
100
AcDbLayerTableRecord
  2
20_DATUM_KINEMATIC_SCHEME
 70
0
 62
7
  6
CONTINUOUS
370
-3
390
F
  0
ENDTAB
  0
TABLE
  2
STYLE
  5
3
100
AcDbSymbolTable
 70
1
  0
STYLE
  5
11
100
AcDbSymbolTableRecord
100
AcDbTextStyleTableRecord
  2
STANDARD
 70
0
 40
0.0
 41
1.0
 50
0.0
 71
0
 42
0.2
  3
ARIAL.TTF
  4

  0
STYLE
  5
20E
100
AcDbSymbolTableRecord
100
AcDbTextStyleTableRecord
  2
TEXTSTYLE_1
 70
0
 40
0.0
 41
0.8
 50
0.0
 71
0
 42
0.2
  3
gdt
  4

  0
ENDTAB
  0
TABLE
  2
VIEW
  5
6
100
AcDbSymbolTable
 70
0
  0
ENDTAB
  0
TABLE
  2
UCS
  5
7
100
AcDbSymbolTable
 70
0
  0
ENDTAB
  0
TABLE
  2
APPID
  5
9
100
AcDbSymbolTable
 70
1
  0
APPID
  5
20F
100
AcDbSymbolTableRecord
100
AcDbRegAppTableRecord
  2
ACAD
 70
0
  0
ENDTAB
  0
TABLE
  2
BLOCK_RECORD
  5
1
100
AcDbSymbolTable
 70
0
  0
BLOCK_RECORD
  5
210
100
AcDbSymbolTableRecord
100
AcDbBlockTableRecord
  2
*Model_Space
  0
BLOCK_RECORD
  5
211
100
AcDbSymbolTableRecord
100
AcDbBlockTableRecord
  2
*Paper_Space
  0
BLOCK_RECORD
  5
212
100
AcDbSymbolTableRecord
100
AcDbBlockTableRecord
  2
_FILLED
  0
ENDTAB
  0
TABLE
  2
DIMSTYLE
  5
A
100
AcDbSymbolTable
 70
1
100
AcDbDimStyleTable
 71
0
  0
DIMSTYLE
105
213
100
AcDbSymbolTableRecord
100
AcDbDimStyleTableRecord
  2
STANDARD
 70
0
  3

  4

 40
1.0
 41
1.2186944241
 42
1.0
 43
0.38
 44
1.0
 45
0.0
 46
0.0
 47
0.01
 48
0.01
140
1.7061721938
141
0.09
142
0.0
143
25.4
144
1.0
145
0.0
146
1.0
147
0.625
 71
1
 72
0
 73
0
 74
0
 75
0
 76
0
 77
1
 78
8
 79
2
170
0
171
1
172
0
173
0
174
0
175
0
176
0
177
0
178
0
270
2
179
2
271
2
272
2
273
2
274
2
275
0
280
0
281
0
282
0
283
1
284
8
285
0
286
0
287
3
288
0
340
11
278
46
341
212
342
212
343
212
344
212
  0
ENDTAB
  0
ENDSEC
  0
SECTION
  2
BLOCKS
  0
BLOCK
  5
20
100
AcDbEntity
  8
0
100
AcDbBlockBegin
  2
*Model_Space
 70
0
 10
0.0
 20
0.0
 30
0.0
  3
*Model_Space
  1

  0
ENDBLK
  5
21
100
AcDbEntity
  8
0
100
AcDbBlockEnd
  0
BLOCK
  5
1C
100
AcDbEntity
  8
0
100
AcDbBlockBegin
  2
*Paper_Space
 70
0
 10
0.0
 20
0.0
 30
0.0
  3
*Paper_Space
  1

  0
ENDBLK
  5
1D
100
AcDbEntity
  8
0
100
AcDbBlockEnd
  0
BLOCK
  5
214
100
AcDbEntity
  8
0
100
AcDbBlockBegin
  2
_FILLED
 70
64
 10
0.0
 20
0.0
  3
_FILLED
  1

  0
SOLID
  5
215
100
AcDbEntity
  8
0
  6
BYBLOCK
 62
0
100
AcDbTrace
 10
0.0
 20
0.0
 11
-1.0
 21
0.25
 12
-1.0
 22
-0.25
 13
-1.0
 23
-0.25
  0
ENDBLK
  5
216
100
AcDbEntity
  8
0
  6
BYBLOCK
 62
0
100
AcDbBlockEnd
  0
ENDSEC
  0
SECTION
  2
ENTITIES
  0
LINE
  5
217
100
AcDbEntity
  8
0
100
AcDbLine
 62
7
  6
BYLAYER
 10
47.8212188497
 20
14.4899959885
 11
41.8212672446
 21
14.1904512088
  0
LINE
  5
218
100
AcDbEntity
  8
0
100
AcDbLine
 62
7
  6
BYLAYER
 10
41.821264126
 20
14.1904464199
 11
25.3212188503
 21
15.0551771509
  0
LINE
  5
219
100
AcDbEntity
  8
0
100
AcDbLine
 62
7
  6
BYLAYER
 10
25.3212188503
 20
16.0538066924
 11
41.8212641259
 21
15.1890783583
  0
LINE
  5
21A
100
AcDbEntity
  8
0
100
AcDbLine
 62
7
  6
BYLAYER
 10
41.8212672445
 20
15.1890783583
 11
47.8212188497
 21
15.4886255288
  0
LINE
  5
21B
100
AcDbEntity
  8
0
100
AcDbLine
 62
7
  6
BYLAYER
 10
74.1204239398
 20
12.2984283806
 11
75.5710664752
 21
11.9617020648
  0
LINE
  5
21C
100
AcDbEntity
  8
0
100
AcDbLine
 62
7
  6
BYLAYER
 10
64.2560677747
 20
124.1972381946
 11
70.3699746583
 21
126.1607206541
  0
LINE
  5
21D
100
AcDbEntity
  8
0
100
AcDbLine
 62
7
  6
BYLAYER
 10
56.8182188499
 20
27.4954360057
 11
47.8212188499
 21
27.1652812918
  0
LINE
  5
21E
100
AcDbEntity
  8
0
100
AcDbLine
 62
7
  6
BYLAYER
 10
64.2560677749
 20
20.5836593899
 11
70.3699746584
 21
18.6201769305
  0
LINE
  5
21F
100
AcDbEntity
  8
0
100
AcDbLine
 62
7
  6
BYLAYER
 10
70.8830048734
 20
19.8638877522
 11
64.76909799
 21
21.8273702116
  0
LINE
  5
220
100
AcDbEntity
  8
0
100
AcDbLine
 62
7
  6
BYLAYER
 10
47.8212188499
 20
30.1611697859
 11
56.8182188499
 21
30.4913245104
  0
LINE
  5
221
100
AcDbEntity
  8
0
100
AcDbLine
 62
7
  6
BYLAYER
 10
70.3699746584
 20
116.7489559487
 11
64.2560677747
 21
114.7854734892
  0
LINE
  5
222
100
AcDbEntity
  8
0
100
AcDbLine
 62
7
  6
BYLAYER
 10
64.76909799
 20
113.5417626677
 11
70.8830048737
 21
115.5052451272
  0
LINE
  5
223
100
AcDbEntity
  8
0
100
AcDbLine
 62
7
  6
BYLAYER
 10
64.76909799
 20
31.239134917
 11
70.8830048734
 21
29.2756524576
  0
LINE
  5
224
100
AcDbEntity
  8
0
100
AcDbLine
 62
7
  6
BYLAYER
 10
25.32121885
 20
15.0551990258
 11
25.32121885
 21
129.7256984221
  0
LINE
  5
225
100
AcDbEntity
  8
0
100
AcDbLine
 62
7
  6
BYLAYER
 10
60.82121885
 20
52.8904487928
 11
63.82121885
 21
52.8904487928
  0
LINE
  5
226
100
AcDbEntity
  8
0
100
AcDbLine
 62
7
  6
BYLAYER
 10
58.85121885
 20
56.4910400601
 11
57.2845694107
 21
56.4086612566
  0
LINE
  5
227
100
AcDbEntity
  8
0
100
AcDbLine
 62
7
  6
BYLAYER
 10
63.82121885
 20
57.6404487928
 11
69.82121885
 21
57.6404487928
  0
LINE
  5
228
100
AcDbEntity
  8
0
100
AcDbLine
 62
7
  6
BYLAYER
 10
69.82121885
 20
57.8562439785
 11
65.32121885
 21
57.8562439785
  0
LINE
  5
229
100
AcDbEntity
  8
0
100
AcDbLine
 62
7
  6
BYLAYER
 10
41.8213125529
 20
14.1905096865
 11
41.8211596239
 21
130.1789245254
  0
LINE
  5
22A
100
AcDbEntity
  8
0
100
AcDbLine
 62
7
  6
BYLAYER
 10
41.8213143255
 20
129.5918228767
 11
41.8212648954
 21
130.5903854131
  0
LINE
  5
22B
100
AcDbEntity
  8
0
100
AcDbLine
 62
7
  6
BYLAYER
 10
78.82121885
 20
61.4904487928
 11
69.82121885
 21
61.4442949466
  0
LINE
  5
22C
100
AcDbEntity
  8
0
100
AcDbLine
 62
7
  6
BYLAYER
 10
65.32121885
 20
62.9678900797
 11
69.82121885
 21
62.9678900797
  0
LINE
  5
22D
100
AcDbEntity
  8
0
100
AcDbLine
 62
7
  6
BYLAYER
 10
59.32121885
 20
62.9786840869
 11
60.82121885
 21
62.9786840869
  0
LINE
  5
22E
100
AcDbEntity
  8
0
100
AcDbLine
 62
7
  6
BYLAYER
 10
47.82121885
 20
130.2908828953
 11
47.82121885
 21
14.4900146695
  0
LINE
  5
22F
100
AcDbEntity
  8
0
100
AcDbLine
 62
7
  6
BYLAYER
 10
69.82121885
 20
67.3003954924
 11
65.32121885
 21
67.3003954924
  0
LINE
  5
230
100
AcDbEntity
  8
0
100
AcDbLine
 62
7
  6
BYLAYER
 10
56.81821885
 20
27.4954451491
 11
56.81821885
 21
55.9097113788
  0
LINE
  5
231
100
AcDbEntity
  8
0
100
AcDbLine
 62
7
  6
BYLAYER
 10
56.82121885
 20
117.2853408611
 11
56.82121885
 21
88.8498915048
  0
LINE
  5
232
100
AcDbEntity
  8
0
100
AcDbLine
 62
7
  6
BYLAYER
 10
59.32121885
 20
26.8022134982
 11
59.32121885
 21
108.5669193811
  0
LINE
  5
233
100
AcDbEntity
  8
0
100
AcDbLine
 62
7
  6
BYLAYER
 10
59.32121885
 20
108.6550733788
 11
59.32121885
 21
117.9786840865
  0
LINE
  5
234
100
AcDbEntity
  8
0
100
AcDbLine
 62
7
  6
BYLAYER
 10
60.82121885
 20
108.5669193811
 11
60.82121885
 21
26.8022134982
  0
LINE
  5
235
100
AcDbEntity
  8
0
100
AcDbLine
 62
7
  6
BYLAYER
 10
65.32121885
 20
77.5068556071
 11
69.82121885
 21
77.5068556071
  0
LINE
  5
236
100
AcDbEntity
  8
0
100
AcDbLine
 62
7
  6
BYLAYER
 10
63.82121885
 20
91.8904217964
 11
63.82121885
 21
52.8904757891
  0
LINE
  5
237
100
AcDbEntity
  8
0
100
AcDbLine
 62
7
  6
BYLAYER
 10
64.256067775
 20
124.1972381947
 11
64.256067775
 21
114.7854734893
  0
LINE
  5
238
100
AcDbEntity
  8
0
100
AcDbLine
 62
7
  6
BYLAYER
 10
64.76909799
 20
31.239134917
 11
64.76909799
 21
21.8273702116
  0
LINE
  5
239
100
AcDbEntity
  8
0
100
AcDbLine
 62
7
  6
BYLAYER
 10
65.32121885
 20
86.9294143202
 11
65.32121885
 21
81.8346003066
  0
LINE
  5
23A
100
AcDbEntity
  8
0
100
AcDbLine
 62
7
  6
BYLAYER
 10
65.32121885
 20
77.5068556071
 11
65.32121885
 21
67.3003954924
  0
LINE
  5
23B
100
AcDbEntity
  8
0
100
AcDbLine
 62
7
  6
BYLAYER
 10
65.32121885
 20
62.9678900797
 11
65.32121885
 21
57.8562439785
  0
LINE
  5
23C
100
AcDbEntity
  8
0
100
AcDbLine
 62
7
  6
BYLAYER
 10
69.82121885
 20
81.8346003066
 11
65.32121885
 21
81.8346003066
  0
LINE
  5
23D
100
AcDbEntity
  8
0
100
AcDbLine
 62
7
  6
BYLAYER
 10
78.82121885
 20
83.2904487928
 11
69.82121885
 21
83.3366026389
  0
LINE
  5
23E
100
AcDbEntity
  8
0
100
AcDbLine
 62
7
  6
BYLAYER
 10
69.82121885
 20
87.1403883716
 11
69.82121885
 21
57.6405092139
  0
LINE
  5
23F
100
AcDbEntity
  8
0
100
AcDbLine
 62
7
  6
BYLAYER
 10
60.82121885
 20
86.7729255576
 11
59.32121885
 21
86.7729255576
  0
LINE
  5
240
100
AcDbEntity
  8
0
100
AcDbLine
 62
7
  6
BYLAYER
 10
65.32121885
 20
86.9294143202
 11
69.82121885
 21
86.9294143202
  0
LINE
  5
241
100
AcDbEntity
  8
0
100
AcDbLine
 62
7
  6
BYLAYER
 10
63.82121885
 20
87.1404487928
 11
69.82121885
 21
87.1404487928
  0
LINE
  5
242
100
AcDbEntity
  8
0
100
AcDbLine
 62
7
  6
BYLAYER
 10
57.217108566
 20
88.3608505569
 11
58.8475924479
 21
88.2747617434
  0
LINE
  5
243
100
AcDbEntity
  8
0
100
AcDbLine
 62
7
  6
BYLAYER
 10
70.3699746584
 20
116.7489559487
 11
70.3699746584
 21
126.1607206541
  0
LINE
  5
244
100
AcDbEntity
  8
0
100
AcDbLine
 62
7
  6
BYLAYER
 10
70.8830048734
 20
19.8638877522
 11
70.8830048734
 21
29.2756524576
  0
LINE
  5
245
100
AcDbEntity
  8
0
100
AcDbLine
 62
7
  6
BYLAYER
 10
71.82121885
 20
106.5681964869
 11
71.82121885
 21
102.2127010986
  0
LINE
  5
246
100
AcDbEntity
  8
0
100
AcDbLine
 62
7
  6
BYLAYER
 10
74.1204239398
 20
132.482469204
 11
74.1204239398
 21
123.0707044986
  0
LINE
  5
247
100
AcDbEntity
  8
0
100
AcDbLine
 62
7
  6
BYLAYER
 10
74.1204239398
 20
14.4883741022
 11
74.1204239398
 21
12.2984283806
  0
LINE
  5
248
100
AcDbEntity
  8
0
100
AcDbLine
 62
7
  6
BYLAYER
 10
60.82121885
 20
91.8904487928
 11
63.82121885
 21
91.8904487928
  0
LINE
  5
249
100
AcDbEntity
  8
0
100
AcDbLine
 62
7
  6
BYLAYER
 10
75.5710664752
 20
123.4074308144
 11
75.5710664752
 21
132.8191955198
  0
LINE
  5
24A
100
AcDbEntity
  8
0
100
AcDbLine
 62
7
  6
BYLAYER
 10
75.8178537985
 20
13.6453336439
 11
75.8178537985
 21
23.0570983493
  0
LINE
  5
24B
100
AcDbEntity
  8
0
100
AcDbLine
 62
7
  6
BYLAYER
 10
75.8178537985
 20
121.7237992353
 11
75.8178537985
 21
131.1355639407
  0
LINE
  5
24C
100
AcDbEntity
  8
0
100
AcDbLine
 62
7
  6
BYLAYER
 10
78.82121885
 20
83.2904282567
 11
78.82121885
 21
61.4904693288
  0
LINE
  5
24D
100
AcDbEntity
  8
0
100
AcDbLine
 62
7
  6
BYLAYER
 10
60.82121885
 20
96.0664626715
 11
59.32121885
 21
96.0664626715
  0
LINE
  5
24E
100
AcDbEntity
  8
0
100
AcDbLine
 62
7
  6
BYLAYER
 10
56.82121885
 20
102.0947931875
 11
59.32121885
 21
102.114444506
  0
LINE
  5
24F
100
AcDbEntity
  8
0
100
AcDbLine
 62
7
  6
BYLAYER
 10
60.82121885
 20
102.1262352971
 11
71.82121885
 21
102.2127010986
  0
LINE
  5
250
100
AcDbEntity
  8
0
100
AcDbLine
 62
7
  6
BYLAYER
 10
56.82121885
 20
106.6861043981
 11
59.32121885
 21
106.6664530795
  0
LINE
  5
251
100
AcDbEntity
  8
0
100
AcDbLine
 62
7
  6
BYLAYER
 10
60.82121885
 20
106.6546622884
 11
71.82121885
 21
106.5681964869
  0
LINE
  5
252
100
AcDbEntity
  8
0
100
AcDbLine
 62
7
  6
BYLAYER
 10
75.5710664752
 20
123.4074308144
 11
74.1204239398
 21
123.0707044986
  0
LINE
  5
253
100
AcDbEntity
  8
0
100
AcDbLine
 62
7
  6
BYLAYER
 10
56.8212188499
 20
114.2894628692
 11
47.8212188499
 21
114.6197277
  0
LINE
  5
254
100
AcDbEntity
  8
0
100
AcDbLine
 62
7
  6
BYLAYER
 10
47.8212188499
 20
117.6156161565
 11
56.8212188499
 21
117.2853513742
  0
LINE
  5
255
100
AcDbEntity
  8
0
100
AcDbLine
 62
7
  6
BYLAYER
 10
74.1204239398
 20
132.482469204
 11
75.5710664752
 21
132.8191955198
  0
LINE
  5
256
100
AcDbEntity
  8
0
100
AcDbLine
 62
7
  6
BYLAYER
 10
41.8212652744
 20
129.5918192285
 11
25.3212188503
 21
128.7270908932
  0
LINE
  5
257
100
AcDbEntity
  8
0
100
AcDbLine
 62
7
  6
BYLAYER
 10
47.8212188497
 20
129.2922720361
 11
41.8212683992
 21
129.5918192285
  0
LINE
  5
258
100
AcDbEntity
  8
0
100
AcDbLine
 62
7
  6
BYLAYER
 10
41.8212674088
 20
130.5904463684
 11
47.8212188497
 21
130.2909015763
  0
LINE
  5
259
100
AcDbEntity
  8
0
100
AcDbLine
 62
7
  6
BYLAYER
 10
25.3212188503
 20
129.7257202831
 11
41.8212642894
 21
130.5904511741
  0
ARC
  5
25A
100
AcDbEntity
  8
0
100
AcDbCircle
 62
7
  6
BYLAYER
 10
69.9311990263
 20
131.1325988408
 40
5.8866555189
100
AcDbArc
 50
0.0288598031
 51
16.6492415167
  0
ARC
  5
25B
100
AcDbEntity
  8
0
100
AcDbCircle
 62
7
  6
BYLAYER
 10
69.9311990263
 20
13.6482987439
 40
5.8866555189
100
AcDbArc
 50
343.3507584833
 51
359.9711401969
  0
ARC
  5
25C
100
AcDbEntity
  8
0
100
AcDbCircle
 62
7
  6
BYLAYER
 10
69.9311990263
 20
121.7208341354
 40
5.886655519
100
AcDbArc
 50
0.0288598034
 51
16.6492415168
  0
ARC
  5
25D
100
AcDbEntity
  8
0
100
AcDbCircle
 62
7
  6
BYLAYER
 10
69.6085299807
 20
121.7214271554
 40
4.7093244151
100
AcDbArc
 50
0.0288598031
 51
16.6492415169
  0
ARC
  5
25E
100
AcDbEntity
  8
0
100
AcDbCircle
 62
7
  6
BYLAYER
 10
69.6085299807
 20
13.6477057239
 40
4.7093244152
100
AcDbArc
 50
343.3507584833
 51
359.9711401969
  0
ARC
  5
25F
100
AcDbEntity
  8
0
100
AcDbCircle
 62
7
  6
BYLAYER
 10
58.82121885
 20
87.7752575158
 40
0.5002
100
AcDbArc
 50
1.6202993402
 51
86.9776151953
  0
ARC
  5
260
100
AcDbEntity
  8
0
100
AcDbCircle
 62
7
  6
BYLAYER
 10
57.31841885
 20
55.9096078973
 40
0.5002
100
AcDbArc
 50
93.8802745489
 51
180.0
  0
ARC
  5
261
100
AcDbEntity
  8
0
100
AcDbCircle
 62
7
  6
BYLAYER
 10
58.82121885
 20
56.9901392486
 40
0.5
100
AcDbArc
 50
273.4398127675
 51
360.0
  0
ARC
  5
262
100
AcDbEntity
  8
0
100
AcDbCircle
 62
7
  6
BYLAYER
 10
57.32121885
 20
88.8498915048
 40
0.5
100
AcDbArc
 50
180.0
 51
257.9819066711
  0
SPLINE
  5
263
100
AcDbEntity
  8
0
100
AcDbSpline
 62
7
  6
BYLAYER
 70
0
 71
3
 72
13
 73
9
 74
0
 42
0.0000001
 43
0.0000001
 44
0.0000000001
 40
0.0
 40
0.0
 40
0.0
 40
0.0
 40
0.1192543607
 40
0.2393369891
 40
0.3608303412
 40
0.4843308834
 40
0.7376275565
 40
1.0
 40
1.0
 40
1.0
 40
1.0
 10
60.82121885
 20
108.5669193811
 30
0.0
 10
60.82121885
 20
108.8363288217
 30
0.0
 10
60.8683946029
 20
109.3781630537
 30
0.0
 10
61.078192498
 20
110.1697589806
 30
0.0
 10
61.422446133
 20
110.9235947349
 30
0.0
 10
62.053168062
 20
111.8612612635
 30
0.0
 10
63.1375849339
 20
112.8505402351
 30
0.0
 10
64.2047565446
 20
113.3605242958
 30
0.0
 10
64.76909799
 20
113.5417626677
 30
0.0
  0
SPLINE
  5
264
100
AcDbEntity
  8
0
100
AcDbSpline
 62
7
  6
BYLAYER
 70
0
 71
3
 72
13
 73
9
 74
0
 42
0.0000001
 43
0.0000001
 44
0.0000000001
 40
0.0
 40
0.0
 40
0.0
 40
0.0
 40
0.2623724043
 40
0.5156690697
 40
0.6391696149
 40
0.7606629745
 40
0.8807456262
 40
1.0
 40
1.0
 40
1.0
 40
1.0
 10
70.8830048737
 20
115.5052451272
 30
0.0
 10
71.5884315751
 20
115.7317930582
 30
0.0
 10
72.9223959748
 20
116.3692730426
 30
0.0
 10
74.2779170304
 20
117.6058716046
 30
0.0
 10
75.0663195194
 20
118.7779547209
 30
0.0
 10
75.4966366601
 20
119.7202494787
 30
0.0
 10
75.7588840556
 20
120.7097445086
 30
0.0
 10
75.8178537985
 20
121.3870373977
 30
0.0
 10
75.8178537985
 20
121.7237992353
 30
0.0
  0
SPLINE
  5
265
100
AcDbEntity
  8
0
100
AcDbSpline
 62
7
  6
BYLAYER
 70
0
 71
3
 72
13
 73
9
 74
0
 42
0.0000001
 43
0.0000001
 44
0.0000000001
 40
0.0
 40
0.0
 40
0.0
 40
0.0
 40
0.2610899673
 40
0.5145602361
 40
0.6384837676
 40
0.7604801683
 40
0.8808261257
 40
1.0
 40
1.0
 40
1.0
 40
1.0
 10
70.3699746583
 20
126.1607206541
 30
0.0
 10
70.8603728939
 20
126.3182121488
 30
0.0
 10
71.7943093341
 20
126.7446255352
 30
0.0
 10
72.7851819346
 20
127.5464987881
 30
0.0
 10
73.4123537372
 20
128.3097703499
 30
0.0
 10
73.7907577871
 20
128.9282411527
 30
0.0
 10
74.0733448662
 20
129.5856182748
 30
0.0
 10
74.195010153
 20
130.0443237275
 30
0.0
 10
74.2381006481
 20
130.2754421346
 30
0.0
  0
SPLINE
  5
266
100
AcDbEntity
  8
0
100
AcDbSpline
 62
7
  6
BYLAYER
 70
0
 71
3
 72
13
 73
9
 74
0
 42
0.0000001
 43
0.0000001
 44
0.0000000001
 40
0.0
 40
0.0
 40
0.0
 40
0.0
 40
0.1192543607
 40
0.2393369891
 40
0.3608303412
 40
0.4843308834
 40
0.7376275565
 40
1.0
 40
1.0
 40
1.0
 40
1.0
 10
59.32121885
 20
117.9786840865
 30
0.0
 10
59.32121885
 20
118.3154458872
 30
0.0
 10
59.3801885411
 20
118.9927386772
 30
0.0
 10
59.64243591
 20
119.9822335858
 30
0.0
 10
60.0727529537
 20
120.9245282786
 30
0.0
 10
60.8611553648
 20
122.0966114393
 30
0.0
 10
62.2166764546
 20
123.3332101538
 30
0.0
 10
63.550640968
 20
123.9706902298
 30
0.0
 10
64.2560677747
 20
124.1972381946
 30
0.0
  0
SPLINE
  5
267
100
AcDbEntity
  8
0
100
AcDbSpline
 62
7
  6
BYLAYER
 70
0
 71
3
 72
13
 73
9
 74
0
 42
0.0000001
 43
0.0000001
 44
0.0000000001
 40
0.0
 40
0.0
 40
0.0
 40
0.0
 40
0.2623724043
 40
0.5156690697
 40
0.6391696149
 40
0.7606629745
 40
0.8807456262
 40
1.0
 40
1.0
 40
1.0
 40
1.0
 10
70.3699746584
 20
18.6201769305
 30
0.0
 10
70.9343160195
 20
18.4389385857
 30
0.0
 10
72.0014875394
 20
17.9289545982
 30
0.0
 10
73.0859043839
 20
16.9396757486
 30
0.0
 10
73.7166263752
 20
16.0020092555
 30
0.0
 10
74.0608800877
 20
15.2481734493
 30
0.0
 10
74.2706780042
 20
14.4565774253
 30
0.0
 10
74.3178537985
 20
13.914743114
 30
0.0
 10
74.3178537985
 20
13.6453336439
 30
0.0
  0
SPLINE
  5
268
100
AcDbEntity
  8
0
100
AcDbSpline
 62
7
  6
BYLAYER
 70
0
 71
3
 72
13
 73
9
 74
0
 42
0.0000001
 43
0.0000001
 44
0.0000000001
 40
0.0
 40
0.0
 40
0.0
 40
0.0
 40
0.1192543607
 40
0.2393369891
 40
0.3608303412
 40
0.4843308834
 40
0.7376275565
 40
1.0
 40
1.0
 40
1.0
 40
1.0
 10
59.32121885
 20
26.8022134981
 30
0.0
 10
59.32121885
 20
26.4654516974
 30
0.0
 10
59.3801885411
 20
25.7881589074
 30
0.0
 10
59.64243591
 20
24.7986639987
 30
0.0
 10
60.0727529538
 20
23.8563693059
 30
0.0
 10
60.8611553649
 20
22.6842861452
 30
0.0
 10
62.2166764548
 20
21.4476874307
 30
0.0
 10
63.5506409682
 20
20.8102073548
 30
0.0
 10
64.2560677749
 20
20.5836593899
 30
0.0
  0
SPLINE
  5
269
100
AcDbEntity
  8
0
100
AcDbSpline
 62
7
  6
BYLAYER
 70
0
 71
3
 72
13
 73
9
 74
0
 42
0.0000001
 43
0.0000001
 44
0.0000000001
 40
0.0
 40
0.0
 40
0.0
 40
0.0
 40
0.1192391817
 40
0.2393298558
 40
0.3608660512
 40
0.4844098933
 40
0.7377378205
 40
1.0
 40
1.0
 40
1.0
 40
1.0
 10
60.8219741739
 20
36.1302284666
 30
0.0
 10
60.8267707846
 20
35.8641992256
 30
0.0
 10
60.882298314
 20
35.3299640815
 30
0.0
 10
61.1007862417
 20
34.551171196
 30
0.0
 10
61.44965383
 20
33.8105754697
 30
0.0
 10
62.0813684488
 20
32.8901748172
 30
0.0
 10
63.1575588342
 20
31.9197550794
 30
0.0
 10
64.2119099044
 20
31.4180759858
 30
0.0
 10
64.76909799
 20
31.239134917
 30
0.0
  0
SPLINE
  5
26A
100
AcDbEntity
  8
0
100
AcDbSpline
 62
7
  6
BYLAYER
 70
0
 71
3
 72
13
 73
9
 74
0
 42
0.0000001
 43
0.0000001
 44
0.0000000001
 40
0.0
 40
0.0
 40
0.0
 40
0.0
 40
0.2623724043
 40
0.5156690697
 40
0.6391696149
 40
0.7606629745
 40
0.8807456262
 40
1.0
 40
1.0
 40
1.0
 40
1.0
 10
70.8830048734
 20
29.2756524576
 30
0.0
 10
71.5884315748
 20
29.0491045266
 30
0.0
 10
72.9223959746
 20
28.4116245421
 30
0.0
 10
74.2779170302
 20
27.1750259802
 30
0.0
 10
75.0663195193
 20
26.0029428638
 30
0.0
 10
75.4966366601
 20
25.060648106
 30
0.0
 10
75.7588840556
 20
24.071153076
 30
0.0
 10
75.8178537985
 20
23.3938601869
 30
0.0
 10
75.8178537985
 20
23.0570983493
 30
0.0
  0
SPLINE
  5
26B
100
AcDbEntity
  8
0
100
AcDbSpline
 62
7
  6
BYLAYER
 70
0
 71
3
 72
13
 73
9
 74
0
 42
0.0000001
 43
0.0000001
 44
0.0000000001
 40
0.0
 40
0.0
 40
0.0
 40
0.0
 40
0.2623724043
 40
0.5156690697
 40
0.6391696149
 40
0.7606629745
 40
0.8807456262
 40
1.0
 40
1.0
 40
1.0
 40
1.0
 10
64.76909799
 20
21.8273702116
 30
0.0
 10
64.2047566288
 20
22.0086085564
 30
0.0
 10
63.137585109
 20
22.5185925439
 30
0.0
 10
62.0531682645
 20
23.5078713935
 30
0.0
 10
61.4224462733
 20
24.4455378866
 30
0.0
 10
61.0781925607
 20
25.1993736928
 30
0.0
 10
60.8683946443
 20
25.9909697168
 30
0.0
 10
60.82121885
 20
26.5328040281
 30
0.0
 10
60.82121885
 20
26.8022134982
 30
0.0
  0
SPLINE
  5
26C
100
AcDbEntity
  8
0
100
AcDbSpline
 62
7
  6
BYLAYER
 70
0
 71
3
 72
13
 73
9
 74
0
 42
0.0000001
 43
0.0000001
 44
0.0000000001
 40
0.0
 40
0.0
 40
0.0
 40
0.0
 40
0.1192543607
 40
0.2393369891
 40
0.3608303412
 40
0.4843308834
 40
0.7376275565
 40
1.0
 40
1.0
 40
1.0
 40
1.0
 10
75.8178537985
 20
13.6453336439
 30
0.0
 10
75.8178537985
 20
13.9820954446
 30
0.0
 10
75.7588841074
 20
14.6593882346
 30
0.0
 10
75.4966367385
 20
15.6488831434
 30
0.0
 10
75.0663196946
 20
16.5911778362
 30
0.0
 10
74.2779172835
 20
17.7632609969
 30
0.0
 10
72.9223961936
 20
18.9998597114
 30
0.0
 10
71.5884316802
 20
19.6373397874
 30
0.0
 10
70.8830048734
 20
19.8638877522
 30
0.0
  0
SPLINE
  5
26D
100
AcDbEntity
  8
0
100
AcDbSpline
 62
7
  6
BYLAYER
 70
0
 71
3
 72
13
 73
9
 74
0
 42
0.0000001
 43
0.0000001
 44
0.0000000001
 40
0.0
 40
0.0
 40
0.0
 40
0.0
 40
0.1192543607
 40
0.2393369891
 40
0.3608303412
 40
0.4843308834
 40
0.7376275565
 40
1.0
 40
1.0
 40
1.0
 40
1.0
 10
74.3178537985
 20
121.7237992353
 30
0.0
 10
74.3178537985
 20
121.4543897947
 30
0.0
 10
74.2706780456
 20
120.9125555627
 30
0.0
 10
74.0608801505
 20
120.1209596357
 30
0.0
 10
73.7166265154
 20
119.3671238815
 30
0.0
 10
73.0859045865
 20
118.4294573529
 30
0.0
 10
72.0014877146
 20
117.4401783813
 30
0.0
 10
70.9343161038
 20
116.9301943205
 30
0.0
 10
70.3699746584
 20
116.7489559487
 30
0.0
  0
SPLINE
  5
26E
100
AcDbEntity
  8
0
100
AcDbSpline
 62
7
  6
BYLAYER
 70
0
 71
3
 72
8
 73
4
 74
0
 42
0.0000001
 43
0.0000001
 44
0.0000000001
 40
0.0
 40
0.0
 40
0.0
 40
0.0
 40
1.0
 40
1.0
 40
1.0
 40
1.0
 10
69.82121885
 20
84.4258021133
 30
0.0
 10
68.3218476891
 20
85.0546681029
 30
0.0
 10
66.8217618464
 20
85.6818311261
 30
0.0
 10
65.32121885
 20
86.3078958408
 30
0.0
  0
SPLINE
  5
26F
100
AcDbEntity
  8
0
100
AcDbSpline
 62
7
  6
BYLAYER
 70
0
 71
3
 72
13
 73
9
 74
0
 42
0.0000001
 43
0.0000001
 44
0.0000000001
 40
0.0
 40
0.0
 40
0.0
 40
0.0
 40
0.2623724043
 40
0.5156690697
 40
0.6391696149
 40
0.7606629745
 40
0.8807456262
 40
1.0
 40
1.0
 40
1.0
 40
1.0
 10
64.2560677747
 20
114.7854734892
 30
0.0
 10
63.5506410733
 20
114.5589255582
 30
0.0
 10
62.2166766736
 20
113.9214455738
 30
0.0
 10
60.8611556181
 20
112.6848470118
 30
0.0
 10
60.0727531291
 20
111.5127638955
 30
0.0
 10
59.6424359884
 20
110.5704691377
 30
0.0
 10
59.3801885929
 20
109.5809741078
 30
0.0
 10
59.32121885
 20
108.9036812187
 30
0.0
 10
59.32121885
 20
108.5669193811
 30
0.0
  0
SPLINE
  5
270
100
AcDbEntity
  8
0
100
AcDbSpline
 62
7
  6
BYLAYER
 70
0
 71
3
 72
8
 73
4
 74
0
 42
0.0000001
 43
0.0000001
 44
0.0000000001
 40
0.0
 40
0.0
 40
0.0
 40
0.0
 40
1.0
 40
1.0
 40
1.0
 40
1.0
 10
69.82121885
 20
76.2529850749
 30
0.0
 10
68.3213964606
 20
76.5680314032
 30
0.0
 10
66.821372086
 20
76.8821167208
 30
0.0
 10
65.32121885
 20
77.1955838756
 30
0.0
  0
SPLINE
  5
271
100
AcDbEntity
  8
0
100
AcDbSpline
 62
7
  6
BYLAYER
 70
0
 71
3
 72
8
 73
4
 74
0
 42
0.0000001
 43
0.0000001
 44
0.0000000001
 40
0.0
 40
0.0
 40
0.0
 40
0.0
 40
1.0
 40
1.0
 40
1.0
 40
1.0
 10
65.32121885
 20
67.6106422403
 30
0.0
 10
66.8213711205
 20
67.9230769812
 30
0.0
 10
68.3213953417
 20
68.2361280173
 30
0.0
 10
69.82121885
 20
68.550137167
 30
0.0
  0
SPLINE
  5
272
100
AcDbEntity
  8
0
100
AcDbSpline
 62
7
  6
BYLAYER
 70
0
 71
3
 72
8
 73
4
 74
0
 42
0.0000001
 43
0.0000001
 44
0.0000000001
 40
0.0
 40
0.0
 40
0.0
 40
0.0
 40
1.0
 40
1.0
 40
1.0
 40
1.0
 10
65.32121885
 20
58.4777624579
 30
0.0
 10
66.8217618464
 20
59.1038271726
 30
0.0
 10
68.3218476891
 20
59.7309901958
 30
0.0
 10
69.82121885
 20
60.3598561854
 30
0.0
  0
ENDSEC
  0
SECTION
  2
OBJECTS
  0
DICTIONARY
  5
C
100
AcDbDictionary
280
0
281
1
  3
ACAD_GROUP
350
D
  3
ACAD_MLINESTYLE
350
17
  3
ACAD_LAYOUT
350
1A
  3
ACAD_PLOTSETTINGS
350
19
  3
ACAD_PLOTSTYLENAME
350
E
  0
DICTIONARY
  5
D
102
{ACAD_REACTORS
330
C
102
}
100
AcDbDictionary
280
0
281
1
  0
ACDBDICTIONARYWDFLT
  5
E
102
{ACAD_REACTORS
330
C
102
}
100
AcDbDictionary
281
1
  3
Normal
350
F
100
AcDbDictionaryWithDefault
340
F
  0
DICTIONARY
  5
17
102
{ACAD_REACTORS
330
C
102
}
100
AcDbDictionary
280
0
281
1
  3
Standard
350
18
  0
DICTIONARY
  5
19
102
{ACAD_REACTORS
330
C
102
}
100
AcDbDictionary
281
1
  0
DICTIONARY
  5
1A
102
{ACAD_REACTORS
330
C
102
}
100
AcDbDictionary
281
1
  3
Model
350
273
  3
Layout1
350
274
  0
ACDBPLACEHOLDER
  5
F
102
{ACAD_REACTORS
330
E
102
}
  0
MLINESTYLE
  5
18
102
{ACAD_REACTORS
330
17
102
}
100
AcDbMlineStyle
  2
STANDARD
 70
0
  3

 62
256
 51
90.0
 52
90.0
 71
2
 49
0.5
 62
256
  6
BYLAYER
 49
-0.5
 62
256
  6
BYLAYER
  0
LAYOUT
  5
273
102
{ACAD_REACTORS
330
1A
102
}
100
AcDbPlotSettings
  1

  2
none_device
  4

  6

 40
0.0
 41
0.0
 42
0.0
 43
0.0
 44
210.0
 45
297.0
 46
0.0
 47
0.0
 48
0.0
 49
0.0
140
0.0
141
0.0
142
1.0
143
1.0
 70
1024
 72
1
 73
0
 74
0
  7

 75
0
147
1.0
148
0.0
149
0.0
100
AcDbLayout
  1
Model
 70
0
 71
0
 10
0.0
 20
0.0
 11
210.0
 21
297.0
 12
0.0
 22
0.0
 32
0.0
 14
0.0
 24
0.0
 34
0.0
 15
0.0
 25
0.0
 35
0.0
146
0.0
 13
0.0
 23
0.0
 33
0.0
 16
1.0
 26
0.0
 36
0.0
 17
0.0
 27
1.0
 37
0.0
 76
0
330
210
345
0
346
0
  0
LAYOUT
  5
274
102
{ACAD_REACTORS
330
1A
102
}
100
AcDbPlotSettings
  1

  2
none_device
  4

  6

 40
0.0
 41
0.0
 42
0.0
 43
0.0
 44
210.0
 45
297.0
 46
0.0
 47
0.0
 48
0.0
 49
0.0
140
0.0
141
0.0
142
1.0
143
1.0
 70
0
 72
1
 73
0
 74
0
  7

 75
0
147
1.0
148
0.0
149
0.0
100
AcDbLayout
  1
Layout1
 70
0
 71
1
 10
0.0
 20
0.0
 11
210.0
 21
297.0
 12
0.0
 22
0.0
 32
0.0
 14
0.0
 24
0.0
 34
0.0
 15
0.0
 25
0.0
 35
0.0
146
0.0
 13
0.0
 23
0.0
 33
0.0
 16
1.0
 26
0.0
 36
0.0
 17
0.0
 27
1.0
 37
0.0
 76
0
330
211
345
0
346
0
  0
ENDSEC
  0
EOF
