999
DXF file: C:\Users\sesa63760\Dev\_Creo\CAD\MCADID0000202_3D-CAD\drw0001_2.dxf
999
Pro/ENGINEER 2019471 by Parametric Technology Corporation
  0
SECTION
  2
HEADER
  9
$ACADVER
  1
AC1024
  9
$DWGCODEPAGE
  3
ANSI_1252
  9
$EXTMAX
 10
163.9897791037
 20
231.9284018752
 30
0.0
  9
$EXTMIN
 10
0.0
 20
0.0
 30
0.0
  9
$LIMMIN
 10
0.0
 20
0.0
  9
$LIMMAX
 10
163.9897791037
 20
231.9284018752
  9
$VIEWCTR
 10
81.9948895518
 20
115.9642009376
  9
$VIEWSIZE
 40
231.9284018752
  9
$CLAYER
  8
0
  9
$LTSCALE
 40
15.1182958259
  9
$CELTYPE
  6
BYLAYER
  9
$DIMSCALE
 40
1.0
  9
$DIMASZ
 40
1.952259275
  9
$DIMEXO
 40
1.0
  9
$DIMDLI
 40
10.4453680252
  9
$DIMEXE
 40
1.0
  9
$DIMCEN
 40
2.4739029533
  9
$DIMLFAC
 40
1.0
  9
$DIMBLK
  1
_FILLED
  9
$DIMALT
 70
0
  9
$DIMALTF
 40
0.0393700787
  9
$DIMTXT
 40
2.7331629851
  9
$DIMTOL
 70
1
  9
$DIMLIM
 70
0
  9
$DIMTFAC
 40
1.0
  9
$DIMTP
 40
0.01
  9
$DIMTM
 40
0.01
  9
$DIMGAP
 40
0.625
  9
$DIMDSEP
 70
46
  9
$AUNITS
 70
0
  9
$PDMODE
 70
3
  9
$PDSIZE
 40
0.3125
  9
$HANDSEED
  5
2E7
  9
$TILEMODE
 70
1
  9
$MEASUREMENT
 70
1
  9
$INSUNITS
 70
4
  0
ENDSEC
  0
SECTION
  2
CLASSES
  0
CLASS
  1
ACDBDICTIONARYWDFLT
  2
AcDbDictionaryWithDefault
  3
AutoCAD 2000
 90
0
 91
1
280
0
281
0
  0
CLASS
  1
ACDBPLACEHOLDER
  2
AcDbPlaceHolder
  3
AutoCAD 2000
 90
0
 91
1
280
0
281
0
  0
CLASS
  1
LAYOUT
  2
AcDbLayout
  3
AutoCAD 2000
 90
0
 91
0
280
0
281
0
  0
ENDSEC
  0
SECTION
  2
TABLES
  0
TABLE
  2
VPORT
  5
8
100
AcDbSymbolTable
 70
2
  0
VPORT
  5
1F4
100
AcDbSymbolTableRecord
100
AcDbViewportTableRecord
  2
*ACTIVE
 70
0
 10
0.0
 20
0.0
 11
1.0
 21
1.0
 12
81.9948895518
 22
115.9642009376
 13
0.0
 23
0.0
 14
1.0
 24
1.0
 15
0.0
 25
0.0
 16
0.0
 26
0.0
 36
1.0
 17
0.0
 27
0.0
 37
0.0
 40
231.9284018752
 41
0.7070707071
 42
50.0
 43
0.0
 44
0.0
 50
0.0
 51
0.0
 71
0
 72
100
 73
1
 74
1
 75
0
 76
0
 77
0
 78
0
  0
ENDTAB
  0
TABLE
  2
LTYPE
  5
5
100
AcDbSymbolTable
 70
6
  0
LTYPE
  5
14
100
AcDbSymbolTableRecord
100
AcDbLinetypeTableRecord
  2
BYBLOCK
 70
0
  3

 72
65
 73
0
 40
0.0
  0
LTYPE
  5
15
100
AcDbSymbolTableRecord
100
AcDbLinetypeTableRecord
  2
BYLAYER
 70
0
  3

 72
65
 73
0
 40
0.0
  0
LTYPE
  5
16
100
AcDbSymbolTableRecord
100
AcDbLinetypeTableRecord
  2
CONTINUOUS
 70
64
  3
Solid line
 72
65
 73
0
 40
0.0
  0
LTYPE
  5
1F5
100
AcDbSymbolTableRecord
100
AcDbLinetypeTableRecord
  2
CENTER
 70
64
  3
____ _ ____ _ ____ _ ____ _ ____ _ ____ _ ____
 72
65
 73
4
 40
0.6
 49
0.375
 74
0
 49
-0.075
 74
0
 49
0.075
 74
0
 49
-0.075
 74
0
  0
LTYPE
  5
1F6
100
AcDbSymbolTableRecord
100
AcDbLinetypeTableRecord
  2
HIDDEN
 70
64
  3
- - - - - - - - - - - - - - - - - - - -
 72
65
 73
2
 40
0.2
 49
0.1
 74
0
 49
-0.1
 74
0
  0
LTYPE
  5
1F7
100
AcDbSymbolTableRecord
100
AcDbLinetypeTableRecord
  2
PHANTOM
 70
64
  3
_____ _ _ _____ _ _ _____ _ _ _____
 72
65
 73
6
 40
0.8
 49
0.45
 74
0
 49
-0.05
 74
0
 49
0.1
 74
0
 49
-0.05
 74
0
 49
0.1
 74
0
 49
-0.05
 74
0
  0
LTYPE
  5
1F8
100
AcDbSymbolTableRecord
100
AcDbLinetypeTableRecord
  2
DOT
 70
64
  3
. . . . . . . . . . . . . . . . . . . .
 72
65
 73
2
 40
0.2
 49
0.1
 74
0
 49
-0.1
 74
0
  0
LTYPE
  5
1F9
100
AcDbSymbolTableRecord
100
AcDbLinetypeTableRecord
  2
DASHED
 70
64
  3
- - - - - - - - - - - - - - - - - - - -
 72
65
 73
2
 40
0.2
 49
0.1
 74
0
 49
-0.1
 74
0
  0
ENDTAB
  0
TABLE
  2
LAYER
  5
2
100
AcDbSymbolTable
 70
36
  0
LAYER
  5
10
100
AcDbSymbolTableRecord
100
AcDbLayerTableRecord
  2
0
 70
0
 62
7
  6
CONTINUOUS
370
-3
390
F
  0
LAYER
  5
1FA
100
AcDbSymbolTableRecord
100
AcDbLayerTableRecord
  2
DEFAULT_1
 70
0
 62
7
  6
CENTER
370
-3
390
F
  0
LAYER
  5
1FB
100
AcDbSymbolTableRecord
100
AcDbLayerTableRecord
  2
DEFAULT_2
 70
0
 62
8
  6
HIDDEN
370
-3
390
F
  0
LAYER
  5
1FC
100
AcDbSymbolTableRecord
100
AcDbLayerTableRecord
  2
DEFAULT_3
 70
0
 62
7
  6
PHANTOM
370
-3
390
F
  0
LAYER
  5
1FD
100
AcDbSymbolTableRecord
100
AcDbLayerTableRecord
  2
00_COMPONENTS
 70
0
 62
7
  6
CONTINUOUS
370
-3
390
F
  0
LAYER
  5
1FE
100
AcDbSymbolTableRecord
100
AcDbLayerTableRecord
  2
01_1_DEFAULT_DATUMS
 70
0
 62
7
  6
CONTINUOUS
370
-3
390
F
  0
LAYER
  5
1FF
100
AcDbSymbolTableRecord
100
AcDbLayerTableRecord
  2
01_PLANES
 70
0
 62
7
  6
CONTINUOUS
370
-3
390
F
  0
LAYER
  5
200
100
AcDbSymbolTableRecord
100
AcDbLayerTableRecord
  2
02_COORD_SYS
 70
0
 62
7
  6
CONTINUOUS
370
-3
390
F
  0
LAYER
  5
201
100
AcDbSymbolTableRecord
100
AcDbLayerTableRecord
  2
03_AXES
 70
0
 62
7
  6
CONTINUOUS
370
-3
390
F
  0
LAYER
  5
202
100
AcDbSymbolTableRecord
100
AcDbLayerTableRecord
  2
04_POINTS
 70
0
 62
7
  6
CONTINUOUS
370
-3
390
F
  0
LAYER
  5
203
100
AcDbSymbolTableRecord
100
AcDbLayerTableRecord
  2
05_CURVES
 70
0
 62
7
  6
CONTINUOUS
370
-3
390
F
  0
LAYER
  5
204
100
AcDbSymbolTableRecord
100
AcDbLayerTableRecord
  2
06_SURFS
 70
0
 62
7
  6
CONTINUOUS
370
-3
390
F
  0
LAYER
  5
205
100
AcDbSymbolTableRecord
100
AcDbLayerTableRecord
  2
07_COSMETICS
 70
0
 62
7
  6
CONTINUOUS
370
-3
390
F
  0
LAYER
  5
206
100
AcDbSymbolTableRecord
100
AcDbLayerTableRecord
  2
10_NOTES
 70
0
 62
7
  6
CONTINUOUS
370
-3
390
F
  0
LAYER
  5
207
100
AcDbSymbolTableRecord
100
AcDbLayerTableRecord
  2
11_NOTES_PUB
 70
0
 62
7
  6
CONTINUOUS
370
-3
390
F
  0
LAYER
  5
208
100
AcDbSymbolTableRecord
100
AcDbLayerTableRecord
  2
13_REF_GTOL
 70
0
 62
7
  6
CONTINUOUS
370
-3
390
F
  0
LAYER
  5
209
100
AcDbSymbolTableRecord
100
AcDbLayerTableRecord
  2
16_MISC
 70
0
 62
7
  6
CONTINUOUS
370
-3
390
F
  0
LAYER
  5
20A
100
AcDbSymbolTableRecord
100
AcDbLayerTableRecord
  2
17_NO_PRINT
 70
0
 62
7
  6
CONTINUOUS
370
-3
390
F
  0
LAYER
  5
20B
100
AcDbSymbolTableRecord
100
AcDbLayerTableRecord
  2
18_DATUM_CAMS_JOINTS
 70
0
 62
7
  6
CONTINUOUS
370
-3
390
F
  0
LAYER
  5
20C
100
AcDbSymbolTableRecord
100
AcDbLayerTableRecord
  2
19_DATUM_FUNCTIONAL
 70
0
 62
7
  6
CONTINUOUS
370
-3
390
F
  0
LAYER
  5
20D
100
AcDbSymbolTableRecord
100
AcDbLayerTableRecord
  2
20_DATUM_KINEMATIC_SCHEME
 70
0
 62
7
  6
CONTINUOUS
370
-3
390
F
  0
ENDTAB
  0
TABLE
  2
STYLE
  5
3
100
AcDbSymbolTable
 70
1
  0
STYLE
  5
11
100
AcDbSymbolTableRecord
100
AcDbTextStyleTableRecord
  2
STANDARD
 70
0
 40
0.0
 41
0.8
 50
0.0
 71
0
 42
0.2
  3
txt
  4

  0
STYLE
  5
20E
100
AcDbSymbolTableRecord
100
AcDbTextStyleTableRecord
  2
TEXTSTYLE_1
 70
0
 40
0.0
 41
0.8
 50
0.0
 71
0
 42
0.2
  3
gdt
  4

  0
ENDTAB
  0
TABLE
  2
VIEW
  5
6
100
AcDbSymbolTable
 70
0
  0
ENDTAB
  0
TABLE
  2
UCS
  5
7
100
AcDbSymbolTable
 70
0
  0
ENDTAB
  0
TABLE
  2
APPID
  5
9
100
AcDbSymbolTable
 70
1
  0
APPID
  5
20F
100
AcDbSymbolTableRecord
100
AcDbRegAppTableRecord
  2
ACAD
 70
0
  0
ENDTAB
  0
TABLE
  2
BLOCK_RECORD
  5
1
100
AcDbSymbolTable
 70
0
  0
BLOCK_RECORD
  5
210
100
AcDbSymbolTableRecord
100
AcDbBlockTableRecord
  2
*Model_Space
  0
BLOCK_RECORD
  5
211
100
AcDbSymbolTableRecord
100
AcDbBlockTableRecord
  2
*Paper_Space
  0
BLOCK_RECORD
  5
212
100
AcDbSymbolTableRecord
100
AcDbBlockTableRecord
  2
_FILLED
  0
ENDTAB
  0
TABLE
  2
DIMSTYLE
  5
A
100
AcDbSymbolTable
 70
1
100
AcDbDimStyleTable
 71
0
  0
DIMSTYLE
105
213
100
AcDbSymbolTableRecord
100
AcDbDimStyleTableRecord
  2
STANDARD
 70
0
  3

  4

 40
1.0
 41
1.952259275
 42
1.0
 43
0.38
 44
1.0
 45
0.0
 46
0.0
 47
0.01
 48
0.01
140
2.7331629851
141
0.09
142
0.0
143
25.4
144
1.0
145
0.0
146
1.0
147
0.625
 71
1
 72
0
 73
0
 74
0
 75
0
 76
0
 77
1
 78
8
 79
2
170
0
171
1
172
0
173
0
174
0
175
0
176
0
177
0
178
0
270
2
179
2
271
2
272
2
273
2
274
2
275
0
280
0
281
0
282
0
283
1
284
8
285
0
286
0
287
3
288
0
340
11
278
46
341
212
342
212
343
212
344
212
  0
ENDTAB
  0
ENDSEC
  0
SECTION
  2
BLOCKS
  0
BLOCK
  5
20
100
AcDbEntity
  8
0
100
AcDbBlockBegin
  2
*Model_Space
 70
0
 10
0.0
 20
0.0
 30
0.0
  3
*Model_Space
  1

  0
ENDBLK
  5
21
100
AcDbEntity
  8
0
100
AcDbBlockEnd
  0
BLOCK
  5
1C
100
AcDbEntity
  8
0
100
AcDbBlockBegin
  2
*Paper_Space
 70
0
 10
0.0
 20
0.0
 30
0.0
  3
*Paper_Space
  1

  0
ENDBLK
  5
1D
100
AcDbEntity
  8
0
100
AcDbBlockEnd
  0
BLOCK
  5
214
100
AcDbEntity
  8
0
100
AcDbBlockBegin
  2
_FILLED
 70
64
 10
0.0
 20
0.0
  3
_FILLED
  1

  0
SOLID
  5
215
100
AcDbEntity
  8
0
  6
BYBLOCK
 62
0
100
AcDbTrace
 10
0.0
 20
0.0
 11
-1.0
 21
0.25
 12
-1.0
 22
-0.25
 13
-1.0
 23
-0.25
  0
ENDBLK
  5
216
100
AcDbEntity
  8
0
  6
BYBLOCK
 62
0
100
AcDbBlockEnd
  0
ENDSEC
  0
SECTION
  2
ENTITIES
  0
LINE
  5
217
100
AcDbEntity
  8
0
100
AcDbLine
 62
7
  6
CONTINUOUS
 10
17.9803796095
 20
87.5218750274
 11
17.9803796095
 21
83.2383837983
  0
LINE
  5
218
100
AcDbEntity
  8
0
100
AcDbLine
 62
7
  6
CONTINUOUS
 10
17.9803796095
 20
143.5548925691
 11
17.9803796095
 21
147.8383837983
  0
LINE
  5
219
100
AcDbEntity
  8
0
100
AcDbLine
 62
7
  6
CONTINUOUS
 10
18.6684715886
 20
147.8383837983
 11
18.6684715886
 21
143.5308638677
  0
LINE
  5
21A
100
AcDbEntity
  8
0
100
AcDbLine
 62
7
  6
CONTINUOUS
 10
18.6684715885
 20
87.5459037288
 11
18.6684715885
 21
83.2383837983
  0
LINE
  5
21B
100
AcDbEntity
  8
0
100
AcDbLine
 62
7
  6
CONTINUOUS
 10
18.7914968962
 20
87.5501998673
 11
18.7914968962
 21
83.2383837983
  0
LINE
  5
21C
100
AcDbEntity
  8
0
100
AcDbLine
 62
7
  6
CONTINUOUS
 10
18.7914968962
 20
143.5265677435
 11
18.7914968962
 21
147.8383837983
  0
LINE
  5
21D
100
AcDbEntity
  8
0
100
AcDbLine
 62
7
  6
CONTINUOUS
 10
20.9803796095
 20
97.9094609293
 11
20.9803796095
 21
100.567306016
  0
LINE
  5
21E
100
AcDbEntity
  8
0
100
AcDbLine
 62
7
  6
CONTINUOUS
 10
20.9803796095
 20
130.5094609293
 11
20.9803796095
 21
133.167306016
  0
LINE
  5
21F
100
AcDbEntity
  8
0
100
AcDbLine
 62
7
  6
CONTINUOUS
 10
22.7803796095
 20
100.2583837983
 11
22.7803796095
 21
107.2583837983
  0
LINE
  5
220
100
AcDbEntity
  8
0
100
AcDbLine
 62
7
  6
CONTINUOUS
 10
22.7803796095
 20
123.8183837983
 11
22.7803796095
 21
130.8183837983
  0
LINE
  5
221
100
AcDbEntity
  8
0
100
AcDbLine
 62
7
  6
CONTINUOUS
 10
23.4803796095
 20
83.2383837983
 11
23.4803796095
 21
87.7139392597
  0
LINE
  5
222
100
AcDbEntity
  8
0
100
AcDbLine
 62
7
  6
CONTINUOUS
 10
23.4803796095
 20
143.3628283369
 11
23.4803796095
 21
147.8383837983
  0
LINE
  5
223
100
AcDbEntity
  8
0
100
AcDbLine
 62
7
  6
CONTINUOUS
 10
23.9803796095
 20
89.5278533179
 11
23.9803796095
 21
108.9489142787
  0
LINE
  5
224
100
AcDbEntity
  8
0
100
AcDbLine
 62
7
  6
CONTINUOUS
 10
23.9803796095
 20
122.1278533176
 11
23.9803796095
 21
141.5489142783
  0
LINE
  5
225
100
AcDbEntity
  8
0
100
AcDbLine
 62
7
  6
CONTINUOUS
 10
24.1803796109
 20
83.2383837983
 11
24.1803796107
 21
89.5278533179
  0
LINE
  5
226
100
AcDbEntity
  8
0
100
AcDbLine
 62
7
  6
CONTINUOUS
 10
24.1803796105
 20
94.6582567794
 11
24.1803796105
 21
95.9082567794
  0
LINE
  5
227
100
AcDbEntity
  8
0
100
AcDbLine
 62
7
  6
CONTINUOUS
 10
24.1803796102
 20
102.5685108178
 11
24.1803796102
 21
103.8185108177
  0
LINE
  5
228
100
AcDbEntity
  8
0
100
AcDbLine
 62
7
  6
CONTINUOUS
 10
24.18037961
 20
108.9489142787
 11
24.1803796095
 21
122.1278533176
  0
LINE
  5
229
100
AcDbEntity
  8
0
100
AcDbLine
 62
7
  6
CONTINUOUS
 10
24.1803796092
 20
127.2582567785
 11
24.1803796092
 21
128.5082567785
  0
LINE
  5
22A
100
AcDbEntity
  8
0
100
AcDbLine
 62
7
  6
CONTINUOUS
 10
24.1803796089
 20
135.1685108172
 11
24.1803796089
 21
136.4185108172
  0
LINE
  5
22B
100
AcDbEntity
  8
0
100
AcDbLine
 62
7
  6
CONTINUOUS
 10
24.1803796088
 20
141.5489142783
 11
24.1803796085
 21
147.8383837983
  0
LINE
  5
22C
100
AcDbEntity
  8
0
100
AcDbLine
 62
7
  6
CONTINUOUS
 10
28.9803796095
 20
142.4201768671
 11
28.9803796095
 21
121.2565907297
  0
LINE
  5
22D
100
AcDbEntity
  8
0
100
AcDbLine
 62
7
  6
CONTINUOUS
 10
28.9803796095
 20
109.8201768665
 11
28.9803796095
 21
88.6565907296
  0
LINE
  5
22E
100
AcDbEntity
  8
0
100
AcDbLine
 62
7
  6
CONTINUOUS
 10
35.9803796095
 20
95.2383837983
 11
35.9803796095
 21
103.2383837983
  0
LINE
  5
22F
100
AcDbEntity
  8
0
100
AcDbLine
 62
7
  6
CONTINUOUS
 10
35.9803796095
 20
127.8383837983
 11
35.9803796095
 21
135.8383837983
  0
LINE
  5
230
100
AcDbEntity
  8
0
100
AcDbLine
 62
7
  6
CONTINUOUS
 10
36.1803796091
 20
133.2675723216
 11
36.1803796092
 21
130.4091952759
  0
LINE
  5
231
100
AcDbEntity
  8
0
100
AcDbLine
 62
7
  6
CONTINUOUS
 10
36.1803796103
 20
100.6675723216
 11
36.1803796104
 21
97.8091952759
  0
LINE
  5
232
100
AcDbEntity
  8
0
100
AcDbLine
 62
7
  6
CONTINUOUS
 10
145.8062363014
 20
96.2294640319
 11
145.8253770146
 21
96.2332990441
  0
LINE
  5
233
100
AcDbEntity
  8
0
100
AcDbLine
 62
7
  6
CONTINUOUS
 10
145.8254897091
 20
96.2333199276
 11
145.8259242203
 21
96.233400087
  0
LINE
  5
234
100
AcDbEntity
  8
0
100
AcDbLine
 62
7
  6
CONTINUOUS
 10
90.9803795944
 20
83.2383837983
 11
139.9803796095
 21
84.5214939551
  0
LINE
  5
235
100
AcDbEntity
  8
0
100
AcDbLine
 62
7
  6
CONTINUOUS
 10
17.9803796095
 20
83.2383837983
 11
90.9803795944
 21
83.2383837983
  0
LINE
  5
236
100
AcDbEntity
  8
0
100
AcDbLine
 62
7
  6
CONTINUOUS
 10
145.8259443144
 20
96.2334037953
 11
145.8803796095
 21
96.2383837983
  0
LINE
  5
237
100
AcDbEntity
  8
0
100
AcDbLine
 62
7
  6
CONTINUOUS
 10
139.9803796095
 20
91.2383837984
 11
147.9745766065
 21
91.6573419101
  0
LINE
  5
238
100
AcDbEntity
  8
0
100
AcDbLine
 62
7
  6
CONTINUOUS
 10
145.4803796126
 20
92.4284335909
 11
139.9803783748
 21
92.1501654179
  0
LINE
  5
239
100
AcDbEntity
  8
0
100
AcDbLine
 62
7
  6
CONTINUOUS
 10
17.9803796095
 20
87.5218750274
 11
24.1803796085
 21
87.7383837983
  0
LINE
  5
23A
100
AcDbEntity
  8
0
100
AcDbLine
 62
7
  6
CONTINUOUS
 10
109.9803796081
 20
88.7289209628
 11
139.9803796095
 21
89.5144986097
  0
LINE
  5
23B
100
AcDbEntity
  8
0
100
AcDbLine
 62
7
  6
CONTINUOUS
 10
28.9803796095
 20
88.6565907295
 11
24.1803796107
 21
88.6565907295
  0
LINE
  5
23C
100
AcDbEntity
  8
0
100
AcDbLine
 62
7
  6
CONTINUOUS
 10
24.1803796107
 20
89.5278533179
 11
23.9803796095
 21
89.5278533179
  0
LINE
  5
23D
100
AcDbEntity
  8
0
100
AcDbLine
 62
7
  6
CONTINUOUS
 10
145.5803796095
 20
93.3883837987
 11
147.9750902875
 21
93.3883837987
  0
LINE
  5
23E
100
AcDbEntity
  8
0
100
AcDbLine
 62
7
  6
CONTINUOUS
 10
148.2803796084
 20
93.4383837983
 11
145.5803796097
 21
93.4383837983
  0
LINE
  5
23F
100
AcDbEntity
  8
0
100
AcDbLine
 62
7
  6
CONTINUOUS
 10
23.9803796095
 20
94.6582567794
 11
28.9803796095
 21
94.6582567794
  0
LINE
  5
240
100
AcDbEntity
  8
0
100
AcDbLine
 62
7
  6
CONTINUOUS
 10
35.9803796095
 20
95.2383837983
 11
28.9803796095
 21
95.2383837983
  0
LINE
  5
241
100
AcDbEntity
  8
0
100
AcDbLine
 62
7
  6
CONTINUOUS
 10
142.2803731831
 20
95.2383837983
 11
145.0803796105
 21
95.2383837983
  0
LINE
  5
242
100
AcDbEntity
  8
0
100
AcDbLine
 62
7
  6
CONTINUOUS
 10
28.9803796095
 20
95.3437605317
 11
35.9803796095
 21
95.3437605317
  0
LINE
  5
243
100
AcDbEntity
  8
0
100
AcDbLine
 62
7
  6
CONTINUOUS
 10
142.2803796096
 20
95.6986577705
 11
143.9782534584
 21
95.6986577705
  0
LINE
  5
244
100
AcDbEntity
  8
0
100
AcDbLine
 62
7
  6
CONTINUOUS
 10
28.9803796095
 20
95.9082567794
 11
23.9803796095
 21
95.9082567793
  0
LINE
  5
245
100
AcDbEntity
  8
0
100
AcDbLine
 62
7
  6
CONTINUOUS
 10
145.1233109255
 20
96.0470846926
 11
144.6485200085
 21
96.0470846926
  0
LINE
  5
246
100
AcDbEntity
  8
0
100
AcDbLine
 62
7
  6
CONTINUOUS
 10
146.1110201015
 20
96.2383837983
 11
144.9736532989
 21
96.2444376427
  0
LINE
  5
247
100
AcDbEntity
  8
0
100
AcDbLine
 62
7
  6
CONTINUOUS
 10
146.3761036585
 20
96.6383837983
 11
145.3183458155
 21
96.6383837983
  0
LINE
  5
248
100
AcDbEntity
  8
0
100
AcDbLine
 62
7
  6
CONTINUOUS
 10
20.9803796096
 20
97.9094324072
 11
23.9803796095
 21
97.8476093838
  0
LWPOLYLINE
  5
249
100
AcDbEntity
  8
0
100
AcDbPolyline
 62
7
  6
CONTINUOUS
 90
3
 70
0
 10
144.5838747731
 20
103.1023694331
 10
143.9769946932
 20
103.0644254974
 10
142.280367552
 20
102.9477192276
  0
LINE
  5
24A
100
AcDbEntity
  8
0
100
AcDbLine
 62
7
  6
CONTINUOUS
 10
144.7680272115
 20
100.0207131215
 11
144.1990754987
 21
100.0107820324
  0
LINE
  5
24B
100
AcDbEntity
  8
0
100
AcDbLine
 62
7
  6
CONTINUOUS
 10
35.9803796095
 20
97.8091952759
 11
36.1803796104
 21
97.8091952759
  0
LINE
  5
24C
100
AcDbEntity
  8
0
100
AcDbLine
 62
7
  6
CONTINUOUS
 10
140.7015024465
 20
100.0279460287
 11
139.9803796095
 21
100.0279460287
  0
LINE
  5
24D
100
AcDbEntity
  8
0
100
AcDbLine
 62
7
  6
CONTINUOUS
 10
22.7803796095
 20
100.2583837984
 11
23.9803796095
 21
100.2583837984
  0
LINE
  5
24E
100
AcDbEntity
  8
0
100
AcDbLine
 62
7
  6
CONTINUOUS
 10
36.1803796103
 20
100.6675723216
 11
35.9803796095
 21
100.6675723216
  0
LINE
  5
24F
100
AcDbEntity
  8
0
100
AcDbLine
 62
7
  6
CONTINUOUS
 10
146.7803796094
 20
101.5383837983
 11
148.2803796089
 21
101.5383837983
  0
LINE
  5
250
100
AcDbEntity
  8
0
100
AcDbLine
 62
7
  6
CONTINUOUS
 10
147.9750902875
 20
101.5715458956
 11
146.8750902872
 21
101.5715458956
  0
LINE
  5
251
100
AcDbEntity
  8
0
100
AcDbLine
 62
7
  6
CONTINUOUS
 10
142.2804498243
 20
101.5715458956
 11
141.9803796095
 21
101.5715458956
  0
LINE
  5
252
100
AcDbEntity
  8
0
100
AcDbLine
 62
7
  6
CONTINUOUS
 10
146.1108110353
 20
96.2383859569
 11
146.1110202866
 21
96.2383837983
  0
LINE
  5
253
100
AcDbEntity
  8
0
100
AcDbLine
 62
7
  6
CONTINUOUS
 10
144.1990754987
 20
98.8659855642
 11
144.7680272115
 21
98.8560544751
  0
LINE
  5
254
100
AcDbEntity
  8
0
100
AcDbLine
 62
7
  6
CONTINUOUS
 10
145.480379613
 20
94.948334884
 11
139.9803783524
 21
95.2266017372
  0
LINE
  5
255
100
AcDbEntity
  8
0
100
AcDbLine
 62
7
  6
CONTINUOUS
 10
20.9803796095
 20
100.5673351891
 11
22.7803796095
 21
100.6044290033
  0
LINE
  5
256
100
AcDbEntity
  8
0
100
AcDbLine
 62
7
  6
CONTINUOUS
 10
146.1110202115
 20
102.6383837983
 11
146.1108061396
 21
102.6383815384
  0
LINE
  5
257
100
AcDbEntity
  8
0
100
AcDbLine
 62
7
  6
CONTINUOUS
 10
146.3761036575
 20
102.2383837983
 11
145.3183458165
 21
102.2383837983
  0
LINE
  5
258
100
AcDbEntity
  8
0
100
AcDbLine
 62
7
  6
CONTINUOUS
 10
23.9803796095
 20
102.5242580799
 11
22.7803796095
 21
102.5242580798
  0
LINE
  5
259
100
AcDbEntity
  8
0
100
AcDbLine
 62
7
  6
CONTINUOUS
 10
23.9803796095
 20
102.5685108177
 11
28.9803796095
 21
102.5685108177
  0
LINE
  5
25A
100
AcDbEntity
  8
0
100
AcDbLine
 62
7
  6
CONTINUOUS
 10
144.9736537785
 20
102.6323299539
 11
146.1110202115
 21
102.6383837983
  0
LINE
  5
25B
100
AcDbEntity
  8
0
100
AcDbLine
 62
7
  6
CONTINUOUS
 10
144.6485200084
 20
102.8296829041
 11
145.6001277445
 21
102.8296829041
  0
LINE
  5
25C
100
AcDbEntity
  8
0
100
AcDbLine
 62
7
  6
CONTINUOUS
 10
145.581799582
 20
102.9069381232
 11
144.6013586252
 21
102.9069381232
  0
LINE
  5
25D
100
AcDbEntity
  8
0
100
AcDbLine
 62
7
  6
CONTINUOUS
 10
144.6013162518
 20
103.1028445723
 11
145.5803796095
 21
103.1028445723
  0
LINE
  5
25E
100
AcDbEntity
  8
0
100
AcDbLine
 62
7
  6
CONTINUOUS
 10
35.9803796095
 20
103.1330070652
 11
28.9803796095
 21
103.1330070652
  0
LINE
  5
25F
100
AcDbEntity
  8
0
100
AcDbLine
 62
7
  6
CONTINUOUS
 10
35.9803796095
 20
103.2383837983
 11
28.9803796095
 21
103.2383837983
  0
LINE
  5
260
100
AcDbEntity
  8
0
100
AcDbLine
 62
7
  6
CONTINUOUS
 10
28.9803796095
 20
103.8185108177
 11
23.9803796095
 21
103.8185108177
  0
LINE
  5
261
100
AcDbEntity
  8
0
100
AcDbLine
 62
7
  6
CONTINUOUS
 10
22.7803796095
 20
105.9242580802
 11
23.9803796095
 21
105.9242580803
  0
LINE
  5
262
100
AcDbEntity
  8
0
100
AcDbLine
 62
7
  6
CONTINUOUS
 10
139.9803796095
 20
103.2883837983
 11
144.103197487
 21
103.0723160689
  0
LINE
  5
263
100
AcDbEntity
  8
0
100
AcDbLine
 62
7
  6
CONTINUOUS
 10
145.6087086102
 20
102.9934155743
 11
147.974744135
 21
102.8694169067
  0
LINE
  5
264
100
AcDbEntity
  8
0
100
AcDbLine
 62
7
  6
CONTINUOUS
 10
23.9803796095
 20
107.2583837983
 11
22.7803796095
 21
107.2583837983
  0
LINE
  5
265
100
AcDbEntity
  8
0
100
AcDbLine
 62
7
  6
CONTINUOUS
 10
24.1803796098
 20
108.9489142787
 11
23.9803796095
 21
108.9489142787
  0
LINE
  5
266
100
AcDbEntity
  8
0
100
AcDbLine
 62
7
  6
CONTINUOUS
 10
28.9803796095
 20
109.8201768666
 11
24.1803796099
 21
109.8201768666
  0
LINE
  5
267
100
AcDbEntity
  8
0
100
AcDbLine
 62
7
  6
CONTINUOUS
 10
139.9803796095
 20
104.2384811464
 11
109.9803796086
 21
108.2384811555
  0
LINE
  5
268
100
AcDbEntity
  8
0
100
AcDbLine
 62
7
  6
CONTINUOUS
 10
109.9803796087
 20
113.2383837986
 11
139.9803796095
 21
109.2383837895
  0
LINE
  5
269
100
AcDbEntity
  8
0
100
AcDbLine
 62
7
  6
CONTINUOUS
 10
28.9803796095
 20
121.2565907297
 11
24.1803796095
 21
121.2565907297
  0
LINE
  5
26A
100
AcDbEntity
  8
0
100
AcDbLine
 62
7
  6
CONTINUOUS
 10
24.1803796095
 20
122.1278533176
 11
23.9803796095
 21
122.1278533176
  0
LINE
  5
26B
100
AcDbEntity
  8
0
100
AcDbLine
 62
7
  6
CONTINUOUS
 10
22.7803796095
 20
123.8183837984
 11
23.9803796095
 21
123.8183837984
  0
LINE
  5
26C
100
AcDbEntity
  8
0
100
AcDbLine
 62
7
  6
CONTINUOUS
 10
23.9803796095
 20
125.1525095164
 11
22.7803796095
 21
125.1525095164
  0
LINE
  5
26D
100
AcDbEntity
  8
0
100
AcDbLine
 62
7
  6
CONTINUOUS
 10
145.7113414129
 20
102.6905409286
 11
145.8803796095
 21
102.6383837983
  0
LINE
  5
26E
100
AcDbEntity
  8
0
100
AcDbLine
 62
7
  6
CONTINUOUS
 10
23.9803796095
 20
127.2582567785
 11
28.9803796095
 21
127.2582567785
  0
LINE
  5
26F
100
AcDbEntity
  8
0
100
AcDbLine
 62
7
  6
CONTINUOUS
 10
35.9803796095
 20
127.8383837983
 11
28.9803796095
 21
127.8383837983
  0
LINE
  5
270
100
AcDbEntity
  8
0
100
AcDbLine
 62
7
  6
CONTINUOUS
 10
28.9803796095
 20
127.9437605317
 11
35.9803796095
 21
127.9437605317
  0
LINE
  5
271
100
AcDbEntity
  8
0
100
AcDbLine
 62
7
  6
CONTINUOUS
 10
28.9803796095
 20
128.5082567785
 11
23.9803796095
 21
128.5082567786
  0
LINE
  5
272
100
AcDbEntity
  8
0
100
AcDbLine
 62
7
  6
CONTINUOUS
 10
22.7803796095
 20
128.5525095167
 11
23.9803796095
 21
128.5525095168
  0
LINE
  5
273
100
AcDbEntity
  8
0
100
AcDbLine
 62
7
  6
CONTINUOUS
 10
35.9803796095
 20
130.4091952759
 11
36.1803796092
 21
130.4091952759
  0
LINE
  5
274
100
AcDbEntity
  8
0
100
AcDbLine
 62
7
  6
CONTINUOUS
 10
20.9803796096
 20
130.5094324072
 11
22.7781022553
 21
130.4723855241
  0
LINE
  5
275
100
AcDbEntity
  8
0
100
AcDbLine
 62
7
  6
CONTINUOUS
 10
20.9803796095
 20
133.1673351891
 11
23.9803796095
 21
133.2291582128
  0
LINE
  5
276
100
AcDbEntity
  8
0
100
AcDbLine
 62
7
  6
CONTINUOUS
 10
23.9803796095
 20
130.8183837983
 11
22.7803796095
 21
130.8183837983
  0
LINE
  5
277
100
AcDbEntity
  8
0
100
AcDbLine
 62
7
  6
CONTINUOUS
 10
36.1803796091
 20
133.2675723216
 11
35.9803796095
 21
133.2675723216
  0
LINE
  5
278
100
AcDbEntity
  8
0
100
AcDbLine
 62
7
  6
CONTINUOUS
 10
23.9803796095
 20
135.1685108173
 11
28.9803796095
 21
135.1685108172
  0
LINE
  5
279
100
AcDbEntity
  8
0
100
AcDbLine
 62
7
  6
CONTINUOUS
 10
107.6385796096
 20
147.5476138353
 11
107.6385796096
 21
83.6745941173
  0
LINE
  5
27A
100
AcDbEntity
  8
0
100
AcDbLine
 62
7
  6
CONTINUOUS
 10
35.9803796095
 20
135.7330070652
 11
28.9803796095
 21
135.7330070652
  0
LINE
  5
27B
100
AcDbEntity
  8
0
100
AcDbLine
 62
7
  6
CONTINUOUS
 10
35.9803796095
 20
135.8383837983
 11
28.9803796095
 21
135.8383837983
  0
LINE
  5
27C
100
AcDbEntity
  8
0
100
AcDbLine
 62
7
  6
CONTINUOUS
 10
28.9803796095
 20
136.4185108172
 11
23.9803796095
 21
136.4185108171
  0
LINE
  5
27D
100
AcDbEntity
  8
0
100
AcDbLine
 62
7
  6
CONTINUOUS
 10
109.0822971386
 20
83.7123991913
 11
109.0822976223
 21
147.5224136437
  0
LINE
  5
27E
100
AcDbEntity
  8
0
100
AcDbLine
 62
7
  6
CONTINUOUS
 10
109.1032488963
 20
147.5220479378
 11
109.1032485588
 21
83.7129478236
  0
LINE
  5
27F
100
AcDbEntity
  8
0
100
AcDbLine
 62
7
  6
CONTINUOUS
 10
109.9785740957
 20
83.7358690294
 11
109.9785743692
 21
147.5067690749
  0
LINE
  5
280
100
AcDbEntity
  8
0
100
AcDbLine
 62
7
  6
CONTINUOUS
 10
24.1803796085
 20
141.5489142787
 11
23.9803796095
 21
141.5489142785
  0
LINE
  5
281
100
AcDbEntity
  8
0
100
AcDbLine
 62
7
  6
CONTINUOUS
 10
28.9803796095
 20
142.420176867
 11
24.1803796087
 21
142.420176867
  0
LINE
  5
282
100
AcDbEntity
  8
0
100
AcDbLine
 62
7
  6
CONTINUOUS
 10
24.1803796087
 20
143.3383837983
 11
17.9803796095
 21
143.5548925691
  0
LINE
  5
283
100
AcDbEntity
  8
0
100
AcDbLine
 62
7
  6
CONTINUOUS
 10
145.6699967125
 20
102.724169306
 11
145.7115055174
 21
102.6906258698
  0
LINE
  5
284
100
AcDbEntity
  8
0
100
AcDbLine
 62
7
  6
CONTINUOUS
 10
17.9803796095
 20
147.8383837983
 11
90.9803796095
 21
147.8383837983
  0
LINE
  5
285
100
AcDbEntity
  8
0
100
AcDbLine
 62
7
  6
CONTINUOUS
 10
90.980379588
 20
147.8383837983
 11
109.9785744129
 21
147.5067690741
  0
LWPOLYLINE
  5
286
100
AcDbEntity
  8
0
100
AcDbPolyline
 62
7
  6
CONTINUOUS
 90
5
 70
0
 10
146.1107948258
 20
96.238401898
 10
146.2966677141
 20
96.2973274424
 10
146.4240178134
 20
96.4195357696
 10
146.5630097353
 20
96.6113804442
 10
146.6335410505
 20
96.7243536719
  0
LWPOLYLINE
  5
287
100
AcDbEntity
  8
0
100
AcDbPolyline
 62
7
  6
CONTINUOUS
 90
5
 70
0
 10
146.6335417959
 20
102.152412372
 10
146.569873886
 20
102.2548241373
 10
146.4289268158
 20
102.451278972
 10
146.3020609603
 20
102.5757182647
 10
146.1107878873
 20
102.6383666391
  0
LINE
  5
288
100
AcDbEntity
  8
0
100
AcDbLine
 62
7
  6
CONTINUOUS
 10
146.6335629538
 20
102.1523793202
 11
146.633389452
 21
102.1526687829
  0
LINE
  5
289
100
AcDbEntity
  8
0
100
AcDbLine
 62
7
  6
CONTINUOUS
 10
139.9803796095
 20
109.2383837896
 11
139.9803796095
 21
84.5214939552
  0
LINE
  5
28A
100
AcDbEntity
  8
0
100
AcDbLine
 62
7
  6
CONTINUOUS
 10
140.7015024465
 20
103.2505913518
 11
140.7015024465
 21
100.0279460287
  0
LINE
  5
28B
100
AcDbEntity
  8
0
100
AcDbLine
 62
7
  6
CONTINUOUS
 10
141.6602608795
 20
92.2351577325
 11
141.6602608795
 21
91.3264226452
  0
LINE
  5
28C
100
AcDbEntity
  8
0
100
AcDbLine
 62
7
  6
CONTINUOUS
 10
141.9803796095
 20
91.3431993569
 11
141.9803796095
 21
92.2513538841
  0
LINE
  5
28D
100
AcDbEntity
  8
0
100
AcDbLine
 62
7
  6
CONTINUOUS
 10
141.9803796095
 20
95.1254137502
 11
141.9803796095
 21
103.1835682397
  0
LINE
  5
28E
100
AcDbEntity
  8
0
100
AcDbLine
 62
7
  6
CONTINUOUS
 10
142.280367553
 20
102.9476648972
 11
142.2804503804
 21
95.1102319811
  0
LINE
  5
28F
100
AcDbEntity
  8
0
100
AcDbLine
 62
7
  6
CONTINUOUS
 10
143.6403796095
 20
95.0414277737
 11
143.6403796095
 21
95.2383837983
  0
LINE
  5
290
100
AcDbEntity
  8
0
100
AcDbLine
 62
7
  6
CONTINUOUS
 10
144.601360436
 20
102.9069381232
 11
144.6013604704
 21
103.1014662216
  0
LINE
  5
291
100
AcDbEntity
  8
0
100
AcDbLine
 62
7
  6
CONTINUOUS
 10
145.0803796095
 20
95.7801915894
 11
145.0803796095
 21
94.9685724689
  0
LINE
  5
292
100
AcDbEntity
  8
0
100
AcDbLine
 62
7
  6
CONTINUOUS
 10
145.4803796095
 20
94.9483348163
 11
145.4803796095
 21
92.428433651
  0
LINE
  5
293
100
AcDbEntity
  8
0
100
AcDbLine
 62
7
  6
CONTINUOUS
 10
145.5803796095
 20
103.1029576944
 11
145.5803796095
 21
102.9358013724
  0
LINE
  5
294
100
AcDbEntity
  8
0
100
AcDbLine
 62
7
  6
CONTINUOUS
 10
145.5803796095
 20
92.9383837983
 11
145.5803796095
 21
95.9631012
  0
LINE
  5
295
100
AcDbEntity
  8
0
100
AcDbLine
 62
7
  6
CONTINUOUS
 10
145.8803796095
 20
96.2383837983
 11
145.8803796095
 21
96.2410751504
  0
LINE
  5
296
100
AcDbEntity
  8
0
100
AcDbLine
 62
7
  6
CONTINUOUS
 10
145.8803796095
 20
102.6323299539
 11
145.8803796095
 21
102.6383837983
  0
LINE
  5
297
100
AcDbEntity
  8
0
100
AcDbLine
 62
7
  6
CONTINUOUS
 10
146.7803796095
 20
93.4383837983
 11
146.7803796095
 21
97.0073452489
  0
LINE
  5
298
100
AcDbEntity
  8
0
100
AcDbLine
 62
7
  6
CONTINUOUS
 10
146.8750902875
 20
102.9270473229
 11
146.8750902875
 21
101.5715458956
  0
LINE
  5
299
100
AcDbEntity
  8
0
100
AcDbLine
 62
7
  6
CONTINUOUS
 10
146.8750902875
 20
93.3883837987
 11
146.8750902875
 21
91.5997202737
  0
LINE
  5
29A
100
AcDbEntity
  8
0
100
AcDbLine
 62
7
  6
CONTINUOUS
 10
147.9750902875
 20
102.8693987656
 11
147.9750902875
 21
101.5715458956
  0
LINE
  5
29B
100
AcDbEntity
  8
0
100
AcDbLine
 62
7
  6
CONTINUOUS
 10
147.9750902875
 20
93.3883837987
 11
147.9750902875
 21
91.6573688309
  0
LINE
  5
29C
100
AcDbEntity
  8
0
100
AcDbLine
 62
7
  6
CONTINUOUS
 10
148.2803796095
 20
101.5383837979
 11
148.2803796095
 21
93.4383837983
  0
LWPOLYLINE
  5
29D
100
AcDbEntity
  8
0
100
AcDbPolyline
 62
7
  6
CONTINUOUS
 90
6
 70
0
 10
146.6333793127
 20
96.7240818388
 10
146.8998085961
 20
97.2374798997
 10
147.3447144948
 20
98.9745793752
 10
147.346179731
 20
99.8847485216
 10
146.9079279655
 20
101.6210320235
 10
146.633389452
 20
102.1526687829
  0
LINE
  5
29E
100
AcDbEntity
  8
0
100
AcDbLine
 62
7
  6
CONTINUOUS
 10
146.6335410505
 20
96.7243536719
 11
146.633361368
 21
96.7240540957
  0
ARC
  5
29F
100
AcDbEntity
  8
0
100
AcDbCircle
 62
7
  6
CONTINUOUS
 10
138.2785305953
 20
99.9199061754
 40
7.4566301163
100
AcDbArc
 50
321.5515930578
 51
322.0105212547
  0
ARC
  5
2A0
100
AcDbEntity
  8
0
100
AcDbCircle
 62
7
  6
CONTINUOUS
 10
138.5041611492
 20
99.7466489184
 40
7.172162941
100
AcDbArc
 50
321.9918979829
 51
328.9475408525
  0
ARC
  5
2A1
100
AcDbEntity
  8
0
100
AcDbCircle
 62
7
  6
CONTINUOUS
 10
138.6398126355
 20
99.2146881554
 40
7.0123285238
100
AcDbArc
 50
31.0322107217
 51
31.2785886357
  0
ARC
  5
2A2
100
AcDbEntity
  8
0
100
AcDbCircle
 62
7
  6
CONTINUOUS
 10
138.6590020849
 20
99.2263533428
 40
6.9898716424
100
AcDbArc
 50
31.2785351192
 51
31.7733015846
  0
ARC
  5
2A3
100
AcDbEntity
  8
0
100
AcDbCircle
 62
7
  6
CONTINUOUS
 10
138.1422120589
 20
99.4382211476
 40
6.6513700346
100
AcDbArc
 50
354.9759892266
 51
5.0240986825
  0
ARC
  5
2A4
100
AcDbEntity
  8
0
100
AcDbCircle
 62
7
  6
CONTINUOUS
 10
138.7610966507
 20
99.8056449512
 40
6.639736627
100
AcDbArc
 50
321.7898693037
 51
327.9683147935
  0
ARC
  5
2A5
100
AcDbEntity
  8
0
100
AcDbCircle
 62
7
  6
CONTINUOUS
 10
138.9102280607
 20
99.1696301183
 40
6.4610559388
100
AcDbArc
 50
31.9927593474
 51
32.7474013417
  0
ARC
  5
2A6
100
AcDbEntity
  8
0
100
AcDbCircle
 62
7
  6
CONTINUOUS
 10
142.0445411947
 20
99.0060451827
 40
4.9364211531
100
AcDbArc
 50
331.3386849924
 51
333.2900549527
  0
ARC
  5
2A7
100
AcDbEntity
  8
0
100
AcDbCircle
 62
7
  6
CONTINUOUS
 10
142.0916854122
 20
99.8954631969
 40
4.8831871401
100
AcDbArc
 50
26.6994370796
 51
28.6719047068
  0
ARC
  5
2A8
100
AcDbEntity
  8
0
100
AcDbCircle
 62
7
  6
CONTINUOUS
 10
145.9574797847
 20
92.9617544685
 40
3.2835889288
100
AcDbArc
 50
91.3454832752
 51
92.3090314803
  0
ARC
  5
2A9
100
AcDbEntity
  8
0
100
AcDbCircle
 62
7
  6
CONTINUOUS
 10
145.94900107
 20
93.1547730399
 40
3.0903855543
100
AcDbArc
 50
92.2961415654
 51
94.6055508524
  0
ARC
  5
2AA
100
AcDbEntity
  8
0
100
AcDbCircle
 62
7
  6
CONTINUOUS
 10
145.869734798
 20
94.2357579573
 40
2.0065397499
100
AcDbArc
 50
94.8278843565
 51
98.494456214
  0
ARC
  5
2AB
100
AcDbEntity
  8
0
100
AcDbCircle
 62
7
  6
CONTINUOUS
 10
145.855656481
 20
94.3327485411
 40
1.9085336193
100
AcDbArc
 50
98.506553394
 51
101.6663837182
  0
ARC
  5
2AC
100
AcDbEntity
  8
0
100
AcDbCircle
 62
7
  6
CONTINUOUS
 10
145.5570375883
 20
97.6999068179
 40
1.4909529109
100
AcDbArc
 50
280.3904683562
 51
282.5252223882
  0
ARC
  5
2AD
100
AcDbEntity
  8
0
100
AcDbCircle
 62
7
  6
CONTINUOUS
 10
145.9293655061
 20
95.7805266729
 40
0.8489859627
100
AcDbArc
 50
161.7012203193
 51
180.0226138796
  0
ARC
  5
2AE
100
AcDbEntity
  8
0
100
AcDbCircle
 62
7
  6
CONTINUOUS
 10
145.0803796095
 20
95.7383837983
 40
0.5
100
AcDbArc
 50
270.0000001146
 51
0.049670452
  0
ARC
  5
2AF
100
AcDbEntity
  8
0
100
AcDbCircle
 62
7
  6
CONTINUOUS
 10
145.0803796095
 20
92.9383837983
 40
0.5
100
AcDbArc
 50
329.1130894294
 51
360.0
  0
ARC
  5
2B0
100
AcDbEntity
  8
0
100
AcDbCircle
 62
7
  6
CONTINUOUS
 10
145.9060157294
 20
102.9834002491
 40
0.3520050608
100
AcDbArc
 50
252.7460626167
 51
265.8235172982
  0
ARC
  5
2B1
100
AcDbEntity
  8
0
100
AcDbCircle
 62
7
  6
CONTINUOUS
 10
145.9033219657
 20
102.9750495025
 40
0.343231125
100
AcDbArc
 50
239.7904531128
 51
252.7620298027
  0
ARC
  5
2B2
100
AcDbEntity
  8
0
100
AcDbCircle
 62
7
  6
CONTINUOUS
 10
145.8971526554
 20
102.9637818361
 40
0.3303897078
100
AcDbArc
 50
235.787675532
 51
239.7318338616
  0
ARC
  5
2B3
100
AcDbEntity
  8
0
100
AcDbCircle
 62
7
  6
CONTINUOUS
 10
145.8739828863
 20
102.9350738692
 40
0.2934346498
100
AcDbArc
 50
179.9995105116
 51
225.9672173223
  0
ARC
  5
2B4
100
AcDbEntity
  8
0
100
AcDbCircle
 62
7
  6
CONTINUOUS
 10
144.6002278359
 20
102.8222536955
 40
0.2805926018
100
AcDbArc
 50
89.7685936969
 51
117.4807229949
  0
SPLINE
  5
2B5
100
AcDbEntity
  8
0
100
AcDbSpline
 62
7
  6
CONTINUOUS
 70
0
 71
3
 72
9
 73
5
 74
0
 42
0.0000001
 43
0.0000001
 44
0.0000000001
 40
0.0
 40
0.0
 40
0.0
 40
0.0
 40
0.3150350799
 40
1.0
 40
1.0
 40
1.0
 40
1.0
 10
145.5971065751
 20
96.0570268655
 30
0.0
 10
145.6025649566
 20
96.0719645426
 30
0.0
 10
145.6240022252
 20
96.1179084023
 30
0.0
 10
145.6592997329
 20
96.1565200908
 30
0.0
 10
145.6871528815
 20
96.1770111826
 30
0.0
  0
SPLINE
  5
2B6
100
AcDbEntity
  8
0
100
AcDbSpline
 62
7
  6
CONTINUOUS
 70
0
 71
3
 72
9
 73
5
 74
0
 42
0.0000001
 43
0.0000001
 44
0.0000000001
 40
0.0
 40
0.0
 40
0.0
 40
0.0
 40
0.25478295
 40
1.0
 40
1.0
 40
1.0
 40
1.0
 10
145.6871528815
 20
96.1770111826
 30
0.0
 10
145.6965702825
 20
96.1839394057
 30
0.0
 10
145.735105166
 20
96.2089728358
 30
0.0
 10
145.7794216043
 20
96.2247320185
 30
0.0
 10
145.8130271539
 20
96.2310600088
 30
0.0
  0
SPLINE
  5
2B7
100
AcDbEntity
  8
0
100
AcDbSpline
 62
7
  6
CONTINUOUS
 70
0
 71
3
 72
8
 73
4
 74
0
 42
0.0000001
 43
0.0000001
 44
0.0000000001
 40
0.0
 40
0.0
 40
0.0
 40
0.0
 40
1.0
 40
1.0
 40
1.0
 40
1.0
 10
145.5971226761
 20
96.0570632522
 30
0.0
 10
145.5862093213
 20
96.0271856303
 30
0.0
 10
145.5803772366
 20
95.9949268522
 30
0.0
 10
145.5803793465
 20
95.9631184633
 30
0.0
  0
SPLINE
  5
2B8
100
AcDbEntity
  8
0
100
AcDbSpline
 62
7
  6
CONTINUOUS
 70
0
 71
3
 72
8
 73
4
 74
0
 42
0.0000001
 43
0.0000001
 44
0.0000000001
 40
0.0
 40
0.0
 40
0.0
 40
0.0
 40
1.0
 40
1.0
 40
1.0
 40
1.0
 10
144.1990754987
 20
100.0107820324
 30
0.0
 10
144.1928106607
 20
100.0106743223
 30
0.0
 10
144.1864946158
 20
100.0113656804
 30
0.0
 10
144.1803796096
 20
100.0127318776
 30
0.0
  0
SPLINE
  5
2B9
100
AcDbEntity
  8
0
100
AcDbSpline
 62
7
  6
CONTINUOUS
 70
0
 71
3
 72
10
 73
6
 74
0
 42
0.0000001
 43
0.0000001
 44
0.0000000001
 40
0.0
 40
0.0
 40
0.0
 40
0.0
 40
0.4010905712
 40
0.6547880895
 40
1.0
 40
1.0
 40
1.0
 40
1.0
 10
144.1803796096
 20
101.3418443457
 30
0.0
 10
144.1792736005
 20
101.3828716847
 30
0.0
 10
144.1584992461
 20
101.452033856
 30
0.0
 10
144.0814043727
 20
101.5228757421
 30
0.0
 10
144.0191961394
 20
101.5409561413
 30
0.0
 10
143.9838821563
 20
101.5418126871
 30
0.0
  0
SPLINE
  5
2BA
100
AcDbEntity
  8
0
100
AcDbSpline
 62
7
  6
CONTINUOUS
 70
0
 71
3
 72
12
 73
8
 74
0
 42
0.0000001
 43
0.0000001
 44
0.0000000001
 40
0.0
 40
0.0
 40
0.0
 40
0.0
 40
0.2806756604
 40
0.5419379584
 40
0.6642447024
 40
0.7804210282
 40
1.0
 40
1.0
 40
1.0
 40
1.0
 10
142.2803798495
 20
96.8052118504
 30
0.0
 10
142.4397884273
 20
96.8061456315
 30
0.0
 10
142.747573271
 20
96.81123768
 30
0.0
 10
143.1246343262
 20
96.8224618445
 30
0.0
 10
143.4084995024
 20
96.8272849893
 30
0.0
 10
143.6684859959
 20
96.8240031739
 30
0.0
 10
143.8598912844
 20
96.8216561347
 30
0.0
 10
143.9838912035
 20
96.8349557615
 30
0.0
  0
SPLINE
  5
2BB
100
AcDbEntity
  8
0
100
AcDbSpline
 62
7
  6
CONTINUOUS
 70
0
 71
3
 72
9
 73
5
 74
0
 42
0.0000001
 43
0.0000001
 44
0.0000000001
 40
0.0
 40
0.0
 40
0.0
 40
0.0
 40
0.5141624605
 40
1.0
 40
1.0
 40
1.0
 40
1.0
 10
145.0803796095
 20
95.7801913978
 30
0.0
 10
145.1418778582
 20
95.7801914383
 30
0.0
 10
145.2615090074
 20
95.788112662
 30
0.0
 10
145.3793596029
 20
95.8138005173
 30
0.0
 10
145.4339329536
 20
95.8337645235
 30
0.0
  0
SPLINE
  5
2BC
100
AcDbEntity
  8
0
100
AcDbSpline
 62
7
  6
CONTINUOUS
 70
0
 71
3
 72
10
 73
6
 74
0
 42
0.0000001
 43
0.0000001
 44
0.0000000001
 40
0.0
 40
0.0
 40
0.0
 40
0.0
 40
0.3485677151
 40
0.6276763006
 40
1.0
 40
1.0
 40
1.0
 40
1.0
 10
145.4339329536
 20
95.8337645235
 30
0.0
 10
145.4561860413
 20
95.8419051411
 30
0.0
 10
145.4955519718
 20
95.8594583172
 30
0.0
 10
145.5521259454
 20
95.8957969667
 30
0.0
 10
145.5803793978
 20
95.9377908052
 30
0.0
 10
145.5803793478
 20
95.9631010667
 30
0.0
  0
SPLINE
  5
2BD
100
AcDbEntity
  8
0
100
AcDbSpline
 62
7
  6
CONTINUOUS
 70
0
 71
3
 72
11
 73
7
 74
0
 42
0.0000001
 43
0.0000001
 44
0.0000000001
 40
0.0
 40
0.0
 40
0.0
 40
0.0
 40
0.3137974561
 40
0.6098428223
 40
0.8428311051
 40
1.0
 40
1.0
 40
1.0
 40
1.0
 10
145.1233120021
 20
96.0470776219
 30
0.0
 10
145.1695559625
 20
96.0328530484
 30
0.0
 10
145.260908961
 20
96.0100899288
 30
0.0
 10
145.3900134221
 20
95.9911782539
 30
0.0
 10
145.4958989859
 20
95.9925553878
 30
0.0
 10
145.5558211462
 20
96.0112639161
 30
0.0
 10
145.5750124927
 20
96.0260598586
 30
0.0
  0
SPLINE
  5
2BE
100
AcDbEntity
  8
0
100
AcDbSpline
 62
7
  6
CONTINUOUS
 70
0
 71
3
 72
9
 73
5
 74
0
 42
0.0000001
 43
0.0000001
 44
0.0000000001
 40
0.0
 40
0.0
 40
0.0
 40
0.0
 40
0.2774017253
 40
1.0
 40
1.0
 40
1.0
 40
1.0
 10
145.5750124927
 20
96.0260598586
 30
0.0
 10
145.5777008893
 20
96.0281325303
 30
0.0
 10
145.5869458597
 20
96.0361083572
 30
0.0
 10
145.5941061991
 20
96.0468968183
 30
0.0
 10
145.5965058589
 20
96.0554075656
 30
0.0
  0
SPLINE
  5
2BF
100
AcDbEntity
  8
0
100
AcDbSpline
 62
7
  6
CONTINUOUS
 70
0
 71
3
 72
12
 73
8
 74
0
 42
0.0000001
 43
0.0000001
 44
0.0000000001
 40
0.0
 40
0.0
 40
0.0
 40
0.0
 40
0.3362325169
 40
0.4469547209
 40
0.599218495
 40
0.8143603727
 40
1.0
 40
1.0
 40
1.0
 40
1.0
 10
143.9838912035
 20
96.8349557615
 30
0.0
 10
144.0184701564
 20
96.8357638404
 30
0.0
 10
144.0647409404
 20
96.8501647723
 30
0.0
 10
144.1160924948
 20
96.8844716325
 30
0.0
 10
144.1492029972
 20
96.9219290993
 30
0.0
 10
144.1721244378
 20
96.9748654788
 30
0.0
 10
144.1798783973
 20
97.0158329956
 30
0.0
 10
144.1803796096
 20
97.0349232509
 30
0.0
  0
SPLINE
  5
2C0
100
AcDbEntity
  8
0
100
AcDbSpline
 62
7
  6
CONTINUOUS
 70
0
 71
3
 72
10
 73
6
 74
0
 42
0.0000001
 43
0.0000001
 44
0.0000000001
 40
0.0
 40
0.0
 40
0.0
 40
0.0
 40
0.2862417026
 40
0.6720945372
 40
1.0
 40
1.0
 40
1.0
 40
1.0
 10
144.1803796096
 20
98.864035719
 30
0.0
 10
144.1798720986
 20
98.6895135934
 30
0.0
 10
144.1816973255
 20
98.2797335964
 30
0.0
 10
144.1810530826
 20
97.6700312084
 30
0.0
 10
144.1815264905
 20
97.2348454081
 30
0.0
 10
144.1803796096
 20
97.0349232509
 30
0.0
  0
SPLINE
  5
2C1
100
AcDbEntity
  8
0
100
AcDbSpline
 62
7
  6
CONTINUOUS
 70
0
 71
3
 72
11
 73
7
 74
0
 42
0.0000001
 43
0.0000001
 44
0.0000000001
 40
0.0
 40
0.0
 40
0.0
 40
0.0
 40
0.338463434
 40
0.6318693556
 40
0.856228676
 40
1.0
 40
1.0
 40
1.0
 40
1.0
 10
144.389965254
 20
96.2840110684
 30
0.0
 10
144.4201019852
 20
96.3314672735
 30
0.0
 10
144.4772488547
 20
96.4193934401
 30
0.0
 10
144.5609644486
 20
96.5349700434
 30
0.0
 10
144.6333703211
 20
96.6167436051
 30
0.0
 10
144.6835938372
 20
96.6554499529
 30
0.0
 10
144.7064101098
 20
96.6624961775
 30
0.0
  0
SPLINE
  5
2C2
100
AcDbEntity
  8
0
100
AcDbSpline
 62
7
  6
CONTINUOUS
 70
0
 71
3
 72
10
 73
6
 74
0
 42
0.0000001
 43
0.0000001
 44
0.0000000001
 40
0.0
 40
0.0
 40
0.0
 40
0.0
 40
0.1727955135
 40
0.3970329053
 40
1.0
 40
1.0
 40
1.0
 40
1.0
 10
144.7064101098
 20
96.6624961775
 30
0.0
 10
144.7326451169
 20
96.6696653305
 30
0.0
 10
144.7889885641
 20
96.6993772249
 30
0.0
 10
144.9097070367
 20
96.8008913602
 30
0.0
 10
144.9901447978
 20
96.9052472767
 30
0.0
 10
145.0437092235
 20
96.9835892777
 30
0.0
  0
SPLINE
  5
2C3
100
AcDbEntity
  8
0
100
AcDbSpline
 62
7
  6
CONTINUOUS
 70
0
 71
3
 72
13
 73
9
 74
0
 42
0.0000001
 43
0.0000001
 44
0.0000000001
 40
0.0
 40
0.0
 40
0.0
 40
0.0
 40
0.3959891103
 40
0.7013088469
 40
0.8163759633
 40
0.9043761251
 40
0.964861508
 40
1.0
 40
1.0
 40
1.0
 40
1.0
 10
146.3761036585
 20
96.6383837983
 30
0.0
 10
146.3466268034
 20
96.5816123168
 30
0.0
 10
146.2936599458
 20
96.481504024
 30
0.0
 10
146.2258141943
 20
96.368108837
 30
0.0
 10
146.1784279209
 20
96.301174402
 30
0.0
 10
146.1514233496
 20
96.2678323255
 30
0.0
 10
146.1309021694
 20
96.2471864742
 30
0.0
 10
146.1166963532
 20
96.2383837983
 30
0.0
 10
146.1110201015
 20
96.2383837983
 30
0.0
  0
SPLINE
  5
2C4
100
AcDbEntity
  8
0
100
AcDbSpline
 62
7
  6
CONTINUOUS
 70
0
 71
3
 72
11
 73
7
 74
0
 42
0.0000001
 43
0.0000001
 44
0.0000000001
 40
0.0
 40
0.0
 40
0.0
 40
0.0
 40
0.2277962618
 40
0.4999994466
 40
0.7722035939
 40
1.0
 40
1.0
 40
1.0
 40
1.0
 10
146.4542066435
 20
102.0895290919
 30
0.0
 10
146.641169436
 20
101.7180384828
 30
0.0
 10
146.9543212185
 20
100.8514284025
 30
0.0
 10
147.1242132351
 20
99.4383926856
 30
0.0
 10
146.9543301881
 20
98.0253544486
 30
0.0
 10
146.6411753896
 20
97.1587433229
 30
0.0
 10
146.4542135556
 20
96.7872519364
 30
0.0
  0
SPLINE
  5
2C5
100
AcDbEntity
  8
0
100
AcDbSpline
 62
7
  6
CONTINUOUS
 70
0
 71
3
 72
11
 73
7
 74
0
 42
0.0000001
 43
0.0000001
 44
0.0000000001
 40
0.0
 40
0.0
 40
0.0
 40
0.0
 40
0.2555870052
 40
0.5216024193
 40
0.776338975
 40
1.0
 40
1.0
 40
1.0
 40
1.0
 10
144.4699139696
 20
103.0708662456
 30
0.0
 10
144.4345623038
 20
103.0524681032
 30
0.0
 10
144.3700306724
 20
102.9985113728
 30
0.0
 10
144.3143422406
 20
102.8873368349
 30
0.0
 10
144.3061739697
 20
102.7686116231
 30
0.0
 10
144.3286706273
 20
102.6957274503
 30
0.0
 10
144.3444201799
 20
102.6646117757
 30
0.0
  0
SPLINE
  5
2C6
100
AcDbEntity
  8
0
100
AcDbSpline
 62
7
  6
CONTINUOUS
 70
0
 71
3
 72
9
 73
5
 74
0
 42
0.0000001
 43
0.0000001
 44
0.0000000001
 40
0.0
 40
0.0
 40
0.0
 40
0.0
 40
0.385212893
 40
1.0
 40
1.0
 40
1.0
 40
1.0
 10
144.344413923
 20
102.6646093379
 30
0.0
 10
144.3468150402
 20
102.682615484
 30
0.0
 10
144.372189412
 20
102.724973156
 30
0.0
 10
144.4036476161
 20
102.7594721565
 30
0.0
 10
144.4247391621
 20
102.7793633442
 30
0.0
  0
SPLINE
  5
2C7
100
AcDbEntity
  8
0
100
AcDbSpline
 62
7
  6
CONTINUOUS
 70
0
 71
3
 72
9
 73
5
 74
0
 42
0.0000001
 43
0.0000001
 44
0.0000000001
 40
0.0
 40
0.0
 40
0.0
 40
0.0
 40
0.2444729551
 40
1.0
 40
1.0
 40
1.0
 40
1.0
 10
144.4247387184
 20
102.779364039
 30
0.0
 10
144.4376726398
 20
102.7915618705
 30
0.0
 10
144.4928468766
 20
102.8390023828
 30
0.0
 10
144.5534566642
 20
102.8800292225
 30
0.0
 10
144.6013605887
 20
102.9069356993
 30
0.0
  0
SPLINE
  5
2C8
100
AcDbEntity
  8
0
100
AcDbSpline
 62
7
  6
CONTINUOUS
 70
0
 71
3
 72
11
 73
7
 74
0
 42
0.0000001
 43
0.0000001
 44
0.0000000001
 40
0.0
 40
0.0
 40
0.0
 40
0.0
 40
0.2092071206
 40
0.4506327757
 40
0.7181505387
 40
1.0
 40
1.0
 40
1.0
 40
1.0
 10
145.0437350334
 20
96.9837203542
 30
0.0
 10
145.1451654566
 20
97.1327655048
 30
0.0
 10
145.3357043148
 20
97.4732132108
 30
0.0
 10
145.5565101053
 20
98.0536449052
 30
0.0
 10
145.7028905039
 20
98.7215135171
 30
0.0
 10
145.739469372
 20
99.1954993451
 30
0.0
 10
145.7394689154
 20
99.4383837979
 30
0.0
  0
SPLINE
  5
2C9
100
AcDbEntity
  8
0
100
AcDbSpline
 62
7
  6
CONTINUOUS
 70
0
 71
3
 72
10
 73
6
 74
0
 42
0.0000001
 43
0.0000001
 44
0.0000000001
 40
0.0
 40
0.0
 40
0.0
 40
0.0
 40
0.6029419888
 40
0.8271884109
 40
1.0
 40
1.0
 40
1.0
 40
1.0
 10
145.0437092235
 20
101.8931783189
 30
0.0
 10
144.9901463458
 20
101.9715158886
 30
0.0
 10
144.9097060791
 20
102.07586556
 30
0.0
 10
144.788990035
 20
102.1773796436
 30
0.0
 10
144.7326467753
 20
102.2070993604
 30
0.0
 10
144.7064101116
 20
102.2142714183
 30
0.0
  0
SPLINE
  5
2CA
100
AcDbEntity
  8
0
100
AcDbSpline
 62
7
  6
CONTINUOUS
 70
0
 71
3
 72
11
 73
7
 74
0
 42
0.0000001
 43
0.0000001
 44
0.0000000001
 40
0.0
 40
0.0
 40
0.0
 40
0.0
 40
0.1454109453
 40
0.3704228436
 40
0.6623579359
 40
1.0
 40
1.0
 40
1.0
 40
1.0
 10
144.7064101116
 20
102.2142714183
 30
0.0
 10
144.6833502384
 20
102.2214196967
 30
0.0
 10
144.6334114654
 20
102.2612697535
 30
0.0
 10
144.5608531731
 20
102.3427954243
 30
0.0
 10
144.4770145311
 20
102.4579617507
 30
0.0
 10
144.4199471634
 20
102.5454200136
 30
0.0
 10
144.3899506421
 20
102.5927776115
 30
0.0
  0
SPLINE
  5
2CB
100
AcDbEntity
  8
0
100
AcDbSpline
 62
7
  6
CONTINUOUS
 70
0
 71
3
 72
9
 73
5
 74
0
 42
0.0000001
 43
0.0000001
 44
0.0000000001
 40
0.0
 40
0.0
 40
0.0
 40
0.0
 40
0.2002067434
 40
1.0
 40
1.0
 40
1.0
 40
1.0
 10
144.3443803124
 20
102.6646765888
 30
0.0
 10
144.2065695816
 20
102.656882081
 30
0.0
 10
143.518369759
 20
102.6154482632
 30
0.0
 10
142.8305104228
 20
102.5686465233
 30
0.0
 10
142.2803619166
 20
102.5313507525
 30
0.0
  0
SPLINE
  5
2CC
100
AcDbEntity
  8
0
100
AcDbSpline
 62
7
  6
CONTINUOUS
 70
0
 71
3
 72
10
 73
6
 74
0
 42
0.0000001
 43
0.0000001
 44
0.0000000001
 40
0.0
 40
0.0
 40
0.0
 40
0.0
 40
0.449067356
 40
0.7167370325
 40
1.0
 40
1.0
 40
1.0
 40
1.0
 10
146.6333127005
 20
102.1526227393
 30
0.0
 10
146.6110384143
 20
102.1891952489
 30
0.0
 10
146.5505115686
 20
102.2341470258
 30
0.0
 10
146.4555162616
 20
102.2484359809
 30
0.0
 10
146.4025094411
 20
102.2440704698
 30
0.0
 10
146.3761038669
 20
102.2383834027
 30
0.0
  0
SPLINE
  5
2CD
100
AcDbEntity
  8
0
100
AcDbSpline
 62
7
  6
CONTINUOUS
 70
0
 71
3
 72
12
 73
8
 74
0
 42
0.0000001
 43
0.0000001
 44
0.0000000001
 40
0.0
 40
0.0
 40
0.0
 40
0.0
 40
0.2785620049
 40
0.5387426772
 40
0.6613122172
 40
0.7785165889
 40
1.0
 40
1.0
 40
1.0
 40
1.0
 10
142.2803797889
 20
101.5715556495
 30
0.0
 10
142.4385783978
 20
101.5700491089
 30
0.0
 10
142.7445229663
 20
101.5649597969
 30
0.0
 10
143.1199605858
 20
101.5550966618
 30
0.0
 10
143.4039005731
 20
101.5502846752
 30
0.0
 10
143.6657830178
 20
101.5513723113
 30
0.0
 10
143.8585194412
 20
101.5521562924
 30
0.0
 10
143.9838821563
 20
101.5418126871
 30
0.0
  0
SPLINE
  5
2CE
100
AcDbEntity
  8
0
100
AcDbSpline
 62
7
  6
CONTINUOUS
 70
0
 71
3
 72
9
 73
5
 74
0
 42
0.0000001
 43
0.0000001
 44
0.0000000001
 40
0.0
 40
0.0
 40
0.0
 40
0.0
 40
0.2262604451
 40
1.0
 40
1.0
 40
1.0
 40
1.0
 10
144.1803796096
 20
101.3418443457
 30
0.0
 10
144.1806884331
 20
101.241602952
 30
0.0
 10
144.1806715694
 20
100.7985645335
 30
0.0
 10
144.1795868425
 20
100.3555266244
 30
0.0
 10
144.1803796096
 20
100.0127318776
 30
0.0
  0
SPLINE
  5
2CF
100
AcDbEntity
  8
0
100
AcDbSpline
 62
7
  6
CONTINUOUS
 70
0
 71
3
 72
12
 73
8
 74
0
 42
0.0000001
 43
0.0000001
 44
0.0000000001
 40
0.0
 40
0.0
 40
0.0
 40
0.0
 40
0.055355443
 40
0.1376173669
 40
0.3690682793
 40
0.6666719842
 40
1.0
 40
1.0
 40
1.0
 40
1.0
 10
140.7015024464
 20
100.0279460287
 30
0.0
 10
140.7300386159
 20
99.9402692601
 30
0.0
 10
140.804986572
 20
99.7236250853
 30
0.0
 10
141.0023593193
 20
99.1414526546
 30
0.0
 10
141.2957700192
 20
98.1655538141
 30
0.0
 10
141.5822753558
 20
96.7551505952
 30
0.0
 10
141.6602608794
 20
95.7028768427
 30
0.0
 10
141.6602608794
 20
95.1476633665
 30
0.0
  0
SPLINE
  5
2D0
100
AcDbEntity
  8
0
100
AcDbSpline
 62
7
  6
CONTINUOUS
 70
0
 71
3
 72
11
 73
7
 74
0
 42
0.0000001
 43
0.0000001
 44
0.0000000001
 40
0.0
 40
0.0
 40
0.0
 40
0.0
 40
0.2841256692
 40
0.5522220363
 40
0.7925950998
 40
1.0
 40
1.0
 40
1.0
 40
1.0
 10
145.7394950999
 20
99.4383837983
 30
0.0
 10
145.7398594805
 20
99.6832427781
 30
0.0
 10
145.7033800388
 20
100.1598087971
 30
0.0
 10
145.554829324
 20
100.8289816682
 30
0.0
 10
145.3327480561
 20
101.4066081566
 30
0.0
 10
145.1448392259
 20
101.7457971926
 30
0.0
 10
145.0437092235
 20
101.8931783189
 30
0.0
  0
SPLINE
  5
2D1
100
AcDbEntity
  8
0
100
AcDbSpline
 62
7
  6
CONTINUOUS
 70
0
 71
3
 72
11
 73
7
 74
0
 42
0.0000001
 43
0.0000001
 44
0.0000000001
 40
0.0
 40
0.0
 40
0.0
 40
0.0
 40
0.1519810545
 40
0.3919525425
 40
0.6946716195
 40
1.0
 40
1.0
 40
1.0
 40
1.0
 10
144.3899607108
 20
102.5927535349
 30
0.0
 10
144.3927199837
 20
102.6106242355
 30
0.0
 10
144.4187867372
 20
102.6518802947
 30
0.0
 10
144.4748765367
 20
102.7117520105
 30
0.0
 10
144.5555066962
 20
102.7735249344
 30
0.0
 10
144.6166739657
 20
102.8122039431
 30
0.0
 10
144.6485199954
 20
102.8296829773
 30
0.0
  0
SPLINE
  5
2D2
100
AcDbEntity
  8
0
100
AcDbSpline
 62
7
  6
CONTINUOUS
 70
0
 71
3
 72
11
 73
7
 74
0
 42
0.0000001
 43
0.0000001
 44
0.0000000001
 40
0.0
 40
0.0
 40
0.0
 40
0.0
 40
0.2355581002
 40
0.504380089
 40
0.7700652049
 40
1.0
 40
1.0
 40
1.0
 40
1.0
 10
144.7064119697
 20
102.2142721244
 30
0.0
 10
144.6897400968
 20
102.2561975026
 30
0.0
 10
144.6745084387
 20
102.3553594927
 30
0.0
 10
144.7225736159
 20
102.5012566701
 30
0.0
 10
144.8339439602
 20
102.6059383542
 30
0.0
 10
144.9296228077
 20
102.6313626594
 30
0.0
 10
144.9736536885
 20
102.6323308168
 30
0.0
  0
SPLINE
  5
2D3
100
AcDbEntity
  8
0
100
AcDbSpline
 62
7
  6
CONTINUOUS
 70
0
 71
3
 72
11
 73
7
 74
0
 42
0.0000001
 43
0.0000001
 44
0.0000000001
 40
0.0
 40
0.0
 40
0.0
 40
0.0
 40
0.1881722065
 40
0.4290376483
 40
0.70457582
 40
1.0
 40
1.0
 40
1.0
 40
1.0
 10
144.9736537785
 20
102.6323299539
 30
0.0
 10
144.9498298507
 20
102.635400091
 30
0.0
 10
144.8982302008
 20
102.6570301134
 30
0.0
 10
144.8206720046
 20
102.7019441937
 30
0.0
 10
144.7355891589
 20
102.7615336702
 30
0.0
 10
144.6781721757
 20
102.8063816209
 30
0.0
 10
144.6485200091
 20
102.8296829041
 30
0.0
  0
SPLINE
  5
2D4
100
AcDbEntity
  8
0
100
AcDbSpline
 62
7
  6
CONTINUOUS
 70
0
 71
3
 72
11
 73
7
 74
0
 42
0.0000001
 43
0.0000001
 44
0.0000000001
 40
0.0
 40
0.0
 40
0.0
 40
0.0
 40
0.1987012416
 40
0.452641915
 40
0.7366291794
 40
1.0
 40
1.0
 40
1.0
 40
1.0
 10
145.0437089793
 20
101.8931781344
 30
0.0
 10
145.0374976422
 20
101.9242833184
 30
0.0
 10
145.0423147715
 20
101.99926335
 30
0.0
 10
145.0989580285
 20
102.1056393578
 30
0.0
 10
145.1957703694
 20
102.1927627033
 30
0.0
 10
145.277477061
 20
102.2285156653
 30
0.0
 10
145.3183458053
 20
102.238381441
 30
0.0
  0
SPLINE
  5
2D5
100
AcDbEntity
  8
0
100
AcDbSpline
 62
7
  6
CONTINUOUS
 70
0
 71
3
 72
10
 73
6
 74
0
 42
0.0000001
 43
0.0000001
 44
0.0000000001
 40
0.0
 40
0.0
 40
0.0
 40
0.0
 40
0.6168979942
 40
0.8375377155
 40
1.0
 40
1.0
 40
1.0
 40
1.0
 10
145.3183458165
 20
102.2383837983
 30
0.0
 10
145.2635884768
 20
102.3328333373
 30
0.0
 10
145.1838273919
 20
102.4598177371
 30
0.0
 10
145.0595028052
 20
102.5859783526
 30
0.0
 10
145.0010662487
 20
102.6236593596
 30
0.0
 10
144.9736532976
 20
102.6323299539
 30
0.0
  0
SPLINE
  5
2D6
100
AcDbEntity
  8
0
100
AcDbSpline
 62
7
  6
CONTINUOUS
 70
0
 71
3
 72
11
 73
7
 74
0
 42
0.0000001
 43
0.0000001
 44
0.0000000001
 40
0.0
 40
0.0
 40
0.0
 40
0.0
 40
0.2076030473
 40
0.4669360932
 40
0.7473868808
 40
1.0
 40
1.0
 40
1.0
 40
1.0
 10
145.0437081052
 20
96.9835895374
 30
0.0
 10
145.0372189308
 20
96.9510927917
 30
0.0
 10
145.0431006364
 20
96.8735815516
 30
0.0
 10
145.1025411092
 20
96.766743644
 30
0.0
 10
145.1994670013
 20
96.6820587295
 30
0.0
 10
145.2791488153
 20
96.6478486896
 30
0.0
 10
145.3183458795
 20
96.6383865208
 30
0.0
  0
SPLINE
  5
2D7
100
AcDbEntity
  8
0
100
AcDbSpline
 62
7
  6
CONTINUOUS
 70
0
 71
3
 72
15
 73
11
 74
0
 42
0.0000001
 43
0.0000001
 44
0.0000000001
 40
0.0
 40
0.0
 40
0.0
 40
0.0
 40
0.103729028
 40
0.2244386887
 40
0.3583989519
 40
0.4999437107
 40
0.6415070111
 40
0.7755276801
 40
0.8962922792
 40
1.0
 40
1.0
 40
1.0
 40
1.0
 10
145.3183458165
 20
96.6383837983
 30
0.0
 10
145.426612017
 20
96.809049651
 30
0.0
 10
145.6207721583
 20
97.2035081627
 30
0.0
 10
145.8472301347
 20
97.8655934743
 30
0.0
 10
146.0002076171
 20
98.6248115652
 30
0.0
 10
146.0531126117
 20
99.438084521
 30
0.0
 10
146.0001626303
 20
100.2514291069
 30
0.0
 10
145.8468136554
 20
101.0109978599
 30
0.0
 10
145.6202428135
 20
101.6727342722
 30
0.0
 10
145.4290797752
 20
102.0693583148
 30
0.0
 10
145.3183458165
 20
102.2383837983
 30
0.0
  0
SPLINE
  5
2D8
100
AcDbEntity
  8
0
100
AcDbSpline
 62
7
  6
CONTINUOUS
 70
0
 71
3
 72
11
 73
7
 74
0
 42
0.0000001
 43
0.0000001
 44
0.0000000001
 40
0.0
 40
0.0
 40
0.0
 40
0.0
 40
0.2355601425
 40
0.5043812448
 40
0.7700650318
 40
1.0
 40
1.0
 40
1.0
 40
1.0
 10
144.7064115202
 20
96.6624957233
 30
0.0
 10
144.6897412662
 20
96.6205705446
 30
0.0
 10
144.6745129265
 20
96.5214104942
 30
0.0
 10
144.7225802425
 20
96.3755185606
 30
0.0
 10
144.8339479404
 20
96.2708412509
 30
0.0
 10
144.9296233621
 20
96.2454164576
 30
0.0
 10
144.9736531059
 20
96.2444472431
 30
0.0
  0
SPLINE
  5
2D9
100
AcDbEntity
  8
0
100
AcDbSpline
 62
7
  6
CONTINUOUS
 70
0
 71
3
 72
10
 73
6
 74
0
 42
0.0000001
 43
0.0000001
 44
0.0000000001
 40
0.0
 40
0.0
 40
0.0
 40
0.0
 40
0.1618864923
 40
0.3826748401
 40
1.0
 40
1.0
 40
1.0
 40
1.0
 10
144.9736532984
 20
96.2444376427
 30
0.0
 10
145.000907877
 20
96.2532477781
 30
0.0
 10
145.0592021057
 20
96.2908835008
 30
0.0
 10
145.1833829841
 20
96.4171120143
 30
0.0
 10
145.2642572633
 20
96.543490958
 30
0.0
 10
145.3183458155
 20
96.6383837983
 30
0.0
  0
SPLINE
  5
2DA
100
AcDbEntity
  8
0
100
AcDbSpline
 62
7
  6
CONTINUOUS
 70
0
 71
3
 72
10
 73
6
 74
0
 42
0.0000001
 43
0.0000001
 44
0.0000000001
 40
0.0
 40
0.0
 40
0.0
 40
0.0
 40
0.1661819631
 40
0.4183026145
 40
1.0
 40
1.0
 40
1.0
 40
1.0
 10
144.3899643402
 20
96.2840118167
 30
0.0
 10
144.3929779569
 20
96.2644928203
 30
0.0
 10
144.4221693156
 20
96.2211015421
 30
0.0
 10
144.5036496538
 20
96.1362117903
 30
0.0
 10
144.5879168437
 20
96.0803467153
 30
0.0
 10
144.6485213862
 20
96.0470829308
 30
0.0
  0
SPLINE
  5
2DB
100
AcDbEntity
  8
0
100
AcDbSpline
 62
7
  6
CONTINUOUS
 70
0
 71
3
 72
11
 73
7
 74
0
 42
0.0000001
 43
0.0000001
 44
0.0000000001
 40
0.0
 40
0.0
 40
0.0
 40
0.0
 40
0.2953621076
 40
0.5707840751
 40
0.8115592385
 40
1.0
 40
1.0
 40
1.0
 40
1.0
 10
144.6485211335
 20
96.0470846926
 30
0.0
 10
144.6781636551
 20
96.0703896485
 30
0.0
 10
144.7355443052
 20
96.1152560031
 30
0.0
 10
144.8205686038
 20
96.1748771622
 30
0.0
 10
144.8981307155
 20
96.2198307196
 30
0.0
 10
144.9497918021
 20
96.2413778168
 30
0.0
 10
144.9736532989
 20
96.2444376427
 30
0.0
  0
SPLINE
  5
2DC
100
AcDbEntity
  8
0
100
AcDbSpline
 62
7
  6
CONTINUOUS
 70
0
 71
3
 72
9
 73
5
 74
0
 42
0.0000001
 43
0.0000001
 44
0.0000000001
 40
0.0
 40
0.0
 40
0.0
 40
0.0
 40
0.5015558782
 40
1.0
 40
1.0
 40
1.0
 40
1.0
 10
145.1233109255
 20
96.0470846926
 30
0.0
 10
145.1708447198
 20
96.0899717458
 30
0.0
 10
145.2831361718
 20
96.156944669
 30
0.0
 10
145.4074188041
 20
96.1889790534
 30
0.0
 10
145.4697266762
 20
96.2018549483
 30
0.0
  0
SPLINE
  5
2DD
100
AcDbEntity
  8
0
100
AcDbSpline
 62
7
  6
CONTINUOUS
 70
0
 71
3
 72
8
 73
4
 74
0
 42
0.0000001
 43
0.0000001
 44
0.0000000001
 40
0.0
 40
0.0
 40
0.0
 40
0.0
 40
1.0
 40
1.0
 40
1.0
 40
1.0
 10
145.806238733
 20
96.2295001228
 30
0.0
 10
145.7842726069
 20
96.2246980246
 30
0.0
 10
145.7611692413
 20
96.2237896748
 30
0.0
 10
145.7388501104
 20
96.2265149707
 30
0.0
  0
SPLINE
  5
2DE
100
AcDbEntity
  8
0
100
AcDbSpline
 62
7
  6
CONTINUOUS
 70
0
 71
3
 72
8
 73
4
 74
0
 42
0.0000001
 43
0.0000001
 44
0.0000000001
 40
0.0
 40
0.0
 40
0.0
 40
0.0
 40
1.0
 40
1.0
 40
1.0
 40
1.0
 10
145.7388501104
 20
96.2265149707
 30
0.0
 10
145.725970331
 20
96.2280876668
 30
0.0
 10
145.713193211
 20
96.2308437854
 30
0.0
 10
145.7007710795
 20
96.2345924839
 30
0.0
  0
SPLINE
  5
2DF
100
AcDbEntity
  8
0
100
AcDbSpline
 62
7
  6
CONTINUOUS
 70
0
 71
3
 72
13
 73
9
 74
0
 42
0.0000001
 43
0.0000001
 44
0.0000000001
 40
0.0
 40
0.0
 40
0.0
 40
0.0
 40
0.0351523508
 40
0.0956377861
 40
0.1836350803
 40
0.2987006479
 40
0.6040155714
 40
1.0
 40
1.0
 40
1.0
 40
1.0
 10
146.1110202118
 20
102.6383837983
 30
0.0
 10
146.1166987349
 20
102.6383837983
 30
0.0
 10
146.1309088908
 20
102.6295846529
 30
0.0
 10
146.1514307161
 20
102.6089347869
 30
0.0
 10
146.1784337994
 20
102.5755930305
 30
0.0
 10
146.2258193575
 20
102.5086588886
 30
0.0
 10
146.2936624204
 20
102.3952634727
 30
0.0
 10
146.3466253832
 20
102.2951541047
 30
0.0
 10
146.3761036585
 20
102.2383837983
 30
0.0
  0
SPLINE
  5
2E0
100
AcDbEntity
  8
0
100
AcDbSpline
 62
7
  6
CONTINUOUS
 70
0
 71
3
 72
9
 73
5
 74
0
 42
0.0000001
 43
0.0000001
 44
0.0000000001
 40
0.0
 40
0.0
 40
0.0
 40
0.0
 40
0.2537049888
 40
1.0
 40
1.0
 40
1.0
 40
1.0
 10
144.2763488105
 20
95.2383837983
 30
0.0
 10
144.2623513372
 20
95.2383837983
 30
0.0
 10
144.2072691251
 20
95.2419369461
 30
0.0
 10
144.1529292591
 20
95.2609835533
 30
0.0
 10
144.1183276315
 20
95.2833014621
 30
0.0
  0
SPLINE
  5
2E1
100
AcDbEntity
  8
0
100
AcDbSpline
 62
7
  6
CONTINUOUS
 70
0
 71
3
 72
10
 73
6
 74
0
 42
0.0000001
 43
0.0000001
 44
0.0000000001
 40
0.0
 40
0.0
 40
0.0
 40
0.0
 40
0.4629933816
 40
0.7276032221
 40
1.0
 40
1.0
 40
1.0
 40
1.0
 10
146.6332602432
 20
96.7241154254
 30
0.0
 10
146.6102079414
 20
96.6864968298
 30
0.0
 10
146.5480795888
 20
96.6413638735
 30
0.0
 10
146.4530298148
 20
96.6283062968
 30
0.0
 10
146.4014792598
 20
96.632921125
 30
0.0
 10
146.3761036754
 20
96.6383863362
 30
0.0
  0
SPLINE
  5
2E2
100
AcDbEntity
  8
0
100
AcDbSpline
 62
7
  6
CONTINUOUS
 70
0
 71
3
 72
9
 73
5
 74
0
 42
0.0000001
 43
0.0000001
 44
0.0000000001
 40
0.0
 40
0.0
 40
0.0
 40
0.0
 40
0.2379124998
 40
1.0
 40
1.0
 40
1.0
 40
1.0
 10
143.97822597
 20
95.6986577705
 30
0.0
 10
143.9732999437
 20
95.6867568766
 30
0.0
 10
143.9562652421
 20
95.6352379591
 30
0.0
 10
143.9540816863
 20
95.5792685073
 30
0.0
 10
143.9596181857
 20
95.5383837983
 30
0.0
  0
SPLINE
  5
2E3
100
AcDbEntity
  8
0
100
AcDbSpline
 62
7
  6
CONTINUOUS
 70
0
 71
3
 72
9
 73
5
 74
0
 42
0.0000001
 43
0.0000001
 44
0.0000000001
 40
0.0
 40
0.0
 40
0.0
 40
0.0
 40
0.4891436756
 40
1.0
 40
1.0
 40
1.0
 40
1.0
 10
143.9596181857
 20
95.5383837983
 30
0.0
 10
143.966340153
 20
95.4887449099
 30
0.0
 10
144.0018196793
 20
95.3895073475
 30
0.0
 10
144.074353145
 20
95.3116390977
 30
0.0
 10
144.1183119538
 20
95.2832747898
 30
0.0
  0
SPLINE
  5
2E4
100
AcDbEntity
  8
0
100
AcDbSpline
 62
7
  6
CONTINUOUS
 70
0
 71
3
 72
8
 73
4
 74
0
 42
0.0000001
 43
0.0000001
 44
0.0000000001
 40
0.0
 40
0.0
 40
0.0
 40
0.0
 40
1.0
 40
1.0
 40
1.0
 40
1.0
 10
144.1803796096
 20
98.864035719
 30
0.0
 10
144.1864945652
 20
98.8654021427
 30
0.0
 10
144.1928106678
 20
98.8660936862
 30
0.0
 10
144.1990754987
 20
98.8659855642
 30
0.0
  0
ENDSEC
  0
SECTION
  2
OBJECTS
  0
DICTIONARY
  5
C
100
AcDbDictionary
280
0
281
1
  3
ACAD_GROUP
350
D
  3
ACAD_MLINESTYLE
350
17
  3
ACAD_LAYOUT
350
1A
  3
ACAD_PLOTSETTINGS
350
19
  3
ACAD_PLOTSTYLENAME
350
E
  0
DICTIONARY
  5
D
102
{ACAD_REACTORS
330
C
102
}
100
AcDbDictionary
280
0
281
1
  0
ACDBDICTIONARYWDFLT
  5
E
102
{ACAD_REACTORS
330
C
102
}
100
AcDbDictionary
281
1
  3
Normal
350
F
100
AcDbDictionaryWithDefault
340
F
  0
DICTIONARY
  5
17
102
{ACAD_REACTORS
330
C
102
}
100
AcDbDictionary
280
0
281
1
  3
Standard
350
18
  0
DICTIONARY
  5
19
102
{ACAD_REACTORS
330
C
102
}
100
AcDbDictionary
281
1
  0
DICTIONARY
  5
1A
102
{ACAD_REACTORS
330
C
102
}
100
AcDbDictionary
281
1
  3
Model
350
2E5
  3
Layout1
350
2E6
  0
ACDBPLACEHOLDER
  5
F
102
{ACAD_REACTORS
330
E
102
}
  0
MLINESTYLE
  5
18
102
{ACAD_REACTORS
330
17
102
}
100
AcDbMlineStyle
  2
STANDARD
 70
0
  3

 62
256
 51
90.0
 52
90.0
 71
2
 49
0.5
 62
256
  6
BYLAYER
 49
-0.5
 62
256
  6
BYLAYER
  0
LAYOUT
  5
2E5
102
{ACAD_REACTORS
330
1A
102
}
100
AcDbPlotSettings
  1

  2
none_device
  4

  6

 40
0.0
 41
0.0
 42
0.0
 43
0.0
 44
210.0
 45
297.0
 46
0.0
 47
0.0
 48
0.0
 49
0.0
140
0.0
141
0.0
142
1.0
143
1.0
 70
1024
 72
1
 73
0
 74
0
  7

 75
0
147
1.0
148
0.0
149
0.0
100
AcDbLayout
  1
Model
 70
0
 71
0
 10
0.0
 20
0.0
 11
210.0
 21
297.0
 12
0.0
 22
0.0
 32
0.0
 14
0.0
 24
0.0
 34
0.0
 15
0.0
 25
0.0
 35
0.0
146
0.0
 13
0.0
 23
0.0
 33
0.0
 16
1.0
 26
0.0
 36
0.0
 17
0.0
 27
1.0
 37
0.0
 76
0
330
210
345
0
346
0
  0
LAYOUT
  5
2E6
102
{ACAD_REACTORS
330
1A
102
}
100
AcDbPlotSettings
  1

  2
none_device
  4

  6

 40
0.0
 41
0.0
 42
0.0
 43
0.0
 44
210.0
 45
297.0
 46
0.0
 47
0.0
 48
0.0
 49
0.0
140
0.0
141
0.0
142
1.0
143
1.0
 70
0
 72
1
 73
0
 74
0
  7

 75
0
147
1.0
148
0.0
149
0.0
100
AcDbLayout
  1
Layout1
 70
0
 71
1
 10
0.0
 20
0.0
 11
210.0
 21
297.0
 12
0.0
 22
0.0
 32
0.0
 14
0.0
 24
0.0
 34
0.0
 15
0.0
 25
0.0
 35
0.0
146
0.0
 13
0.0
 23
0.0
 33
0.0
 16
1.0
 26
0.0
 36
0.0
 17
0.0
 27
1.0
 37
0.0
 76
0
330
211
345
0
346
0
  0
ENDSEC
  0
EOF
