999
DXF file: C:\Users\sesa63760\Dev\_Creo\CAD\MCADPP0003227_3D-CAD\drw0001_5.dxf
999
Pro/ENGINEER 2019471 by Parametric Technology Corporation
  0
SECTION
  2
HEADER
  9
$ACADVER
  1
AC1024
  9
$DWGCODEPAGE
  3
ANSI_1252
  9
$EXTMAX
 10
310.0119684392
 20
438.4454982212
 30
0.0
  9
$EXTMIN
 10
0.0
 20
0.0
 30
0.0
  9
$LIMMIN
 10
0.0
 20
0.0
  9
$LIMMAX
 10
310.0119684392
 20
438.4454982212
  9
$VIEWCTR
 10
155.0059842196
 20
219.2227491106
  9
$VIEWSIZE
 40
438.4454982212
  9
$CLAYER
  8
0
  9
$LTSCALE
 40
28.5801509952
  9
$CELTYPE
  6
BYLAYER
  9
$DIMSCALE
 40
1.0
  9
$DIMASZ
 40
3.6906186719
  9
$DIMEXO
 40
1.0
  9
$DIMDLI
 40
19.7462861421
  9
$DIMEXE
 40
1.0
  9
$DIMCEN
 40
4.676751981
  9
$DIMLFAC
 40
1.0
  9
$DIMBLK
  1
_FILLED
  9
$DIMALT
 70
0
  9
$DIMALTF
 40
0.0393700787
  9
$DIMTXT
 40
5.1668661407
  9
$DIMTOL
 70
1
  9
$DIMLIM
 70
0
  9
$DIMTFAC
 40
1.0
  9
$DIMTP
 40
0.01
  9
$DIMTM
 40
0.01
  9
$DIMGAP
 40
0.625
  9
$DIMDSEP
 70
46
  9
$AUNITS
 70
0
  9
$PDMODE
 70
3
  9
$PDSIZE
 40
0.3125
  9
$HANDSEED
  5
319
  9
$TILEMODE
 70
1
  9
$MEASUREMENT
 70
1
  9
$INSUNITS
 70
4
  0
ENDSEC
  0
SECTION
  2
CLASSES
  0
CLASS
  1
ACDBDICTIONARYWDFLT
  2
AcDbDictionaryWithDefault
  3
AutoCAD 2000
 90
0
 91
1
280
0
281
0
  0
CLASS
  1
ACDBPLACEHOLDER
  2
AcDbPlaceHolder
  3
AutoCAD 2000
 90
0
 91
1
280
0
281
0
  0
CLASS
  1
LAYOUT
  2
AcDbLayout
  3
AutoCAD 2000
 90
0
 91
0
280
0
281
0
  0
ENDSEC
  0
SECTION
  2
TABLES
  0
TABLE
  2
VPORT
  5
8
100
AcDbSymbolTable
 70
2
  0
VPORT
  5
1F4
100
AcDbSymbolTableRecord
100
AcDbViewportTableRecord
  2
*ACTIVE
 70
0
 10
0.0
 20
0.0
 11
1.0
 21
1.0
 12
155.0059842196
 22
219.2227491106
 13
0.0
 23
0.0
 14
1.0
 24
1.0
 15
0.0
 25
0.0
 16
0.0
 26
0.0
 36
1.0
 17
0.0
 27
0.0
 37
0.0
 40
438.4454982212
 41
0.7070707071
 42
50.0
 43
0.0
 44
0.0
 50
0.0
 51
0.0
 71
0
 72
100
 73
1
 74
1
 75
0
 76
0
 77
0
 78
0
  0
ENDTAB
  0
TABLE
  2
LTYPE
  5
5
100
AcDbSymbolTable
 70
6
  0
LTYPE
  5
14
100
AcDbSymbolTableRecord
100
AcDbLinetypeTableRecord
  2
BYBLOCK
 70
0
  3

 72
65
 73
0
 40
0.0
  0
LTYPE
  5
15
100
AcDbSymbolTableRecord
100
AcDbLinetypeTableRecord
  2
BYLAYER
 70
0
  3

 72
65
 73
0
 40
0.0
  0
LTYPE
  5
16
100
AcDbSymbolTableRecord
100
AcDbLinetypeTableRecord
  2
CONTINUOUS
 70
64
  3
Solid line
 72
65
 73
0
 40
0.0
  0
LTYPE
  5
1F5
100
AcDbSymbolTableRecord
100
AcDbLinetypeTableRecord
  2
CENTER
 70
64
  3
____ _ ____ _ ____ _ ____ _ ____ _ ____ _ ____
 72
65
 73
4
 40
0.6
 49
0.375
 74
0
 49
-0.075
 74
0
 49
0.075
 74
0
 49
-0.075
 74
0
  0
LTYPE
  5
1F6
100
AcDbSymbolTableRecord
100
AcDbLinetypeTableRecord
  2
HIDDEN
 70
64
  3
- - - - - - - - - - - - - - - - - - - -
 72
65
 73
2
 40
0.2
 49
0.1
 74
0
 49
-0.1
 74
0
  0
LTYPE
  5
1F7
100
AcDbSymbolTableRecord
100
AcDbLinetypeTableRecord
  2
PHANTOM
 70
64
  3
_____ _ _ _____ _ _ _____ _ _ _____
 72
65
 73
6
 40
0.8
 49
0.45
 74
0
 49
-0.05
 74
0
 49
0.1
 74
0
 49
-0.05
 74
0
 49
0.1
 74
0
 49
-0.05
 74
0
  0
LTYPE
  5
1F8
100
AcDbSymbolTableRecord
100
AcDbLinetypeTableRecord
  2
DOT
 70
64
  3
. . . . . . . . . . . . . . . . . . . .
 72
65
 73
2
 40
0.2
 49
0.1
 74
0
 49
-0.1
 74
0
  0
LTYPE
  5
1F9
100
AcDbSymbolTableRecord
100
AcDbLinetypeTableRecord
  2
DASHED
 70
64
  3
- - - - - - - - - - - - - - - - - - - -
 72
65
 73
2
 40
0.2
 49
0.1
 74
0
 49
-0.1
 74
0
  0
ENDTAB
  0
TABLE
  2
LAYER
  5
2
100
AcDbSymbolTable
 70
36
  0
LAYER
  5
10
100
AcDbSymbolTableRecord
100
AcDbLayerTableRecord
  2
0
 70
0
 62
7
  6
CONTINUOUS
370
-3
390
F
  0
LAYER
  5
1FA
100
AcDbSymbolTableRecord
100
AcDbLayerTableRecord
  2
DEFAULT_1
 70
0
 62
7
  6
CENTER
370
-3
390
F
  0
LAYER
  5
1FB
100
AcDbSymbolTableRecord
100
AcDbLayerTableRecord
  2
DEFAULT_2
 70
0
 62
8
  6
HIDDEN
370
-3
390
F
  0
LAYER
  5
1FC
100
AcDbSymbolTableRecord
100
AcDbLayerTableRecord
  2
DEFAULT_3
 70
0
 62
7
  6
PHANTOM
370
-3
390
F
  0
LAYER
  5
1FD
100
AcDbSymbolTableRecord
100
AcDbLayerTableRecord
  2
00_COMPONENTS
 70
0
 62
7
  6
CONTINUOUS
370
-3
390
F
  0
LAYER
  5
1FE
100
AcDbSymbolTableRecord
100
AcDbLayerTableRecord
  2
01_1_DEFAULT_DATUMS
 70
0
 62
7
  6
CONTINUOUS
370
-3
390
F
  0
LAYER
  5
1FF
100
AcDbSymbolTableRecord
100
AcDbLayerTableRecord
  2
01_PLANES
 70
0
 62
7
  6
CONTINUOUS
370
-3
390
F
  0
LAYER
  5
200
100
AcDbSymbolTableRecord
100
AcDbLayerTableRecord
  2
02_COORD_SYS
 70
0
 62
7
  6
CONTINUOUS
370
-3
390
F
  0
LAYER
  5
201
100
AcDbSymbolTableRecord
100
AcDbLayerTableRecord
  2
03_AXES
 70
0
 62
7
  6
CONTINUOUS
370
-3
390
F
  0
LAYER
  5
202
100
AcDbSymbolTableRecord
100
AcDbLayerTableRecord
  2
04_POINTS
 70
0
 62
7
  6
CONTINUOUS
370
-3
390
F
  0
LAYER
  5
203
100
AcDbSymbolTableRecord
100
AcDbLayerTableRecord
  2
05_CURVES
 70
0
 62
7
  6
CONTINUOUS
370
-3
390
F
  0
LAYER
  5
204
100
AcDbSymbolTableRecord
100
AcDbLayerTableRecord
  2
06_SURFS
 70
0
 62
7
  6
CONTINUOUS
370
-3
390
F
  0
LAYER
  5
205
100
AcDbSymbolTableRecord
100
AcDbLayerTableRecord
  2
07_COSMETICS
 70
0
 62
7
  6
CONTINUOUS
370
-3
390
F
  0
LAYER
  5
206
100
AcDbSymbolTableRecord
100
AcDbLayerTableRecord
  2
10_NOTES
 70
0
 62
7
  6
CONTINUOUS
370
-3
390
F
  0
LAYER
  5
207
100
AcDbSymbolTableRecord
100
AcDbLayerTableRecord
  2
11_NOTES_PUB
 70
0
 62
7
  6
CONTINUOUS
370
-3
390
F
  0
LAYER
  5
208
100
AcDbSymbolTableRecord
100
AcDbLayerTableRecord
  2
13_REF_GTOL
 70
0
 62
7
  6
CONTINUOUS
370
-3
390
F
  0
LAYER
  5
209
100
AcDbSymbolTableRecord
100
AcDbLayerTableRecord
  2
16_MISC
 70
0
 62
7
  6
CONTINUOUS
370
-3
390
F
  0
LAYER
  5
20A
100
AcDbSymbolTableRecord
100
AcDbLayerTableRecord
  2
17_NO_PRINT
 70
0
 62
7
  6
CONTINUOUS
370
-3
390
F
  0
LAYER
  5
20B
100
AcDbSymbolTableRecord
100
AcDbLayerTableRecord
  2
18_DATUM_CAMS_JOINTS
 70
0
 62
7
  6
CONTINUOUS
370
-3
390
F
  0
LAYER
  5
20C
100
AcDbSymbolTableRecord
100
AcDbLayerTableRecord
  2
19_DATUM_FUNCTIONAL
 70
0
 62
7
  6
CONTINUOUS
370
-3
390
F
  0
LAYER
  5
20D
100
AcDbSymbolTableRecord
100
AcDbLayerTableRecord
  2
20_DATUM_KINEMATIC_SCHEME
 70
0
 62
7
  6
CONTINUOUS
370
-3
390
F
  0
LAYER
  5
20E
100
AcDbSymbolTableRecord
100
AcDbLayerTableRecord
  2
SHELL1
 70
0
 62
7
  6
CONTINUOUS
370
-3
390
F
  0
ENDTAB
  0
TABLE
  2
STYLE
  5
3
100
AcDbSymbolTable
 70
1
  0
STYLE
  5
11
100
AcDbSymbolTableRecord
100
AcDbTextStyleTableRecord
  2
STANDARD
 70
0
 40
0.0
 41
0.8
 50
0.0
 71
0
 42
0.2
  3
txt
  4

  0
STYLE
  5
20F
100
AcDbSymbolTableRecord
100
AcDbTextStyleTableRecord
  2
TEXTSTYLE_1
 70
0
 40
0.0
 41
0.8
 50
0.0
 71
0
 42
0.2
  3
gdt
  4

  0
ENDTAB
  0
TABLE
  2
VIEW
  5
6
100
AcDbSymbolTable
 70
0
  0
ENDTAB
  0
TABLE
  2
UCS
  5
7
100
AcDbSymbolTable
 70
0
  0
ENDTAB
  0
TABLE
  2
APPID
  5
9
100
AcDbSymbolTable
 70
1
  0
APPID
  5
210
100
AcDbSymbolTableRecord
100
AcDbRegAppTableRecord
  2
ACAD
 70
0
  0
ENDTAB
  0
TABLE
  2
BLOCK_RECORD
  5
1
100
AcDbSymbolTable
 70
0
  0
BLOCK_RECORD
  5
211
100
AcDbSymbolTableRecord
100
AcDbBlockTableRecord
  2
*Model_Space
  0
BLOCK_RECORD
  5
212
100
AcDbSymbolTableRecord
100
AcDbBlockTableRecord
  2
*Paper_Space
  0
BLOCK_RECORD
  5
213
100
AcDbSymbolTableRecord
100
AcDbBlockTableRecord
  2
_FILLED
  0
ENDTAB
  0
TABLE
  2
DIMSTYLE
  5
A
100
AcDbSymbolTable
 70
1
100
AcDbDimStyleTable
 71
0
  0
DIMSTYLE
105
214
100
AcDbSymbolTableRecord
100
AcDbDimStyleTableRecord
  2
STANDARD
 70
0
  3

  4

 40
1.0
 41
3.6906186719
 42
1.0
 43
0.38
 44
1.0
 45
0.0
 46
0.0
 47
0.01
 48
0.01
140
5.1668661407
141
0.09
142
0.0
143
25.4
144
1.0
145
0.0
146
1.0
147
0.625
 71
1
 72
0
 73
0
 74
0
 75
0
 76
0
 77
1
 78
8
 79
2
170
0
171
1
172
0
173
0
174
0
175
0
176
0
177
0
178
0
270
2
179
2
271
2
272
2
273
2
274
2
275
0
280
0
281
0
282
0
283
1
284
8
285
0
286
0
287
3
288
0
340
11
278
46
341
213
342
213
343
213
344
213
  0
ENDTAB
  0
ENDSEC
  0
SECTION
  2
BLOCKS
  0
BLOCK
  5
20
100
AcDbEntity
  8
0
100
AcDbBlockBegin
  2
*Model_Space
 70
0
 10
0.0
 20
0.0
 30
0.0
  3
*Model_Space
  1

  0
ENDBLK
  5
21
100
AcDbEntity
  8
0
100
AcDbBlockEnd
  0
BLOCK
  5
1C
100
AcDbEntity
  8
0
100
AcDbBlockBegin
  2
*Paper_Space
 70
0
 10
0.0
 20
0.0
 30
0.0
  3
*Paper_Space
  1

  0
ENDBLK
  5
1D
100
AcDbEntity
  8
0
100
AcDbBlockEnd
  0
BLOCK
  5
215
100
AcDbEntity
  8
0
100
AcDbBlockBegin
  2
_FILLED
 70
64
 10
0.0
 20
0.0
  3
_FILLED
  1

  0
SOLID
  5
216
100
AcDbEntity
  8
0
  6
BYBLOCK
 62
0
100
AcDbTrace
 10
0.0
 20
0.0
 11
-1.0
 21
0.25
 12
-1.0
 22
-0.25
 13
-1.0
 23
-0.25
  0
ENDBLK
  5
217
100
AcDbEntity
  8
0
  6
BYBLOCK
 62
0
100
AcDbBlockEnd
  0
ENDSEC
  0
SECTION
  2
ENTITIES
  0
LINE
  5
218
100
AcDbEntity
  8
0
100
AcDbLine
 62
7
  6
CONTINUOUS
 10
36.0766158509
 20
272.0442386621
 11
36.0766158509
 21
270.0642386621
  0
LINE
  5
219
100
AcDbEntity
  8
0
100
AcDbLine
 62
7
  6
CONTINUOUS
 10
37.6807385624
 20
270.0642386621
 11
37.6807385624
 21
272.0442386621
  0
LINE
  5
21A
100
AcDbEntity
  8
0
100
AcDbLine
 62
7
  6
CONTINUOUS
 10
41.716071214
 20
277.9542386621
 11
42.5668099
 21
281.1292386621
  0
LINE
  5
21B
100
AcDbEntity
  8
0
100
AcDbLine
 62
7
  6
CONTINUOUS
 10
38.769671214
 20
262.0792386621
 11
38.769671214
 21
258.5994386621
  0
LINE
  5
21C
100
AcDbEntity
  8
0
100
AcDbLine
 62
7
  6
CONTINUOUS
 10
41.716071214
 20
262.0792386621
 11
41.716071214
 21
270.0642386621
  0
LINE
  5
21D
100
AcDbEntity
  8
0
100
AcDbLine
 62
7
  6
CONTINUOUS
 10
41.716071214
 20
272.0442386621
 11
41.716071214
 21
277.9542386621
  0
LINE
  5
21E
100
AcDbEntity
  8
0
100
AcDbLine
 62
7
  6
CONTINUOUS
 10
42.7453691151
 20
254.7642386621
 11
42.7453691151
 21
268.0592386621
  0
LINE
  5
21F
100
AcDbEntity
  8
0
100
AcDbLine
 62
7
  6
CONTINUOUS
 10
43.8810504591
 20
268.0592386621
 11
43.8810504591
 21
254.7642386621
  0
LINE
  5
220
100
AcDbEntity
  8
0
100
AcDbLine
 62
7
  6
CONTINUOUS
 10
48.066071214
 20
277.9542386621
 11
48.066071214
 21
272.0442386621
  0
LINE
  5
221
100
AcDbEntity
  8
0
100
AcDbLine
 62
7
  6
CONTINUOUS
 10
53.643623934
 20
252.7592386621
 11
53.643623934
 21
250.7792386621
  0
LINE
  5
222
100
AcDbEntity
  8
0
100
AcDbLine
 62
7
  6
CONTINUOUS
 10
56.83697918
 20
270.8664738252
 11
56.83697918
 21
272.0442386621
  0
LINE
  5
223
100
AcDbEntity
  8
0
100
AcDbLine
 62
7
  6
CONTINUOUS
 10
57.6100387214
 20
268.0592386621
 11
57.6100387214
 21
254.7642386621
  0
LINE
  5
224
100
AcDbEntity
  8
0
100
AcDbLine
 62
7
  6
CONTINUOUS
 10
59.5535546404
 20
272.0442386621
 11
59.5535546404
 21
270.0642386621
  0
LINE
  5
225
100
AcDbEntity
  8
0
100
AcDbLine
 62
7
  6
CONTINUOUS
 10
60.6935541565
 20
270.0642386621
 11
60.6935541565
 21
272.0442386621
  0
LINE
  5
226
100
AcDbEntity
  8
0
100
AcDbLine
 62
7
  6
CONTINUOUS
 10
61.141071214
 20
252.7592386621
 11
61.141071214
 21
289.1592386621
  0
LINE
  5
227
100
AcDbEntity
  8
0
100
AcDbLine
 62
7
  6
CONTINUOUS
 10
67.621071214
 20
282.5092386621
 11
67.621071214
 21
279.7292386621
  0
LINE
  5
228
100
AcDbEntity
  8
0
100
AcDbLine
 62
7
  6
CONTINUOUS
 10
72.4915497827
 20
252.7592386621
 11
72.4915497827
 21
250.7792386621
  0
LINE
  5
229
100
AcDbEntity
  8
0
100
AcDbLine
 62
7
  6
CONTINUOUS
 10
75.491071214
 20
269.5692386621
 11
75.491071214
 21
250.7792386621
  0
LINE
  5
22A
100
AcDbEntity
  8
0
100
AcDbLine
 62
7
  6
CONTINUOUS
 10
47.215332528
 20
281.1292386621
 11
48.066071214
 21
277.9542386621
  0
LINE
  5
22B
100
AcDbEntity
  8
0
100
AcDbLine
 62
7
  6
CONTINUOUS
 10
76.891071214
 20
197.9192386621
 11
76.891071214
 21
219.4192386621
  0
LINE
  5
22C
100
AcDbEntity
  8
0
100
AcDbLine
 62
7
  6
CONTINUOUS
 10
77.7809283605
 20
279.7292386621
 11
77.7809283605
 21
269.5692386621
  0
LINE
  5
22D
100
AcDbEntity
  8
0
100
AcDbLine
 62
7
  6
CONTINUOUS
 10
78.031071214
 20
247.1792386621
 11
78.031071214
 21
252.7592386621
  0
LINE
  5
22E
100
AcDbEntity
  8
0
100
AcDbLine
 62
7
  6
CONTINUOUS
 10
82.101071214
 20
287.7788389974
 11
82.101071214
 21
283.1996968878
  0
LINE
  5
22F
100
AcDbEntity
  8
0
100
AcDbLine
 62
7
  6
CONTINUOUS
 10
83.191071214
 20
170.9792386621
 11
83.191071214
 21
191.1792386621
  0
LINE
  5
230
100
AcDbEntity
  8
0
100
AcDbLine
 62
7
  6
CONTINUOUS
 10
83.391071214
 20
192.0792386621
 11
83.391071214
 21
240.5792386621
  0
LINE
  5
231
100
AcDbEntity
  8
0
100
AcDbLine
 62
7
  6
CONTINUOUS
 10
84.0670066326
 20
271.0692386748
 11
84.0670066326
 21
278.2292386444
  0
LINE
  5
232
100
AcDbEntity
  8
0
100
AcDbLine
 62
7
  6
CONTINUOUS
 10
85.141071214
 20
252.7592386621
 11
85.141071214
 21
247.9892386621
  0
LINE
  5
233
100
AcDbEntity
  8
0
100
AcDbLine
 62
7
  6
CONTINUOUS
 10
230.8510704803
 20
157.6492387265
 11
281.838998398
 21
168.8821867347
  0
LINE
  5
234
100
AcDbEntity
  8
0
100
AcDbLine
 62
7
  6
CONTINUOUS
 10
85.191071214
 20
250.7792386621
 11
85.191071214
 21
247.9892386621
  0
LINE
  5
235
100
AcDbEntity
  8
0
100
AcDbLine
 62
7
  6
CONTINUOUS
 10
85.191071214
 20
244.1792386621
 11
85.191071214
 21
180.4792386621
  0
LINE
  5
236
100
AcDbEntity
  8
0
100
AcDbLine
 62
7
  6
CONTINUOUS
 10
85.191071214
 20
180.4538386621
 11
85.191071214
 21
170.9792386621
  0
LINE
  5
237
100
AcDbEntity
  8
0
100
AcDbLine
 62
7
  6
CONTINUOUS
 10
85.4670780575
 20
271.0692386621
 11
85.4670780575
 21
278.2292386621
  0
LINE
  5
238
100
AcDbEntity
  8
0
100
AcDbLine
 62
7
  6
CONTINUOUS
 10
85.491071214
 20
170.9792386621
 11
85.491071214
 21
180.4538386621
  0
LINE
  5
239
100
AcDbEntity
  8
0
100
AcDbLine
 62
7
  6
CONTINUOUS
 10
87.1210712165
 20
252.7592386621
 11
87.1210712165
 21
250.7792386621
  0
LINE
  5
23A
100
AcDbEntity
  8
0
100
AcDbLine
 62
7
  6
CONTINUOUS
 10
88.191071214
 20
243.2792386621
 11
88.191071214
 21
238.1792386621
  0
LINE
  5
23B
100
AcDbEntity
  8
0
100
AcDbLine
 62
7
  6
CONTINUOUS
 10
88.621071214
 20
250.7792386621
 11
88.621071214
 21
252.7592386621
  0
LINE
  5
23C
100
AcDbEntity
  8
0
100
AcDbLine
 62
7
  6
CONTINUOUS
 10
92.291071214
 20
241.8792386621
 11
92.291071214
 21
243.2792386621
  0
LINE
  5
23D
100
AcDbEntity
  8
0
100
AcDbLine
 62
7
  6
CONTINUOUS
 10
93.891071214
 20
184.9792386621
 11
93.891071214
 21
241.8792386621
  0
LINE
  5
23E
100
AcDbEntity
  8
0
100
AcDbLine
 62
7
  6
CONTINUOUS
 10
267.7010018151
 20
177.1163529563
 11
276.0442302303
 21
178.4323521827
  0
LINE
  5
23F
100
AcDbEntity
  8
0
100
AcDbLine
 62
7
  6
CONTINUOUS
 10
275.6722268788
 20
180.7907950079
 11
266.2145513832
 21
179.2990111304
  0
LINE
  5
240
100
AcDbEntity
  8
0
100
AcDbLine
 62
7
  6
CONTINUOUS
 10
218.191070007
 20
157.6492387265
 11
230.8510704803
 21
157.6492387265
  0
LINE
  5
241
100
AcDbEntity
  8
0
100
AcDbLine
 62
7
  6
CONTINUOUS
 10
176.331071214
 20
162.2792386621
 11
113.821071214
 21
162.2792386621
  0
LINE
  5
242
100
AcDbEntity
  8
0
100
AcDbLine
 62
7
  6
CONTINUOUS
 10
105.81712282
 20
252.7592386621
 11
105.81712282
 21
250.7792386621
  0
LINE
  5
243
100
AcDbEntity
  8
0
100
AcDbLine
 62
7
  6
CONTINUOUS
 10
112.291071214
 20
252.7592386621
 11
112.291071214
 21
250.7792386621
  0
LINE
  5
244
100
AcDbEntity
  8
0
100
AcDbLine
 62
7
  6
CONTINUOUS
 10
112.691071214
 20
170.9792386621
 11
112.691071214
 21
166.3592386621
  0
LINE
  5
245
100
AcDbEntity
  8
0
100
AcDbLine
 62
7
  6
CONTINUOUS
 10
112.991071214
 20
166.3592386621
 11
112.991071214
 21
170.9792386621
  0
LINE
  5
246
100
AcDbEntity
  8
0
100
AcDbLine
 62
7
  6
CONTINUOUS
 10
258.3367689773
 20
174.8831841577
 11
217.9513252246
 21
172.7666735113
  0
LINE
  5
247
100
AcDbEntity
  8
0
100
AcDbLine
 62
7
  6
CONTINUOUS
 10
217.9513252246
 20
172.7666735113
 11
210.691069709
 21
172.703313575
  0
LINE
  5
248
100
AcDbEntity
  8
0
100
AcDbLine
 62
7
  6
CONTINUOUS
 10
214.691071214
 20
166.3592386621
 11
112.691071214
 21
166.3592386621
  0
LINE
  5
249
100
AcDbEntity
  8
0
100
AcDbLine
 62
7
  6
CONTINUOUS
 10
210.691069709
 20
170.7892372668
 11
218.191070007
 21
170.7892372668
  0
LINE
  5
24A
100
AcDbEntity
  8
0
100
AcDbLine
 62
7
  6
CONTINUOUS
 10
112.9910712234
 20
170.9792386621
 11
83.191071214
 21
170.9792386621
  0
LINE
  5
24B
100
AcDbEntity
  8
0
100
AcDbLine
 62
7
  6
CONTINUOUS
 10
209.8910712046
 20
170.9792386621
 11
210.691069709
 21
170.9792386621
  0
LINE
  5
24C
100
AcDbEntity
  8
0
100
AcDbLine
 62
7
  6
CONTINUOUS
 10
113.821071214
 20
166.3592386621
 11
113.821071214
 21
162.2792386621
  0
LINE
  5
24D
100
AcDbEntity
  8
0
100
AcDbLine
 62
7
  6
CONTINUOUS
 10
117.391071214
 20
180.9792386621
 11
117.391071214
 21
180.4792386621
  0
LINE
  5
24E
100
AcDbEntity
  8
0
100
AcDbLine
 62
7
  6
CONTINUOUS
 10
117.971071214
 20
162.2792386621
 11
117.971071214
 21
166.3592386621
  0
LINE
  5
24F
100
AcDbEntity
  8
0
100
AcDbLine
 62
7
  6
CONTINUOUS
 10
261.0834048698
 20
188.3561669698
 11
281.0740730504
 21
189.8664509158
  0
LINE
  5
250
100
AcDbEntity
  8
0
100
AcDbLine
 62
7
  6
CONTINUOUS
 10
217.8936879433
 20
180.1766428596
 11
212.1913673635
 21
180.1268799246
  0
LINE
  5
251
100
AcDbEntity
  8
0
100
AcDbLine
 62
7
  6
CONTINUOUS
 10
85.191071214
 20
180.4538386621
 11
210.191071214
 21
180.4538386621
  0
LINE
  5
252
100
AcDbEntity
  8
0
100
AcDbLine
 62
7
  6
CONTINUOUS
 10
210.191071214
 20
180.4792386621
 11
218.191071214
 21
180.4792386621
  0
LINE
  5
253
100
AcDbEntity
  8
0
100
AcDbLine
 62
7
  6
CONTINUOUS
 10
124.091071214
 20
180.9792386621
 11
117.391071214
 21
180.9792386621
  0
LINE
  5
254
100
AcDbEntity
  8
0
100
AcDbLine
 62
7
  6
CONTINUOUS
 10
209.491071214
 20
182.4792386621
 11
218.191070007
 21
182.4792386621
  0
LINE
  5
255
100
AcDbEntity
  8
0
100
AcDbLine
 62
7
  6
CONTINUOUS
 10
216.6910676526
 20
182.791442317
 11
218.191070007
 21
182.791442317
  0
LINE
  5
256
100
AcDbEntity
  8
0
100
AcDbLine
 62
7
  6
CONTINUOUS
 10
124.091071214
 20
207.7792386621
 11
124.091071214
 21
180.9792386621
  0
LINE
  5
257
100
AcDbEntity
  8
0
100
AcDbLine
 62
7
  6
CONTINUOUS
 10
124.591071214
 20
207.2792386621
 11
124.591071214
 21
180.4792386621
  0
LINE
  5
258
100
AcDbEntity
  8
0
100
AcDbLine
 62
7
  6
CONTINUOUS
 10
85.191071214
 20
184.9792386621
 11
93.891071214
 21
184.9792386621
  0
LINE
  5
259
100
AcDbEntity
  8
0
100
AcDbLine
 62
7
  6
CONTINUOUS
 10
83.191071214
 20
190.1792386621
 11
85.191071214
 21
190.1792386621
  0
LINE
  5
25A
100
AcDbEntity
  8
0
100
AcDbLine
 62
7
  6
CONTINUOUS
 10
85.191071214
 20
191.1792386621
 11
83.191071214
 21
191.1792386621
  0
LINE
  5
25B
100
AcDbEntity
  8
0
100
AcDbLine
 62
7
  6
CONTINUOUS
 10
83.391071214
 20
192.0792386621
 11
85.191071214
 21
192.0792386621
  0
LINE
  5
25C
100
AcDbEntity
  8
0
100
AcDbLine
 62
7
  6
CONTINUOUS
 10
85.191071214
 20
192.3792386621
 11
83.391071214
 21
192.3792386621
  0
LINE
  5
25D
100
AcDbEntity
  8
0
100
AcDbLine
 62
7
  6
CONTINUOUS
 10
281.0740729811
 20
176.1060254348
 11
261.0834048929
 21
177.6163084425
  0
LINE
  5
25E
100
AcDbEntity
  8
0
100
AcDbLine
 62
7
  6
CONTINUOUS
 10
168.062740241
 20
157.3677666693
 11
171.8583705131
 21
152.4229921738
  0
LINE
  5
25F
100
AcDbEntity
  8
0
100
AcDbLine
 62
7
  6
CONTINUOUS
 10
132.391071214
 20
250.7792386621
 11
132.391071214
 21
207.7792386621
  0
LINE
  5
260
100
AcDbEntity
  8
0
100
AcDbLine
 62
7
  6
CONTINUOUS
 10
132.891071214
 20
244.1483098916
 11
132.891071214
 21
207.2792386621
  0
LINE
  5
261
100
AcDbEntity
  8
0
100
AcDbLine
 62
7
  6
CONTINUOUS
 10
137.292855653
 20
157.7192321051
 11
137.2613047706
 21
151.4857251856
  0
LINE
  5
262
100
AcDbEntity
  8
0
100
AcDbLine
 62
7
  6
CONTINUOUS
 10
169.7609419483
 20
250.1093646581
 11
166.7410691961
 21
248.365838664
  0
LINE
  5
263
100
AcDbEntity
  8
0
100
AcDbLine
 62
7
  6
CONTINUOUS
 10
261.0863455342
 20
202.2180962937
 11
281.7166336561
 21
203.6544089878
  0
LINE
  5
264
100
AcDbEntity
  8
0
100
AcDbLine
 62
7
  6
CONTINUOUS
 10
76.891071214
 20
197.9192386621
 11
83.391071214
 21
197.9192386621
  0
LINE
  5
265
100
AcDbEntity
  8
0
100
AcDbLine
 62
7
  6
CONTINUOUS
 10
83.391071214
 20
201.1192386621
 11
76.891071214
 21
201.1192386621
  0
LINE
  5
266
100
AcDbEntity
  8
0
100
AcDbLine
 62
7
  6
CONTINUOUS
 10
132.891071214
 20
207.2792386621
 11
124.591071214
 21
207.2792386621
  0
LINE
  5
267
100
AcDbEntity
  8
0
100
AcDbLine
 62
7
  6
CONTINUOUS
 10
132.391071214
 20
207.7792386621
 11
124.091071214
 21
207.7792386621
  0
LINE
  5
268
100
AcDbEntity
  8
0
100
AcDbLine
 62
7
  6
CONTINUOUS
 10
281.7165947803
 20
195.6380327082
 11
261.0863698315
 21
197.0733311914
  0
LINE
  5
269
100
AcDbEntity
  8
0
100
AcDbLine
 62
7
  6
CONTINUOUS
 10
266.2145513832
 20
186.6794661938
 11
275.6722268788
 21
185.1876823163
  0
LINE
  5
26A
100
AcDbEntity
  8
0
100
AcDbLine
 62
7
  6
CONTINUOUS
 10
276.0442302303
 20
187.5461251415
 11
267.7267286195
 21
188.8580664119
  0
LINE
  5
26B
100
AcDbEntity
  8
0
100
AcDbLine
 62
7
  6
CONTINUOUS
 10
166.132134008
 20
162.2792386621
 11
167.7760122961
 21
157.8848247263
  0
LINE
  5
26C
100
AcDbEntity
  8
0
100
AcDbLine
 62
7
  6
CONTINUOUS
 10
138.6207401872
 20
162.2792386621
 11
137.3832046605
 21
158.3035257005
  0
LINE
  5
26D
100
AcDbEntity
  8
0
100
AcDbLine
 62
7
  6
CONTINUOUS
 10
266.2671336913
 20
219.6030967682
 11
278.249524359
 21
220.1262592051
  0
LINE
  5
26E
100
AcDbEntity
  8
0
100
AcDbLine
 62
7
  6
CONTINUOUS
 10
76.891071214
 20
216.2192386621
 11
83.391071214
 21
216.2192386621
  0
LINE
  5
26F
100
AcDbEntity
  8
0
100
AcDbLine
 62
7
  6
CONTINUOUS
 10
83.391071214
 20
219.4192386621
 11
76.891071214
 21
219.4192386621
  0
LINE
  5
270
100
AcDbEntity
  8
0
100
AcDbLine
 62
7
  6
CONTINUOUS
 10
278.2495259284
 20
212.4862159994
 11
266.2671336913
 21
213.0093785048
  0
LINE
  5
271
100
AcDbEntity
  8
0
100
AcDbLine
 62
7
  6
CONTINUOUS
 10
174.3684178079
 20
153.5713055158
 11
171.9207281898
 21
162.2792386621
  0
LINE
  5
272
100
AcDbEntity
  8
0
100
AcDbLine
 62
7
  6
CONTINUOUS
 10
166.5910693024
 20
247.0560304809
 11
166.5910693024
 21
248.1060311043
  0
LINE
  5
273
100
AcDbEntity
  8
0
100
AcDbLine
 62
7
  6
CONTINUOUS
 10
169.1910722198
 20
244.1483187881
 11
169.1910722198
 21
245.079237075
  0
LINE
  5
274
100
AcDbEntity
  8
0
100
AcDbLine
 62
7
  6
CONTINUOUS
 10
139.948440569
 20
150.8546450366
 11
144.5874869783
 21
162.2792386621
  0
LINE
  5
275
100
AcDbEntity
  8
0
100
AcDbLine
 62
7
  6
CONTINUOUS
 10
261.0863454756
 20
235.5410956709
 11
281.7166337498
 21
236.9774108094
  0
LINE
  5
276
100
AcDbEntity
  8
0
100
AcDbLine
 62
7
  6
CONTINUOUS
 10
172.181071214
 20
166.3592386621
 11
172.181071214
 21
162.2792386621
  0
LINE
  5
277
100
AcDbEntity
  8
0
100
AcDbLine
 62
7
  6
CONTINUOUS
 10
176.331071214
 20
162.2792386621
 11
176.331071214
 21
166.3592386621
  0
LINE
  5
278
100
AcDbEntity
  8
0
100
AcDbLine
 62
7
  6
CONTINUOUS
 10
217.8936880437
 20
237.8936420634
 11
216.6913653304
 21
237.8831492474
  0
LINE
  5
279
100
AcDbEntity
  8
0
100
AcDbLine
 62
7
  6
CONTINUOUS
 10
83.391071214
 20
237.5792386621
 11
85.191071214
 21
237.5792386621
  0
LINE
  5
27A
100
AcDbEntity
  8
0
100
AcDbLine
 62
7
  6
CONTINUOUS
 10
218.1907245931
 20
238.1792386621
 11
215.191071214
 21
238.1792386621
  0
LINE
  5
27B
100
AcDbEntity
  8
0
100
AcDbLine
 62
7
  6
CONTINUOUS
 10
88.191071214
 20
238.1792386621
 11
85.191071214
 21
238.1792386621
  0
LINE
  5
27C
100
AcDbEntity
  8
0
100
AcDbLine
 62
7
  6
CONTINUOUS
 10
281.7165947892
 20
228.9580321715
 11
261.0863698259
 21
230.3933308874
  0
LINE
  5
27D
100
AcDbEntity
  8
0
100
AcDbLine
 62
7
  6
CONTINUOUS
 10
261.0834048467
 20
254.9991656858
 11
281.0740731197
 21
256.5094505701
  0
LINE
  5
27E
100
AcDbEntity
  8
0
100
AcDbLine
 62
7
  6
CONTINUOUS
 10
85.191071214
 20
240.5792386621
 11
83.391071214
 21
240.5792386621
  0
LINE
  5
27F
100
AcDbEntity
  8
0
100
AcDbLine
 62
7
  6
CONTINUOUS
 10
88.191071214
 20
241.8792386621
 11
93.891071214
 21
241.8792386621
  0
LINE
  5
280
100
AcDbEntity
  8
0
100
AcDbLine
 62
7
  6
CONTINUOUS
 10
209.491071214
 20
241.8792386621
 11
215.191071214
 21
241.8792386621
  0
LINE
  5
281
100
AcDbEntity
  8
0
100
AcDbLine
 62
7
  6
CONTINUOUS
 10
132.891071214
 20
243.7792386621
 11
132.391071214
 21
243.7792386621
  0
LINE
  5
282
100
AcDbEntity
  8
0
100
AcDbLine
 62
7
  6
CONTINUOUS
 10
85.191071214
 20
243.9792386621
 11
87.491071214
 21
243.9792386621
  0
LINE
  5
283
100
AcDbEntity
  8
0
100
AcDbLine
 62
7
  6
CONTINUOUS
 10
215.891071214
 20
243.9792386621
 11
218.191070007
 21
243.9792386621
  0
LINE
  5
284
100
AcDbEntity
  8
0
100
AcDbLine
 62
7
  6
CONTINUOUS
 10
132.891071214
 20
244.1483098916
 11
169.1910722198
 21
244.1483187881
  0
LINE
  5
285
100
AcDbEntity
  8
0
100
AcDbLine
 62
7
  6
CONTINUOUS
 10
90.6719358763
 20
244.1792386621
 11
81.031071214
 21
244.1792386621
  0
LINE
  5
286
100
AcDbEntity
  8
0
100
AcDbLine
 62
7
  6
CONTINUOUS
 10
85.141071214
 20
247.9892386621
 11
87.491071214
 21
247.9892386621
  0
LINE
  5
287
100
AcDbEntity
  8
0
100
AcDbLine
 62
7
  6
CONTINUOUS
 10
218.191070007
 20
248.0792386621
 11
215.891071214
 21
248.0792386621
  0
LINE
  5
288
100
AcDbEntity
  8
0
100
AcDbLine
 62
7
  6
CONTINUOUS
 10
87.491071214
 20
248.0792386621
 11
85.191071214
 21
248.0792386621
  0
LINE
  5
289
100
AcDbEntity
  8
0
100
AcDbLine
 62
7
  6
CONTINUOUS
 10
78.031071214
 20
248.7792386621
 11
85.141071214
 21
248.7792386621
  0
LINE
  5
28A
100
AcDbEntity
  8
0
100
AcDbLine
 62
7
  6
CONTINUOUS
 10
276.5426430205
 20
178.3398129049
 11
279.5168686455
 21
176.6226430363
  0
LINE
  5
28B
100
AcDbEntity
  8
0
100
AcDbLine
 62
7
  6
CONTINUOUS
 10
280.710668454
 20
178.6903666809
 11
277.7364435243
 21
180.407536148
  0
LINE
  5
28C
100
AcDbEntity
  8
0
100
AcDbLine
 62
7
  6
CONTINUOUS
 10
260.6210722493
 20
179.7149006176
 11
263.7822757922
 21
177.5679035291
  0
LINE
  5
28D
100
AcDbEntity
  8
0
100
AcDbLine
 62
7
  6
CONTINUOUS
 10
265.1237276593
 20
179.5430354087
 11
260.6210722493
 21
182.6011074133
  0
LINE
  5
28E
100
AcDbEntity
  8
0
100
AcDbLine
 62
7
  6
CONTINUOUS
 10
166.7195714101
 20
246.8098002618
 11
169.1910722198
 21
245.079237075
  0
LINE
  5
28F
100
AcDbEntity
  8
0
100
AcDbLine
 62
7
  6
CONTINUOUS
 10
218.191071214
 20
250.7792386621
 11
172.2608911742
 21
250.7792386621
  0
LINE
  5
290
100
AcDbEntity
  8
0
100
AcDbLine
 62
7
  6
CONTINUOUS
 10
132.391071214
 20
250.7792386621
 11
85.191071214
 21
250.7792386621
  0
LINE
  5
291
100
AcDbEntity
  8
0
100
AcDbLine
 62
7
  6
CONTINUOUS
 10
45.031071214
 20
250.7792386621
 11
78.031071214
 21
250.7792386621
  0
LINE
  5
292
100
AcDbEntity
  8
0
100
AcDbLine
 62
7
  6
CONTINUOUS
 10
45.031071214
 20
252.7592386621
 11
112.291071214
 21
252.7592386621
  0
LINE
  5
293
100
AcDbEntity
  8
0
100
AcDbLine
 62
7
  6
CONTINUOUS
 10
75.491071214
 20
254.7392386621
 11
61.141071214
 21
254.7392386621
  0
LINE
  5
294
100
AcDbEntity
  8
0
100
AcDbLine
 62
7
  6
CONTINUOUS
 10
57.6100387214
 20
254.7642386621
 11
43.8810504591
 21
254.7642386621
  0
LINE
  5
295
100
AcDbEntity
  8
0
100
AcDbLine
 62
7
  6
CONTINUOUS
 10
42.7453691151
 20
258.5994386621
 11
38.769671214
 21
258.5994386621
  0
LINE
  5
296
100
AcDbEntity
  8
0
100
AcDbLine
 62
7
  6
CONTINUOUS
 10
281.0740731197
 20
242.7490250734
 11
261.0834048467
 21
244.2593099577
  0
LINE
  5
297
100
AcDbEntity
  8
0
100
AcDbLine
 62
7
  6
CONTINUOUS
 10
202.4610689747
 20
252.2792386621
 11
202.4610689747
 21
273.4892386621
  0
LINE
  5
298
100
AcDbEntity
  8
0
100
AcDbLine
 62
7
  6
CONTINUOUS
 10
38.769671214
 20
262.0792386621
 11
42.7453691151
 21
262.0792386621
  0
LINE
  5
299
100
AcDbEntity
  8
0
100
AcDbLine
 62
7
  6
CONTINUOUS
 10
43.8810504591
 20
268.0592386621
 11
57.6100387214
 21
268.0592386621
  0
LINE
  5
29A
100
AcDbEntity
  8
0
100
AcDbLine
 62
7
  6
CONTINUOUS
 10
269.4885214451
 20
265.8343956538
 11
258.621071214
 21
265.9292343204
  0
LINE
  5
29B
100
AcDbEntity
  8
0
100
AcDbLine
 62
7
  6
CONTINUOUS
 10
209.491071214
 20
241.8792386621
 11
209.491071214
 21
182.4792386621
  0
LINE
  5
29C
100
AcDbEntity
  8
0
100
AcDbLine
 62
7
  6
CONTINUOUS
 10
209.891071214
 20
180.4538386621
 11
209.891071214
 21
170.9792386621
  0
LINE
  5
29D
100
AcDbEntity
  8
0
100
AcDbLine
 62
7
  6
CONTINUOUS
 10
210.191071214
 20
170.9792386621
 11
210.191071214
 21
180.4538386621
  0
LINE
  5
29E
100
AcDbEntity
  8
0
100
AcDbLine
 62
7
  6
CONTINUOUS
 10
210.691069709
 20
178.6268202105
 11
210.691069709
 21
170.7892372668
  0
LINE
  5
29F
100
AcDbEntity
  8
0
100
AcDbLine
 62
7
  6
CONTINUOUS
 10
211.091071214
 20
243.2792386621
 11
211.091071214
 21
241.8792386621
  0
LINE
  5
2A0
100
AcDbEntity
  8
0
100
AcDbLine
 62
7
  6
CONTINUOUS
 10
214.391071214
 20
170.7892372668
 11
214.391071214
 21
166.3592386621
  0
LINE
  5
2A1
100
AcDbEntity
  8
0
100
AcDbLine
 62
7
  6
CONTINUOUS
 10
214.691071214
 20
166.3592386621
 11
214.691071214
 21
170.7892372668
  0
LINE
  5
2A2
100
AcDbEntity
  8
0
100
AcDbLine
 62
7
  6
CONTINUOUS
 10
215.1910676526
 20
236.3830895286
 11
215.1910676526
 21
184.291442317
  0
LINE
  5
2A3
100
AcDbEntity
  8
0
100
AcDbLine
 62
7
  6
CONTINUOUS
 10
215.191071214
 20
238.1792386621
 11
215.191071214
 21
243.2792386621
  0
LINE
  5
2A4
100
AcDbEntity
  8
0
100
AcDbLine
 62
7
  6
CONTINUOUS
 10
84.4064178875
 20
269.5692386621
 11
75.491071214
 21
269.5692386621
  0
LINE
  5
2A5
100
AcDbEntity
  8
0
100
AcDbLine
 62
7
  6
CONTINUOUS
 10
60.6935541565
 20
270.0642386621
 11
57.2971368556
 21
270.0642386621
  0
LINE
  5
2A6
100
AcDbEntity
  8
0
100
AcDbLine
 62
7
  6
CONTINUOUS
 10
41.5953483603
 20
270.0642386621
 11
36.0773249103
 21
270.0642386621
  0
LINE
  5
2A7
100
AcDbEntity
  8
0
100
AcDbLine
 62
7
  6
CONTINUOUS
 10
85.4670780575
 20
271.0692386621
 11
84.0670066308
 21
271.0692386621
  0
LINE
  5
2A8
100
AcDbEntity
  8
0
100
AcDbLine
 62
7
  6
CONTINUOUS
 10
202.461071214
 20
271.4892386621
 11
246.461071214
 21
271.4892386621
  0
LINE
  5
2A9
100
AcDbEntity
  8
0
100
AcDbLine
 62
7
  6
CONTINUOUS
 10
36.0773250237
 20
272.0442386621
 11
55.4638814756
 21
272.0442386621
  0
LINE
  5
2AA
100
AcDbEntity
  8
0
100
AcDbLine
 62
7
  6
CONTINUOUS
 10
55.5163892924
 20
272.0442386621
 11
60.6935541565
 21
272.0442386621
  0
LINE
  5
2AB
100
AcDbEntity
  8
0
100
AcDbLine
 62
7
  6
CONTINUOUS
 10
246.461071214
 20
272.399422084
 11
277.461071214
 21
272.399422084
  0
LINE
  5
2AC
100
AcDbEntity
  8
0
100
AcDbLine
 62
7
  6
CONTINUOUS
 10
277.461071214
 20
273.4892386621
 11
202.461071214
 21
273.4892386621
  0
LINE
  5
2AD
100
AcDbEntity
  8
0
100
AcDbLine
 62
7
  6
CONTINUOUS
 10
219.3910679685
 20
265.6849223584
 11
258.621071214
 21
263.628965752
  0
LINE
  5
2AE
100
AcDbEntity
  8
0
100
AcDbLine
 62
7
  6
CONTINUOUS
 10
258.621071214
 20
265.9292341886
 11
219.3910679685
 21
267.9851947139
  0
LINE
  5
2AF
100
AcDbEntity
  8
0
100
AcDbLine
 62
7
  6
CONTINUOUS
 10
218.191070007
 20
182.791442317
 11
218.191070007
 21
182.4792386621
  0
LINE
  5
2B0
100
AcDbEntity
  8
0
100
AcDbLine
 62
7
  6
CONTINUOUS
 10
218.191070007
 20
170.7892372668
 11
218.191070007
 21
157.6492387265
  0
LINE
  5
2B1
100
AcDbEntity
  8
0
100
AcDbLine
 62
7
  6
CONTINUOUS
 10
218.191070007
 20
248.0792386621
 11
218.1910706105
 21
243.9792386621
  0
LINE
  5
2B2
100
AcDbEntity
  8
0
100
AcDbLine
 62
7
  6
CONTINUOUS
 10
219.3910679685
 20
267.9851947139
 11
219.3910679685
 21
265.6849223584
  0
LINE
  5
2B3
100
AcDbEntity
  8
0
100
AcDbLine
 62
7
  6
CONTINUOUS
 10
278.9900442351
 20
220.3597440759
 11
281.7670198643
 21
222.1288712446
  0
LINE
  5
2B4
100
AcDbEntity
  8
0
100
AcDbLine
 62
7
  6
CONTINUOUS
 10
67.621071214
 20
282.5092386621
 11
82.101071214
 21
283.1996968878
  0
LINE
  5
2B5
100
AcDbEntity
  8
0
100
AcDbLine
 62
7
  6
CONTINUOUS
 10
41.716071214
 20
277.9542386621
 11
48.066071214
 21
277.9542386621
  0
LINE
  5
2B6
100
AcDbEntity
  8
0
100
AcDbLine
 62
7
  6
CONTINUOUS
 10
84.0670066308
 20
278.2292386621
 11
85.4670780575
 21
278.2292386621
  0
LINE
  5
2B7
100
AcDbEntity
  8
0
100
AcDbLine
 62
7
  6
CONTINUOUS
 10
67.621071214
 20
279.7292386621
 11
84.4064178875
 21
279.7292386621
  0
LINE
  5
2B8
100
AcDbEntity
  8
0
100
AcDbLine
 62
7
  6
CONTINUOUS
 10
42.5668099
 20
281.1292386621
 11
47.215332528
 21
281.1292386621
  0
LINE
  5
2B9
100
AcDbEntity
  8
0
100
AcDbLine
 62
7
  6
CONTINUOUS
 10
82.101071214
 20
287.7788389974
 11
62.701071214
 21
289.1592386621
  0
LINE
  5
2BA
100
AcDbEntity
  8
0
100
AcDbLine
 62
7
  6
CONTINUOUS
 10
281.1976708551
 20
263.9810412564
 11
269.7120316037
 21
265.8156753947
  0
LINE
  5
2BB
100
AcDbEntity
  8
0
100
AcDbLine
 62
7
  6
CONTINUOUS
 10
281.7670198643
 20
210.4836049598
 11
278.9900458046
 21
212.2527311286
  0
LINE
  5
2BC
100
AcDbEntity
  8
0
100
AcDbLine
 62
7
  6
CONTINUOUS
 10
62.701071214
 20
289.1592386621
 11
61.141071214
 21
289.1592386621
  0
LINE
  5
2BD
100
AcDbEntity
  8
0
100
AcDbLine
 62
7
  6
CONTINUOUS
 10
263.7822757922
 20
188.4105737951
 11
260.6210722493
 21
186.2635767067
  0
LINE
  5
2BE
100
AcDbEntity
  8
0
100
AcDbLine
 62
7
  6
CONTINUOUS
 10
246.461071214
 20
273.4892386621
 11
246.461071214
 21
266.5665137685
  0
LINE
  5
2BF
100
AcDbEntity
  8
0
100
AcDbLine
 62
7
  6
CONTINUOUS
 10
260.6210722493
 20
183.3773699109
 11
265.1237276593
 21
186.4354419155
  0
LINE
  5
2C0
100
AcDbEntity
  8
0
100
AcDbLine
 62
7
  6
CONTINUOUS
 10
279.5168686455
 20
189.355834288
 11
276.5426430205
 21
187.6386644194
  0
LINE
  5
2C1
100
AcDbEntity
  8
0
100
AcDbLine
 62
7
  6
CONTINUOUS
 10
277.7364435243
 20
185.5709411762
 11
280.710668454
 21
187.2881106434
  0
LINE
  5
2C2
100
AcDbEntity
  8
0
100
AcDbLine
 62
7
  6
CONTINUOUS
 10
280.710668454
 20
187.2881106434
 11
279.5168686455
 21
189.355834288
  0
LINE
  5
2C3
100
AcDbEntity
  8
0
100
AcDbLine
 62
7
  6
CONTINUOUS
 10
258.6210681962
 20
175.1827730184
 11
258.621071214
 21
265.9292341886
  0
LINE
  5
2C4
100
AcDbEntity
  8
0
100
AcDbLine
 62
7
  6
CONTINUOUS
 10
260.6210722493
 20
178.1148875939
 11
260.6210722493
 21
187.8575878201
  0
LINE
  5
2C5
100
AcDbEntity
  8
0
100
AcDbLine
 62
7
  6
CONTINUOUS
 10
260.6210722493
 20
197.5721254798
 11
260.6210722493
 21
201.7193036962
  0
LINE
  5
2C6
100
AcDbEntity
  8
0
100
AcDbLine
 62
7
  6
CONTINUOUS
 10
260.6210722493
 20
230.8921251755
 11
260.6210722493
 21
235.0423030775
  0
LINE
  5
2C7
100
AcDbEntity
  8
0
100
AcDbLine
 62
7
  6
CONTINUOUS
 10
260.6210722493
 20
244.7578891056
 11
260.6210722493
 21
254.5005865378
  0
LINE
  5
2C8
100
AcDbEntity
  8
0
100
AcDbLine
 62
7
  6
CONTINUOUS
 10
277.461071214
 20
273.4892386621
 11
277.461071214
 21
264.5778990466
  0
LINE
  5
2C9
100
AcDbEntity
  8
0
100
AcDbLine
 62
7
  6
CONTINUOUS
 10
282.4610709118
 20
169.662172122
 11
282.4610709118
 21
174.6102879804
  0
LINE
  5
2CA
100
AcDbEntity
  8
0
100
AcDbLine
 62
7
  6
CONTINUOUS
 10
282.4610709118
 20
191.3621883649
 11
282.4610709118
 21
194.8399618467
  0
LINE
  5
2CB
100
AcDbEntity
  8
0
100
AcDbLine
 62
7
  6
CONTINUOUS
 10
282.4610709118
 20
204.4524771437
 11
282.4610709118
 21
209.218517498
  0
LINE
  5
2CC
100
AcDbEntity
  8
0
100
AcDbLine
 62
7
  6
CONTINUOUS
 10
282.4610709118
 20
223.3939587064
 11
282.4610709118
 21
228.1599613106
  0
LINE
  5
2CD
100
AcDbEntity
  8
0
100
AcDbLine
 62
7
  6
CONTINUOUS
 10
282.4610709118
 20
237.7754789587
 11
282.4610709118
 21
241.2532876295
  0
LINE
  5
2CE
100
AcDbEntity
  8
0
100
AcDbLine
 62
7
  6
CONTINUOUS
 10
282.4610709118
 20
258.0051880139
 11
282.4610709118
 21
262.4998186307
  0
LINE
  5
2CF
100
AcDbEntity
  8
0
100
AcDbLine
 62
7
  6
CONTINUOUS
 10
279.5168686455
 20
176.6226430363
 11
280.710668454
 21
178.6903666809
  0
ARC
  5
2D0
100
AcDbEntity
  8
0
100
AcDbCircle
 62
7
  6
CONTINUOUS
 10
153.1910712086
 20
202.479238662
 40
53.9945630308
100
AcDbArc
 50
253.4756164925
 51
254.7589053848
  0
ARC
  5
2D1
100
AcDbEntity
  8
0
100
AcDbCircle
 62
7
  6
CONTINUOUS
 10
153.1910712098
 20
202.4792386588
 40
53.9945630308
100
AcDbArc
 50
291.2756164925
 51
292.5589053848
  0
ARC
  5
2D2
100
AcDbEntity
  8
0
100
AcDbCircle
 62
7
  6
CONTINUOUS
 10
139.2928300347
 20
157.7091092393
 40
2.0
100
AcDbArc
 50
162.7100001043
 51
179.7100000181
  0
ARC
  5
2D3
100
AcDbEntity
  8
0
100
AcDbCircle
 62
7
  6
CONTINUOUS
 10
139.2072176642
 20
151.1556244471
 40
0.8
100
AcDbArc
 50
254.7589054028
 51
337.9000000032
  0
ARC
  5
2D4
100
AcDbEntity
  8
0
100
AcDbCircle
 62
7
  6
CONTINUOUS
 10
138.0612945233
 20
151.4816760392
 40
0.8
100
AcDbArc
 50
179.7100000119
 51
253.4756165455
  0
ARC
  5
2D5
100
AcDbEntity
  8
0
100
AcDbCircle
 62
7
  6
CONTINUOUS
 10
52.4993117976
 20
268.4621409313
 40
5.0606267006
100
AcDbArc
 50
18.3319935242
 51
21.2935297304
  0
ARC
  5
2D6
100
AcDbEntity
  8
0
100
AcDbCircle
 62
7
  6
CONTINUOUS
 10
87.491071214
 20
243.2792386621
 40
4.8
100
AcDbArc
 50
0.0
 51
90.0
  0
ARC
  5
2D7
100
AcDbEntity
  8
0
100
AcDbCircle
 62
7
  6
CONTINUOUS
 10
87.491071214
 20
243.2892386621
 40
4.7
100
AcDbArc
 50
30.62346134
 51
90.0
  0
ARC
  5
2D8
100
AcDbEntity
  8
0
100
AcDbCircle
 62
7
  6
CONTINUOUS
 10
81.031071214
 20
247.1792386621
 40
3.0
100
AcDbArc
 50
180.0
 51
270.0
  0
ARC
  5
2D9
100
AcDbEntity
  8
0
100
AcDbCircle
 62
7
  6
CONTINUOUS
 10
55.3241320256
 20
270.7370572309
 40
1.3071814472
100
AcDbArc
 50
84.9035253367
 51
89.9910321999
  0
ARC
  5
2DA
100
AcDbEntity
  8
0
100
AcDbCircle
 62
7
  6
CONTINUOUS
 10
90.6719358763
 20
245.1792386621
 40
1.0
100
AcDbArc
 50
270.0
 51
30.7178525466
  0
ARC
  5
2DB
100
AcDbEntity
  8
0
100
AcDbCircle
 62
7
  6
CONTINUOUS
 10
87.491071214
 20
243.2792386621
 40
0.7
100
AcDbArc
 50
0.0
 51
90.0
  0
ARC
  5
2DC
100
AcDbEntity
  8
0
100
AcDbCircle
 62
7
  6
CONTINUOUS
 10
166.8910693024
 20
248.1060311043
 40
0.3
100
AcDbArc
 50
120.0000234453
 51
180.0
  0
ARC
  5
2DD
100
AcDbEntity
  8
0
100
AcDbCircle
 62
7
  6
CONTINUOUS
 10
166.891057871
 20
247.0559415687
 40
0.2999885818
100
AcDbArc
 50
179.9830183666
 51
235.1351027246
  0
ARC
  5
2DE
100
AcDbEntity
  8
0
100
AcDbCircle
 62
7
  6
CONTINUOUS
 10
265.9777257709
 20
185.1780290059
 40
3.9076011085
100
AcDbArc
 50
118.4406411448
 51
124.1832015163
  0
ARC
  5
2DF
100
AcDbEntity
  8
0
100
AcDbCircle
 62
7
  6
CONTINUOUS
 10
265.9777257709
 20
180.8004483184
 40
3.9076011085
100
AcDbArc
 50
235.8167984837
 51
241.7877984757
  0
ARC
  5
2E0
100
AcDbEntity
  8
0
100
AcDbCircle
 62
7
  6
CONTINUOUS
 10
276.1626430365
 20
188.2968437355
 40
3.1476011085
100
AcDbArc
 50
261.0364366231
 51
299.9999986043
  0
ARC
  5
2E1
100
AcDbEntity
  8
0
100
AcDbCircle
 62
7
  6
CONTINUOUS
 10
276.1626430365
 20
177.6816335887
 40
3.1476011085
100
AcDbArc
 50
60.0000013957
 51
98.9635633769
  0
ARC
  5
2E2
100
AcDbEntity
  8
0
100
AcDbCircle
 62
7
  6
CONTINUOUS
 10
169.6492343992
 20
158.5855664418
 40
2.0
100
AcDbArc
 50
200.5100001043
 51
217.5100000181
  0
ARC
  5
2E3
100
AcDbEntity
  8
0
100
AcDbCircle
 62
7
  6
CONTINUOUS
 10
265.9777257709
 20
185.1780290059
 40
1.52
100
AcDbArc
 50
81.036436623
 51
124.1832015162
  0
ARC
  5
2E4
100
AcDbEntity
  8
0
100
AcDbCircle
 62
7
  6
CONTINUOUS
 10
265.9777257709
 20
180.8004483184
 40
1.52
100
AcDbArc
 50
235.8167984838
 51
278.963563377
  0
ARC
  5
2E5
100
AcDbEntity
  8
0
100
AcDbCircle
 62
7
  6
CONTINUOUS
 10
216.6910676526
 20
184.291442317
 40
1.5
100
AcDbArc
 50
180.0
 51
270.0
  0
ARC
  5
2E6
100
AcDbEntity
  8
0
100
AcDbCircle
 62
7
  6
CONTINUOUS
 10
212.191069709
 20
178.6268202105
 40
1.5
100
AcDbArc
 50
90.4999953502
 51
180.0
  0
ARC
  5
2E7
100
AcDbEntity
  8
0
100
AcDbCircle
 62
7
  6
CONTINUOUS
 10
280.9610709118
 20
174.6102879804
 40
1.5
100
AcDbArc
 50
0.0
 51
85.6795456508
  0
ARC
  5
2E8
100
AcDbEntity
  8
0
100
AcDbCircle
 62
7
  6
CONTINUOUS
 10
280.9610709118
 20
191.3621883649
 40
1.5
100
AcDbArc
 50
274.3204570034
 51
360.0
  0
ARC
  5
2E9
100
AcDbEntity
  8
0
100
AcDbCircle
 62
7
  6
CONTINUOUS
 10
280.9610709118
 20
209.218517498
 40
1.5
100
AcDbArc
 50
0.0
 51
57.5000208344
  0
ARC
  5
2EA
100
AcDbEntity
  8
0
100
AcDbCircle
 62
7
  6
CONTINUOUS
 10
281.6610709118
 20
169.662172122
 40
0.8
100
AcDbArc
 50
282.4241422354
 51
360.0
  0
ARC
  5
2EB
100
AcDbEntity
  8
0
100
AcDbCircle
 62
7
  6
CONTINUOUS
 10
281.6610709118
 20
194.8399618467
 40
0.8
100
AcDbArc
 50
0.0
 51
86.0201963302
  0
ARC
  5
2EC
100
AcDbEntity
  8
0
100
AcDbCircle
 62
7
  6
CONTINUOUS
 10
281.6610709118
 20
204.4524771437
 40
0.8
100
AcDbArc
 50
273.9825946774
 51
360.0
  0
ARC
  5
2ED
100
AcDbEntity
  8
0
100
AcDbCircle
 62
7
  6
CONTINUOUS
 10
173.5982644107
 20
153.354825159
 40
0.8
100
AcDbArc
 50
292.5589054028
 51
15.7000000033
  0
ARC
  5
2EE
100
AcDbEntity
  8
0
100
AcDbCircle
 62
7
  6
CONTINUOUS
 10
172.4929681764
 20
152.9101120828
 40
0.8
100
AcDbArc
 50
217.5100000119
 51
291.2756165455
  0
ARC
  5
2EF
100
AcDbEntity
  8
0
100
AcDbCircle
 62
7
  6
CONTINUOUS
 10
276.1626430365
 20
188.2968437355
 40
0.76
100
AcDbArc
 50
261.0364366231
 51
299.9999986044
  0
ARC
  5
2F0
100
AcDbEntity
  8
0
100
AcDbCircle
 62
7
  6
CONTINUOUS
 10
276.1626430365
 20
177.6816335887
 40
0.76
100
AcDbArc
 50
60.0000013956
 51
98.9635633769
  0
ARC
  5
2F1
100
AcDbEntity
  8
0
100
AcDbCircle
 62
7
  6
CONTINUOUS
 10
261.1210722493
 20
178.1148875939
 40
0.5
100
AcDbArc
 50
180.0
 51
265.6795456508
  0
ARC
  5
2F2
100
AcDbEntity
  8
0
100
AcDbCircle
 62
7
  6
CONTINUOUS
 10
261.1210722493
 20
187.8575878201
 40
0.5
100
AcDbArc
 50
94.3204570034
 51
180.0
  0
ARC
  5
2F3
100
AcDbEntity
  8
0
100
AcDbCircle
 62
7
  6
CONTINUOUS
 10
261.1210722493
 20
197.5721254798
 40
0.5
100
AcDbArc
 50
180.0
 51
266.0201963302
  0
ARC
  5
2F4
100
AcDbEntity
  8
0
100
AcDbCircle
 62
7
  6
CONTINUOUS
 10
261.1210722493
 20
201.7193036962
 40
0.5
100
AcDbArc
 50
93.9825946774
 51
180.0
  0
ARC
  5
2F5
100
AcDbEntity
  8
0
100
AcDbCircle
 62
7
  6
CONTINUOUS
 10
217.891070007
 20
180.4766314367
 40
0.3
100
AcDbArc
 50
270.4999953502
 51
360.0
  0
ARC
  5
2F6
100
AcDbEntity
  8
0
100
AcDbCircle
 62
7
  6
CONTINUOUS
 10
258.3210681962
 20
175.1827730184
 40
0.3
100
AcDbArc
 50
272.9999989018
 51
360.0
  0
ARC
  5
2F7
100
AcDbEntity
  8
0
100
AcDbCircle
 62
7
  6
CONTINUOUS
 10
172.2609437201
 20
245.7792386621
 40
5.0
100
AcDbArc
 50
90.0006021324
 51
120.0000234452
  0
ARC
  5
2F8
100
AcDbEntity
  8
0
100
AcDbCircle
 62
7
  6
CONTINUOUS
 10
215.891071214
 20
243.2792386621
 40
4.8
100
AcDbArc
 50
90.0
 51
180.0
  0
ARC
  5
2F9
100
AcDbEntity
  8
0
100
AcDbCircle
 62
7
  6
CONTINUOUS
 10
266.4110776592
 20
216.3062376365
 40
3.3
100
AcDbArc
 50
92.4999998189
 51
267.5000001811
  0
ARC
  5
2FA
100
AcDbEntity
  8
0
100
AcDbCircle
 62
7
  6
CONTINUOUS
 10
216.6910676526
 20
236.3830895286
 40
1.5
100
AcDbArc
 50
90.5000145172
 51
180.0
  0
ARC
  5
2FB
100
AcDbEntity
  8
0
100
AcDbCircle
 62
7
  6
CONTINUOUS
 10
203.9610689747
 20
252.2792386621
 40
1.5
100
AcDbArc
 50
180.0004263723
 51
270.0000000001
  0
ARC
  5
2FC
100
AcDbEntity
  8
0
100
AcDbCircle
 62
7
  6
CONTINUOUS
 10
278.1840968521
 20
210.9876436668
 40
1.5
100
AcDbArc
 50
57.5000208344
 51
87.5000001811
  0
ARC
  5
2FD
100
AcDbEntity
  8
0
100
AcDbCircle
 62
7
  6
CONTINUOUS
 10
278.1840952826
 20
221.6248315377
 40
1.5
100
AcDbArc
 50
272.4999998189
 51
302.4999791657
  0
ARC
  5
2FE
100
AcDbEntity
  8
0
100
AcDbCircle
 62
7
  6
CONTINUOUS
 10
280.9610709118
 20
223.3939587064
 40
1.5
100
AcDbArc
 50
302.4999791656
 51
360.0
  0
ARC
  5
2FF
100
AcDbEntity
  8
0
100
AcDbCircle
 62
7
  6
CONTINUOUS
 10
280.9610709118
 20
241.2532876295
 40
1.5
100
AcDbArc
 50
0.0
 51
85.6795403425
  0
ARC
  5
300
100
AcDbEntity
  8
0
100
AcDbCircle
 62
7
  6
CONTINUOUS
 10
280.9610709118
 20
258.0051880139
 40
1.5
100
AcDbArc
 50
274.3204596575
 51
360.0
  0
ARC
  5
301
100
AcDbEntity
  8
0
100
AcDbCircle
 62
7
  6
CONTINUOUS
 10
280.9610709118
 20
262.4998186307
 40
1.5
100
AcDbArc
 50
0.0
 51
80.9246470016
  0
ARC
  5
302
100
AcDbEntity
  8
0
100
AcDbCircle
 62
7
  6
CONTINUOUS
 10
269.4754316604
 20
264.334452769
 40
1.5
100
AcDbArc
 50
80.9246470017
 51
89.5000007103
  0
ARC
  5
303
100
AcDbEntity
  8
0
100
AcDbCircle
 62
7
  6
CONTINUOUS
 10
281.6610709118
 20
228.1599613106
 40
0.8
100
AcDbArc
 50
0.0
 51
86.0201956896
  0
ARC
  5
304
100
AcDbEntity
  8
0
100
AcDbCircle
 62
7
  6
CONTINUOUS
 10
281.6610709118
 20
237.7754789587
 40
0.8
100
AcDbArc
 50
273.9826014039
 51
360.0
  0
ARC
  5
305
100
AcDbEntity
  8
0
100
AcDbCircle
 62
7
  6
CONTINUOUS
 10
215.891071214
 20
243.2792386621
 40
0.7
100
AcDbArc
 50
90.0
 51
180.0
  0
ARC
  5
306
100
AcDbEntity
  8
0
100
AcDbCircle
 62
7
  6
CONTINUOUS
 10
261.1210722493
 20
230.8921251755
 40
0.5
100
AcDbArc
 50
180.0
 51
266.0201956895
  0
ARC
  5
307
100
AcDbEntity
  8
0
100
AcDbCircle
 62
7
  6
CONTINUOUS
 10
261.1210722493
 20
235.0423030775
 40
0.5
100
AcDbArc
 50
93.9826014039
 51
180.0
  0
ARC
  5
308
100
AcDbEntity
  8
0
100
AcDbCircle
 62
7
  6
CONTINUOUS
 10
261.1210722493
 20
244.7578891056
 40
0.5
100
AcDbArc
 50
180.0
 51
265.6795403425
  0
ARC
  5
309
100
AcDbEntity
  8
0
100
AcDbCircle
 62
7
  6
CONTINUOUS
 10
261.1210722493
 20
254.5005865378
 40
0.5
100
AcDbArc
 50
94.3204596575
 51
180.0
  0
ARC
  5
30A
100
AcDbEntity
  8
0
100
AcDbCircle
 62
7
  6
CONTINUOUS
 10
217.891070007
 20
238.1936306397
 40
0.3
100
AcDbArc
 50
270.5000145173
 51
357.250279352
  0
SPLINE
  5
30B
100
AcDbEntity
  8
0
100
AcDbSpline
 62
7
  6
CONTINUOUS
 70
0
 71
3
 72
11
 73
7
 74
0
 42
0.0000001
 43
0.0000001
 44
0.0000000001
 40
0.0
 40
0.0
 40
0.0
 40
0.0
 40
0.2094881561
 40
0.4446582876
 40
0.7120054673
 40
1.0
 40
1.0
 40
1.0
 40
1.0
 10
84.4064178786
 20
279.7292386621
 30
0.0
 10
84.5469807815
 20
279.7292386618
 30
0.0
 10
84.8488666445
 20
279.6379230569
 30
0.0
 10
85.1945518815
 20
279.288407129
 30
0.0
 10
85.4165380131
 20
278.7974472681
 30
0.0
 10
85.4670780591
 20
278.4224779582
 30
0.0
 10
85.4670780593
 20
278.2292386444
 30
0.0
  0
SPLINE
  5
30C
100
AcDbEntity
  8
0
100
AcDbSpline
 62
7
  6
CONTINUOUS
 70
0
 71
3
 72
11
 73
7
 74
0
 42
0.0000001
 43
0.0000001
 44
0.0000000001
 40
0.0
 40
0.0
 40
0.0
 40
0.0
 40
0.2879945328
 40
0.5553417124
 40
0.7905118438
 40
1.0
 40
1.0
 40
1.0
 40
1.0
 10
85.4670780593
 20
271.0692386748
 30
0.0
 10
85.4670780591
 20
270.875999361
 30
0.0
 10
85.4165380115
 20
270.5010300514
 30
0.0
 10
85.194551879
 20
270.0100701917
 30
0.0
 10
84.848866641
 20
269.6605542648
 30
0.0
 10
84.5469807778
 20
269.5692386625
 30
0.0
 10
84.406417875
 20
269.5692386621
 30
0.0
  0
SPLINE
  5
30D
100
AcDbEntity
  8
0
100
AcDbSpline
 62
7
  6
CONTINUOUS
 70
0
 71
3
 72
8
 73
4
 74
0
 42
0.0000001
 43
0.0000001
 44
0.0000000001
 40
0.0
 40
0.0
 40
0.0
 40
0.0
 40
1.0
 40
1.0
 40
1.0
 40
1.0
 10
55.4402528902
 20
272.0390707795
 30
0.0
 10
55.5390474488
 20
272.0302709516
 30
0.0
 10
55.6373542232
 20
272.0101158152
 30
0.0
 10
55.7319410026
 20
271.9802637977
 30
0.0
  0
SPLINE
  5
30E
100
AcDbEntity
  8
0
100
AcDbSpline
 62
7
  6
CONTINUOUS
 70
0
 71
3
 72
10
 73
6
 74
0
 42
0.0000001
 43
0.0000001
 44
0.0000000001
 40
0.0
 40
0.0
 40
0.0
 40
0.0
 40
0.4433939062
 40
0.7076536846
 40
1.0
 40
1.0
 40
1.0
 40
1.0
 10
55.7319410026
 20
271.9802637977
 30
0.0
 10
56.0560092429
 20
271.8779863881
 30
0.0
 10
56.5124704964
 20
271.5256284475
 30
0.0
 10
56.9495587623
 20
270.8969827134
 30
0.0
 10
57.1330262138
 20
270.5086239461
 30
0.0
 10
57.2144608628
 20
270.2998873489
 30
0.0
  0
SPLINE
  5
30F
100
AcDbEntity
  8
0
100
AcDbSpline
 62
7
  6
CONTINUOUS
 70
0
 71
3
 72
9
 73
5
 74
0
 42
0.0000001
 43
0.0000001
 44
0.0000000001
 40
0.0
 40
0.0
 40
0.0
 40
0.0
 40
0.2403517791
 40
1.0
 40
1.0
 40
1.0
 40
1.0
 10
57.3031116863
 20
270.0538221908
 30
0.0
 10
57.3541356518
 20
269.8999928813
 30
0.0
 10
57.5367878845
 20
269.250338061
 30
0.0
 10
57.6100387214
 20
268.5714740833
 30
0.0
 10
57.6100387214
 20
268.0592386621
 30
0.0
  0
SPLINE
  5
310
100
AcDbEntity
  8
0
100
AcDbSpline
 62
7
  6
CONTINUOUS
 70
0
 71
3
 72
13
 73
9
 74
0
 42
0.0000001
 43
0.0000001
 44
0.0000000001
 40
0.0
 40
0.0
 40
0.0
 40
0.0
 40
0.3069200269
 40
0.5836740867
 40
0.704565938
 40
0.8125470217
 40
0.90960921
 40
1.0
 40
1.0
 40
1.0
 40
1.0
 10
57.6100387214
 20
254.7642386621
 30
0.0
 10
57.6100387214
 20
254.5067857957
 30
0.0
 10
57.6630411527
 20
254.0157622935
 30
0.0
 10
57.8659306445
 20
253.4513025166
 30
0.0
 10
58.1063089924
 20
253.099075508
 30
0.0
 10
58.3055785714
 20
252.9081870917
 30
0.0
 10
58.5259709762
 20
252.7876549024
 30
0.0
 10
58.6842372231
 20
252.7592386621
 30
0.0
 10
58.7600594763
 20
252.7592386621
 30
0.0
  0
SPLINE
  5
311
100
AcDbEntity
  8
0
100
AcDbSpline
 62
7
  6
CONTINUOUS
 70
0
 71
3
 72
13
 73
9
 74
0
 42
0.0000001
 43
0.0000001
 44
0.0000000001
 40
0.0
 40
0.0
 40
0.0
 40
0.0
 40
0.09039085
 40
0.1874531671
 40
0.295434344
 40
0.4163262259
 40
0.6930802572
 40
1.0
 40
1.0
 40
1.0
 40
1.0
 10
41.5953483603
 20
270.0642386621
 30
0.0
 10
41.6711706631
 20
270.0642386621
 30
0.0
 10
41.8294370359
 20
270.035822234
 30
0.0
 10
42.0498296789
 20
269.9152900057
 30
0.0
 10
42.2490992744
 20
269.7244012728
 30
0.0
 10
42.4894775245
 20
269.3721741251
 30
0.0
 10
42.6923667549
 20
268.8077145122
 30
0.0
 10
42.7453691151
 20
268.3166912879
 30
0.0
 10
42.7453691151
 20
268.0592386621
 30
0.0
  0
SPLINE
  5
312
100
AcDbEntity
  8
0
100
AcDbSpline
 62
7
  6
CONTINUOUS
 70
0
 71
3
 72
13
 73
9
 74
0
 42
0.0000001
 43
0.0000001
 44
0.0000000001
 40
0.0
 40
0.0
 40
0.0
 40
0.0
 40
0.3069000686
 40
0.583686633
 40
0.7045715561
 40
0.8125489356
 40
0.9095673194
 40
1.0
 40
1.0
 40
1.0
 40
1.0
 10
42.7453691151
 20
254.7642386621
 30
0.0
 10
42.7453691151
 20
254.2525698422
 30
0.0
 10
42.8508540894
 20
253.2766747233
 30
0.0
 10
43.2536899947
 20
252.1545647786
 30
0.0
 10
43.7318187624
 20
251.4546672367
 30
0.0
 10
44.1277968126
 20
251.0753900692
 30
0.0
 10
44.5656782559
 20
250.8354813846
 30
0.0
 10
44.8803003681
 20
250.7792386621
 30
0.0
 10
45.031071214
 20
250.7792386621
 30
0.0
  0
SPLINE
  5
313
100
AcDbEntity
  8
0
100
AcDbSpline
 62
7
  6
CONTINUOUS
 70
0
 71
3
 72
11
 73
7
 74
0
 42
0.0000001
 43
0.0000001
 44
0.0000000001
 40
0.0
 40
0.0
 40
0.0
 40
0.0
 40
0.2094881562
 40
0.4446582876
 40
0.7120054672
 40
1.0
 40
1.0
 40
1.0
 40
1.0
 10
83.0063464482
 20
269.5692386621
 30
0.0
 10
83.1469093511
 20
269.5692386625
 30
0.0
 10
83.4487952143
 20
269.6605542648
 30
0.0
 10
83.7944804523
 20
270.0100701917
 30
0.0
 10
84.0164665848
 20
270.5010300514
 30
0.0
 10
84.0670066323
 20
270.875999361
 30
0.0
 10
84.0670066326
 20
271.0692386748
 30
0.0
  0
SPLINE
  5
314
100
AcDbEntity
  8
0
100
AcDbSpline
 62
7
  6
CONTINUOUS
 70
0
 71
3
 72
11
 73
7
 74
0
 42
0.0000001
 43
0.0000001
 44
0.0000000001
 40
0.0
 40
0.0
 40
0.0
 40
0.0
 40
0.2879945327
 40
0.5553417124
 40
0.7905118439
 40
1.0
 40
1.0
 40
1.0
 40
1.0
 10
84.0670066326
 20
278.2292386444
 30
0.0
 10
84.0670066323
 20
278.4224779582
 30
0.0
 10
84.0164665863
 20
278.7974472681
 30
0.0
 10
83.7944804547
 20
279.288407129
 30
0.0
 10
83.4487952178
 20
279.6379230569
 30
0.0
 10
83.1469093548
 20
279.7292386618
 30
0.0
 10
83.0063464518
 20
279.7292386621
 30
0.0
  0
SPLINE
  5
315
100
AcDbEntity
  8
0
100
AcDbSpline
 62
7
  6
CONTINUOUS
 70
0
 71
3
 72
13
 73
9
 74
0
 42
0.0000001
 43
0.0000001
 44
0.0000000001
 40
0.0
 40
0.0
 40
0.0
 40
0.0
 40
0.09039085
 40
0.1874531671
 40
0.295434344
 40
0.4163262259
 40
0.6930802572
 40
1.0
 40
1.0
 40
1.0
 40
1.0
 10
45.031071214
 20
252.7592386621
 30
0.0
 10
44.9552489112
 20
252.7592386621
 30
0.0
 10
44.7969825383
 20
252.7876550903
 30
0.0
 10
44.5765898953
 20
252.9081873186
 30
0.0
 10
44.3773202999
 20
253.0990760515
 30
0.0
 10
44.1369420498
 20
253.4513031991
 30
0.0
 10
43.9340528193
 20
254.0157628121
 30
0.0
 10
43.8810504591
 20
254.5067860364
 30
0.0
 10
43.8810504591
 20
254.7642386621
 30
0.0
  0
SPLINE
  5
316
100
AcDbEntity
  8
0
100
AcDbSpline
 62
7
  6
CONTINUOUS
 70
0
 71
3
 72
13
 73
9
 74
0
 42
0.0000001
 43
0.0000001
 44
0.0000000001
 40
0.0
 40
0.0
 40
0.0
 40
0.0
 40
0.3069000686
 40
0.583686633
 40
0.7045715561
 40
0.8125489356
 40
0.9095673194
 40
1.0
 40
1.0
 40
1.0
 40
1.0
 10
43.8810504591
 20
268.0592386621
 30
0.0
 10
43.8810504591
 20
268.570907482
 30
0.0
 10
43.7755654849
 20
269.5468026009
 30
0.0
 10
43.3727295796
 20
270.6689125457
 30
0.0
 10
42.8946008119
 20
271.3688100876
 30
0.0
 10
42.4986227617
 20
271.7480872551
 30
0.0
 10
42.0607413184
 20
271.9879959397
 30
0.0
 10
41.7461192062
 20
272.0442386621
 30
0.0
 10
41.5953483603
 20
272.0442386621
 30
0.0
  0
ENDSEC
  0
SECTION
  2
OBJECTS
  0
DICTIONARY
  5
C
100
AcDbDictionary
280
0
281
1
  3
ACAD_GROUP
350
D
  3
ACAD_MLINESTYLE
350
17
  3
ACAD_LAYOUT
350
1A
  3
ACAD_PLOTSETTINGS
350
19
  3
ACAD_PLOTSTYLENAME
350
E
  0
DICTIONARY
  5
D
102
{ACAD_REACTORS
330
C
102
}
100
AcDbDictionary
280
0
281
1
  0
ACDBDICTIONARYWDFLT
  5
E
102
{ACAD_REACTORS
330
C
102
}
100
AcDbDictionary
281
1
  3
Normal
350
F
100
AcDbDictionaryWithDefault
340
F
  0
DICTIONARY
  5
17
102
{ACAD_REACTORS
330
C
102
}
100
AcDbDictionary
280
0
281
1
  3
Standard
350
18
  0
DICTIONARY
  5
19
102
{ACAD_REACTORS
330
C
102
}
100
AcDbDictionary
281
1
  0
DICTIONARY
  5
1A
102
{ACAD_REACTORS
330
C
102
}
100
AcDbDictionary
281
1
  3
Model
350
317
  3
Layout1
350
318
  0
ACDBPLACEHOLDER
  5
F
102
{ACAD_REACTORS
330
E
102
}
  0
MLINESTYLE
  5
18
102
{ACAD_REACTORS
330
17
102
}
100
AcDbMlineStyle
  2
STANDARD
 70
0
  3

 62
256
 51
90.0
 52
90.0
 71
2
 49
0.5
 62
256
  6
BYLAYER
 49
-0.5
 62
256
  6
BYLAYER
  0
LAYOUT
  5
317
102
{ACAD_REACTORS
330
1A
102
}
100
AcDbPlotSettings
  1

  2
none_device
  4

  6

 40
0.0
 41
0.0
 42
0.0
 43
0.0
 44
210.0
 45
297.0
 46
0.0
 47
0.0
 48
0.0
 49
0.0
140
0.0
141
0.0
142
1.0
143
1.0
 70
1024
 72
1
 73
0
 74
0
  7

 75
0
147
1.0
148
0.0
149
0.0
100
AcDbLayout
  1
Model
 70
0
 71
0
 10
0.0
 20
0.0
 11
210.0
 21
297.0
 12
0.0
 22
0.0
 32
0.0
 14
0.0
 24
0.0
 34
0.0
 15
0.0
 25
0.0
 35
0.0
146
0.0
 13
0.0
 23
0.0
 33
0.0
 16
1.0
 26
0.0
 36
0.0
 17
0.0
 27
1.0
 37
0.0
 76
0
330
211
345
0
346
0
  0
LAYOUT
  5
318
102
{ACAD_REACTORS
330
1A
102
}
100
AcDbPlotSettings
  1

  2
none_device
  4

  6

 40
0.0
 41
0.0
 42
0.0
 43
0.0
 44
210.0
 45
297.0
 46
0.0
 47
0.0
 48
0.0
 49
0.0
140
0.0
141
0.0
142
1.0
143
1.0
 70
0
 72
1
 73
0
 74
0
  7

 75
0
147
1.0
148
0.0
149
0.0
100
AcDbLayout
  1
Layout1
 70
0
 71
1
 10
0.0
 20
0.0
 11
210.0
 21
297.0
 12
0.0
 22
0.0
 32
0.0
 14
0.0
 24
0.0
 34
0.0
 15
0.0
 25
0.0
 35
0.0
146
0.0
 13
0.0
 23
0.0
 33
0.0
 16
1.0
 26
0.0
 36
0.0
 17
0.0
 27
1.0
 37
0.0
 76
0
330
212
345
0
346
0
  0
ENDSEC
  0
EOF
