999
DXF file: C:\Users\sesa63760\Dev\_Creo\CAD\MCADPP0003420_3D-CAD\drw0001_1.dxf
999
Pro/ENGINEER 2019471 by Parametric Technology Corporation
  0
SECTION
  2
HEADER
  9
$ACADVER
  1
AC1024
  9
$DWGCODEPAGE
  3
ANSI_1252
  9
$EXTMAX
 10
76.2100348913
 20
107.782763632
 30
0.0
  9
$EXTMIN
 10
0.0
 20
0.0
 30
0.0
  9
$LIMMIN
 10
0.0
 20
0.0
  9
$LIMMAX
 10
76.2100348913
 20
107.782763632
  9
$VIEWCTR
 10
38.1050174457
 20
53.891381816
  9
$VIEWSIZE
 40
107.782763632
  9
$CLAYER
  8
0
  9
$LTSCALE
 40
7.0258394071
  9
$CELTYPE
  6
BYLAYER
  9
$DIMSCALE
 40
1.0
  9
$DIMASZ
 40
0.9072623201
  9
$DIMEXO
 40
1.0
  9
$DIMDLI
 40
4.8542163176
  9
$DIMEXE
 40
1.0
  9
$DIMCEN
 40
1.1496828121
  9
$DIMLFAC
 40
1.0
  9
$DIMBLK
  1
_FILLED
  9
$DIMALT
 70
0
  9
$DIMALTF
 40
0.0393700787
  9
$DIMTXT
 40
1.2701672482
  9
$DIMTOL
 70
1
  9
$DIMLIM
 70
0
  9
$DIMTFAC
 40
1.0
  9
$DIMTP
 40
0.01
  9
$DIMTM
 40
0.01
  9
$DIMGAP
 40
0.625
  9
$DIMDSEP
 70
46
  9
$AUNITS
 70
0
  9
$PDMODE
 70
3
  9
$PDSIZE
 40
0.3125
  9
$HANDSEED
  5
2DC
  9
$TILEMODE
 70
1
  9
$MEASUREMENT
 70
1
  9
$INSUNITS
 70
4
  0
ENDSEC
  0
SECTION
  2
CLASSES
  0
CLASS
  1
ACDBDICTIONARYWDFLT
  2
AcDbDictionaryWithDefault
  3
AutoCAD 2000
 90
0
 91
1
280
0
281
0
  0
CLASS
  1
ACDBPLACEHOLDER
  2
AcDbPlaceHolder
  3
AutoCAD 2000
 90
0
 91
1
280
0
281
0
  0
CLASS
  1
LAYOUT
  2
AcDbLayout
  3
AutoCAD 2000
 90
0
 91
0
280
0
281
0
  0
ENDSEC
  0
SECTION
  2
TABLES
  0
TABLE
  2
VPORT
  5
8
100
AcDbSymbolTable
 70
2
  0
VPORT
  5
1F4
100
AcDbSymbolTableRecord
100
AcDbViewportTableRecord
  2
*ACTIVE
 70
0
 10
0.0
 20
0.0
 11
1.0
 21
1.0
 12
38.1050174457
 22
53.891381816
 13
0.0
 23
0.0
 14
1.0
 24
1.0
 15
0.0
 25
0.0
 16
0.0
 26
0.0
 36
1.0
 17
0.0
 27
0.0
 37
0.0
 40
107.782763632
 41
0.7070707071
 42
50.0
 43
0.0
 44
0.0
 50
0.0
 51
0.0
 71
0
 72
100
 73
1
 74
1
 75
0
 76
0
 77
0
 78
0
  0
ENDTAB
  0
TABLE
  2
LTYPE
  5
5
100
AcDbSymbolTable
 70
6
  0
LTYPE
  5
14
100
AcDbSymbolTableRecord
100
AcDbLinetypeTableRecord
  2
BYBLOCK
 70
0
  3

 72
65
 73
0
 40
0.0
  0
LTYPE
  5
15
100
AcDbSymbolTableRecord
100
AcDbLinetypeTableRecord
  2
BYLAYER
 70
0
  3

 72
65
 73
0
 40
0.0
  0
LTYPE
  5
16
100
AcDbSymbolTableRecord
100
AcDbLinetypeTableRecord
  2
CONTINUOUS
 70
64
  3
Solid line
 72
65
 73
0
 40
0.0
  0
LTYPE
  5
1F5
100
AcDbSymbolTableRecord
100
AcDbLinetypeTableRecord
  2
CENTER
 70
64
  3
____ _ ____ _ ____ _ ____ _ ____ _ ____ _ ____
 72
65
 73
4
 40
0.6
 49
0.375
 74
0
 49
-0.075
 74
0
 49
0.075
 74
0
 49
-0.075
 74
0
  0
LTYPE
  5
1F6
100
AcDbSymbolTableRecord
100
AcDbLinetypeTableRecord
  2
HIDDEN
 70
64
  3
- - - - - - - - - - - - - - - - - - - -
 72
65
 73
2
 40
0.2
 49
0.1
 74
0
 49
-0.1
 74
0
  0
LTYPE
  5
1F7
100
AcDbSymbolTableRecord
100
AcDbLinetypeTableRecord
  2
PHANTOM
 70
64
  3
_____ _ _ _____ _ _ _____ _ _ _____
 72
65
 73
6
 40
0.8
 49
0.45
 74
0
 49
-0.05
 74
0
 49
0.1
 74
0
 49
-0.05
 74
0
 49
0.1
 74
0
 49
-0.05
 74
0
  0
LTYPE
  5
1F8
100
AcDbSymbolTableRecord
100
AcDbLinetypeTableRecord
  2
DOT
 70
64
  3
. . . . . . . . . . . . . . . . . . . .
 72
65
 73
2
 40
0.2
 49
0.1
 74
0
 49
-0.1
 74
0
  0
LTYPE
  5
1F9
100
AcDbSymbolTableRecord
100
AcDbLinetypeTableRecord
  2
DASHED
 70
64
  3
- - - - - - - - - - - - - - - - - - - -
 72
65
 73
2
 40
0.2
 49
0.1
 74
0
 49
-0.1
 74
0
  0
ENDTAB
  0
TABLE
  2
LAYER
  5
2
100
AcDbSymbolTable
 70
36
  0
LAYER
  5
10
100
AcDbSymbolTableRecord
100
AcDbLayerTableRecord
  2
0
 70
0
 62
7
  6
CONTINUOUS
370
-3
390
F
  0
LAYER
  5
1FA
100
AcDbSymbolTableRecord
100
AcDbLayerTableRecord
  2
DEFAULT_1
 70
0
 62
7
  6
CENTER
370
-3
390
F
  0
LAYER
  5
1FB
100
AcDbSymbolTableRecord
100
AcDbLayerTableRecord
  2
DEFAULT_2
 70
0
 62
8
  6
HIDDEN
370
-3
390
F
  0
LAYER
  5
1FC
100
AcDbSymbolTableRecord
100
AcDbLayerTableRecord
  2
DEFAULT_3
 70
0
 62
7
  6
PHANTOM
370
-3
390
F
  0
LAYER
  5
1FD
100
AcDbSymbolTableRecord
100
AcDbLayerTableRecord
  2
00_COMPONENTS
 70
0
 62
7
  6
CONTINUOUS
370
-3
390
F
  0
LAYER
  5
1FE
100
AcDbSymbolTableRecord
100
AcDbLayerTableRecord
  2
01_1_DEFAULT_DATUMS
 70
0
 62
7
  6
CONTINUOUS
370
-3
390
F
  0
LAYER
  5
1FF
100
AcDbSymbolTableRecord
100
AcDbLayerTableRecord
  2
01_PLANES
 70
0
 62
7
  6
CONTINUOUS
370
-3
390
F
  0
LAYER
  5
200
100
AcDbSymbolTableRecord
100
AcDbLayerTableRecord
  2
02_COORD_SYS
 70
0
 62
7
  6
CONTINUOUS
370
-3
390
F
  0
LAYER
  5
201
100
AcDbSymbolTableRecord
100
AcDbLayerTableRecord
  2
03_AXES
 70
0
 62
7
  6
CONTINUOUS
370
-3
390
F
  0
LAYER
  5
202
100
AcDbSymbolTableRecord
100
AcDbLayerTableRecord
  2
04_POINTS
 70
0
 62
7
  6
CONTINUOUS
370
-3
390
F
  0
LAYER
  5
203
100
AcDbSymbolTableRecord
100
AcDbLayerTableRecord
  2
05_CURVES
 70
0
 62
7
  6
CONTINUOUS
370
-3
390
F
  0
LAYER
  5
204
100
AcDbSymbolTableRecord
100
AcDbLayerTableRecord
  2
06_SURFS
 70
0
 62
7
  6
CONTINUOUS
370
-3
390
F
  0
LAYER
  5
205
100
AcDbSymbolTableRecord
100
AcDbLayerTableRecord
  2
07_COSMETICS
 70
0
 62
7
  6
CONTINUOUS
370
-3
390
F
  0
LAYER
  5
206
100
AcDbSymbolTableRecord
100
AcDbLayerTableRecord
  2
10_NOTES
 70
0
 62
7
  6
CONTINUOUS
370
-3
390
F
  0
LAYER
  5
207
100
AcDbSymbolTableRecord
100
AcDbLayerTableRecord
  2
11_NOTES_PUB
 70
0
 62
7
  6
CONTINUOUS
370
-3
390
F
  0
LAYER
  5
208
100
AcDbSymbolTableRecord
100
AcDbLayerTableRecord
  2
13_REF_GTOL
 70
0
 62
7
  6
CONTINUOUS
370
-3
390
F
  0
LAYER
  5
209
100
AcDbSymbolTableRecord
100
AcDbLayerTableRecord
  2
16_MISC
 70
0
 62
7
  6
CONTINUOUS
370
-3
390
F
  0
LAYER
  5
20A
100
AcDbSymbolTableRecord
100
AcDbLayerTableRecord
  2
17_NO_PRINT
 70
0
 62
7
  6
CONTINUOUS
370
-3
390
F
  0
LAYER
  5
20B
100
AcDbSymbolTableRecord
100
AcDbLayerTableRecord
  2
18_DATUM_CAMS_JOINTS
 70
0
 62
7
  6
CONTINUOUS
370
-3
390
F
  0
LAYER
  5
20C
100
AcDbSymbolTableRecord
100
AcDbLayerTableRecord
  2
19_DATUM_FUNCTIONAL
 70
0
 62
7
  6
CONTINUOUS
370
-3
390
F
  0
LAYER
  5
20D
100
AcDbSymbolTableRecord
100
AcDbLayerTableRecord
  2
20_DATUM_KINEMATIC_SCHEME
 70
0
 62
7
  6
CONTINUOUS
370
-3
390
F
  0
ENDTAB
  0
TABLE
  2
STYLE
  5
3
100
AcDbSymbolTable
 70
1
  0
STYLE
  5
11
100
AcDbSymbolTableRecord
100
AcDbTextStyleTableRecord
  2
STANDARD
 70
0
 40
0.0
 41
0.8
 50
0.0
 71
0
 42
0.2
  3
txt
  4

  0
STYLE
  5
20E
100
AcDbSymbolTableRecord
100
AcDbTextStyleTableRecord
  2
TEXTSTYLE_1
 70
0
 40
0.0
 41
0.8
 50
0.0
 71
0
 42
0.2
  3
gdt
  4

  0
ENDTAB
  0
TABLE
  2
VIEW
  5
6
100
AcDbSymbolTable
 70
0
  0
ENDTAB
  0
TABLE
  2
UCS
  5
7
100
AcDbSymbolTable
 70
0
  0
ENDTAB
  0
TABLE
  2
APPID
  5
9
100
AcDbSymbolTable
 70
1
  0
APPID
  5
20F
100
AcDbSymbolTableRecord
100
AcDbRegAppTableRecord
  2
ACAD
 70
0
  0
ENDTAB
  0
TABLE
  2
BLOCK_RECORD
  5
1
100
AcDbSymbolTable
 70
0
  0
BLOCK_RECORD
  5
210
100
AcDbSymbolTableRecord
100
AcDbBlockTableRecord
  2
*Model_Space
  0
BLOCK_RECORD
  5
211
100
AcDbSymbolTableRecord
100
AcDbBlockTableRecord
  2
*Paper_Space
  0
BLOCK_RECORD
  5
212
100
AcDbSymbolTableRecord
100
AcDbBlockTableRecord
  2
_FILLED
  0
ENDTAB
  0
TABLE
  2
DIMSTYLE
  5
A
100
AcDbSymbolTable
 70
1
100
AcDbDimStyleTable
 71
0
  0
DIMSTYLE
105
213
100
AcDbSymbolTableRecord
100
AcDbDimStyleTableRecord
  2
STANDARD
 70
0
  3

  4

 40
1.0
 41
0.9072623201
 42
1.0
 43
0.38
 44
1.0
 45
0.0
 46
0.0
 47
0.01
 48
0.01
140
1.2701672482
141
0.09
142
0.0
143
25.4
144
1.0
145
0.0
146
1.0
147
0.625
 71
1
 72
0
 73
0
 74
0
 75
0
 76
0
 77
1
 78
8
 79
2
170
0
171
1
172
0
173
0
174
0
175
0
176
0
177
0
178
0
270
2
179
2
271
2
272
2
273
2
274
2
275
0
280
0
281
0
282
0
283
1
284
8
285
0
286
0
287
3
288
0
340
11
278
46
341
212
342
212
343
212
344
212
  0
ENDTAB
  0
ENDSEC
  0
SECTION
  2
BLOCKS
  0
BLOCK
  5
20
100
AcDbEntity
  8
0
100
AcDbBlockBegin
  2
*Model_Space
 70
0
 10
0.0
 20
0.0
 30
0.0
  3
*Model_Space
  1

  0
ENDBLK
  5
21
100
AcDbEntity
  8
0
100
AcDbBlockEnd
  0
BLOCK
  5
1C
100
AcDbEntity
  8
0
100
AcDbBlockBegin
  2
*Paper_Space
 70
0
 10
0.0
 20
0.0
 30
0.0
  3
*Paper_Space
  1

  0
ENDBLK
  5
1D
100
AcDbEntity
  8
0
100
AcDbBlockEnd
  0
BLOCK
  5
214
100
AcDbEntity
  8
0
100
AcDbBlockBegin
  2
_FILLED
 70
64
 10
0.0
 20
0.0
  3
_FILLED
  1

  0
SOLID
  5
215
100
AcDbEntity
  8
0
  6
BYBLOCK
 62
0
100
AcDbTrace
 10
0.0
 20
0.0
 11
-1.0
 21
0.25
 12
-1.0
 22
-0.25
 13
-1.0
 23
-0.25
  0
ENDBLK
  5
216
100
AcDbEntity
  8
0
  6
BYBLOCK
 62
0
100
AcDbBlockEnd
  0
ENDSEC
  0
SECTION
  2
ENTITIES
  0
LINE
  5
217
100
AcDbEntity
  8
0
100
AcDbLine
 62
7
  6
CONTINUOUS
 10
22.5685689208
 20
15.5303592307
 11
34.9429891108
 21
8.3861460266
  0
LINE
  5
218
100
AcDbEntity
  8
0
100
AcDbLine
 62
7
  6
CONTINUOUS
 10
22.2588080192
 20
16.2164398831
 11
34.6332282092
 21
9.072226679
  0
LINE
  5
219
100
AcDbEntity
  8
0
100
AcDbLine
 62
7
  6
CONTINUOUS
 10
23.3193981535
 20
83.3751932733
 11
51.3003631478
 21
99.5249161003
  0
LINE
  5
21A
100
AcDbEntity
  8
0
100
AcDbLine
 62
7
  6
CONTINUOUS
 10
15.8533770197
 20
28.1449705422
 11
28.2277972098
 21
21.000757338
  0
LINE
  5
21B
100
AcDbEntity
  8
0
100
AcDbLine
 62
7
  6
CONTINUOUS
 10
27.9171959834
 20
21.6872879047
 11
15.5427757934
 21
28.8315011088
  0
LINE
  5
21C
100
AcDbEntity
  8
0
100
AcDbLine
 62
7
  6
CONTINUOUS
 10
9.8871697084
 20
50.8764501895
 11
9.8871697084
 21
59.696937577
  0
LINE
  5
21D
100
AcDbEntity
  8
0
100
AcDbLine
 62
7
  6
CONTINUOUS
 10
33.9324913879
 20
23.8284610748
 11
34.6332282092
 21
23.4238996348
  0
LINE
  5
21E
100
AcDbEntity
  8
0
100
AcDbLine
 62
7
  6
CONTINUOUS
 10
15.5427757934
 20
28.8315011088
 11
15.5427757934
 21
45.9205619561
  0
LINE
  5
21F
100
AcDbEntity
  8
0
100
AcDbLine
 62
7
  6
CONTINUOUS
 10
15.5427757934
 20
59.6969961201
 11
15.5427757934
 21
62.5946053215
  0
LINE
  5
220
100
AcDbEntity
  8
0
100
AcDbLine
 62
7
  6
CONTINUOUS
 10
10.9475958492
 20
61.5336597265
 11
11.6545466091
 21
61.9418155017
  0
LINE
  5
221
100
AcDbEntity
  8
0
100
AcDbLine
 62
7
  6
CONTINUOUS
 10
63.6747833379
 20
92.3807028962
 11
35.6938183436
 21
76.2309800692
  0
LINE
  5
222
100
AcDbEntity
  8
0
100
AcDbLine
 62
7
  6
CONTINUOUS
 10
18.9192414347
 20
42.0409843838
 11
22.7426048206
 21
39.8336144412
  0
LINE
  5
223
100
AcDbEntity
  8
0
100
AcDbLine
 62
7
  6
CONTINUOUS
 10
10.9225071297
 20
48.5880149669
 11
23.2969273197
 21
41.4438017628
  0
LINE
  5
224
100
AcDbEntity
  8
0
100
AcDbLine
 62
7
  6
CONTINUOUS
 10
22.2588080192
 20
16.2150282153
 11
22.2588080192
 21
24.4468768924
  0
LINE
  5
225
100
AcDbEntity
  8
0
100
AcDbLine
 62
7
  6
CONTINUOUS
 10
22.2588080192
 20
68.8553760807
 11
22.2588080192
 21
81.5383514859
  0
LINE
  5
226
100
AcDbEntity
  8
0
100
AcDbLine
 62
7
  6
CONTINUOUS
 10
22.2615898984
 20
52.5527243729
 11
22.2615898984
 21
43.7322369854
  0
LINE
  5
227
100
AcDbEntity
  8
0
100
AcDbLine
 62
7
  6
CONTINUOUS
 10
24.7359175592
 20
52.1323255074
 11
24.7359175592
 21
48.647748059
  0
LINE
  5
228
100
AcDbEntity
  8
0
100
AcDbLine
 62
7
  6
CONTINUOUS
 10
65.7351215904
 20
45.5995655189
 11
63.2647331256
 21
44.9376440842
  0
LINE
  5
229
100
AcDbEntity
  8
0
100
AcDbLine
 62
7
  6
CONTINUOUS
 10
23.9446283617
 20
41.2271844861
 11
27.9171959834
 21
40.6996193996
  0
LINE
  5
22A
100
AcDbEntity
  8
0
100
AcDbLine
 62
7
  6
CONTINUOUS
 10
23.2969557121
 20
41.4438509033
 11
23.9446283617
 21
41.2271844861
  0
LINE
  5
22B
100
AcDbEntity
  8
0
100
AcDbLine
 62
7
  6
CONTINUOUS
 10
22.2615898984
 20
43.7322369854
 11
9.8871697084
 21
50.8764501895
  0
LINE
  5
22C
100
AcDbEntity
  8
0
100
AcDbLine
 62
7
  6
CONTINUOUS
 10
24.1761221439
 20
54.248403391
 11
24.0289667992
 21
54.7976022976
  0
LINE
  5
22D
100
AcDbEntity
  8
0
100
AcDbLine
 62
7
  6
CONTINUOUS
 10
24.3333412865
 20
52.063012172
 11
24.24168398
 21
52.4090821212
  0
LINE
  5
22E
100
AcDbEntity
  8
0
100
AcDbLine
 62
7
  6
CONTINUOUS
 10
24.1509857174
 20
52.7515310137
 11
24.0604095415
 21
53.093518944
  0
LINE
  5
22F
100
AcDbEntity
  8
0
100
AcDbLine
 62
7
  6
CONTINUOUS
 10
23.969736644
 20
53.4358720657
 11
23.8791437154
 21
53.7779232493
  0
LINE
  5
230
100
AcDbEntity
  8
0
100
AcDbLine
 62
7
  6
CONTINUOUS
 10
24.58334903
 20
52.7109954819
 11
24.4926507674
 21
53.0534443744
  0
LINE
  5
231
100
AcDbEntity
  8
0
100
AcDbLine
 62
7
  6
CONTINUOUS
 10
24.4020745916
 20
53.3954323047
 11
24.3114016941
 21
53.7377854264
  0
LINE
  5
232
100
AcDbEntity
  8
0
100
AcDbLine
 62
7
  6
CONTINUOUS
 10
27.8696384127
 20
47.3447886909
 11
27.8684157962
 21
47.4249631441
  0
LINE
  5
233
100
AcDbEntity
  8
0
100
AcDbLine
 62
7
  6
CONTINUOUS
 10
27.9171959834
 20
40.6996193996
 11
27.9171959834
 21
21.6872879047
  0
LINE
  5
234
100
AcDbEntity
  8
0
100
AcDbLine
 62
7
  6
CONTINUOUS
 10
27.9171959834
 20
48.152781325
 11
27.9171959834
 21
55.4503921174
  0
LINE
  5
235
100
AcDbEntity
  8
0
100
AcDbLine
 62
7
  6
CONTINUOUS
 10
63.2647331256
 20
46.9003984163
 11
63.4131033256
 21
46.940153061
  0
LINE
  5
236
100
AcDbEntity
  8
0
100
AcDbLine
 62
7
  6
CONTINUOUS
 10
26.1313956413
 20
47.1521373021
 11
24.934504318
 21
47.843147197
  0
LINE
  5
237
100
AcDbEntity
  8
0
100
AcDbLine
 62
7
  6
CONTINUOUS
 10
24.7359175592
 20
49.2334709305
 11
27.8684157962
 21
47.4249631441
  0
LINE
  5
238
100
AcDbEntity
  8
0
100
AcDbLine
 62
7
  6
CONTINUOUS
 10
24.7359175592
 20
49.3319819263
 11
28.1326318459
 21
47.3709323834
  0
LINE
  5
239
100
AcDbEntity
  8
0
100
AcDbLine
 62
7
  6
CONTINUOUS
 10
24.7359175592
 20
49.8203820877
 11
28.0207297257
 21
47.9239378024
  0
LINE
  5
23A
100
AcDbEntity
  8
0
100
AcDbLine
 62
7
  6
CONTINUOUS
 10
27.9171959834
 20
48.152781325
 11
24.7359175592
 21
49.9894517286
  0
LINE
  5
23B
100
AcDbEntity
  8
0
100
AcDbLine
 62
7
  6
CONTINUOUS
 10
24.7363039671
 20
52.1463787629
 11
24.6818751031
 21
52.2666722185
  0
LINE
  5
23C
100
AcDbEntity
  8
0
100
AcDbLine
 62
7
  6
CONTINUOUS
 10
23.8791437154
 20
53.7779232493
 11
24.0526034354
 21
53.9312014585
  0
LINE
  5
23D
100
AcDbEntity
  8
0
100
AcDbLine
 62
7
  6
CONTINUOUS
 10
24.3114016941
 20
53.7377854264
 11
23.969736644
 21
53.4358720657
  0
LINE
  5
23E
100
AcDbEntity
  8
0
100
AcDbLine
 62
7
  6
CONTINUOUS
 10
24.0604095415
 20
53.093518944
 11
24.4020745916
 21
53.3954323047
  0
LINE
  5
23F
100
AcDbEntity
  8
0
100
AcDbLine
 62
7
  6
CONTINUOUS
 10
24.4926507674
 20
53.0534443744
 11
24.1509857174
 21
52.7515310137
  0
LINE
  5
240
100
AcDbEntity
  8
0
100
AcDbLine
 62
7
  6
CONTINUOUS
 10
24.24168398
 20
52.4090821212
 11
24.58334903
 21
52.7109954819
  0
LINE
  5
241
100
AcDbEntity
  8
0
100
AcDbLine
 62
7
  6
CONTINUOUS
 10
24.5535737047
 20
52.2554141052
 11
24.3333412865
 21
52.063012172
  0
LINE
  5
242
100
AcDbEntity
  8
0
100
AcDbLine
 62
7
  6
CONTINUOUS
 10
46.2942410324
 20
70.0993964895
 11
42.7587218464
 21
68.0581757202
  0
LINE
  5
243
100
AcDbEntity
  8
0
100
AcDbLine
 62
7
  6
CONTINUOUS
 10
41.5102570275
 20
66.6433387705
 11
46.5063668844
 21
69.5278269233
  0
LINE
  5
244
100
AcDbEntity
  8
0
100
AcDbLine
 62
7
  6
CONTINUOUS
 10
46.5063668844
 20
68.3030732976
 11
41.2737984891
 21
65.2820665589
  0
LINE
  5
245
100
AcDbEntity
  8
0
100
AcDbLine
 62
7
  6
CONTINUOUS
 10
23.3220160393
 20
54.3894465224
 11
24.0289667992
 21
54.7976022976
  0
LINE
  5
246
100
AcDbEntity
  8
0
100
AcDbLine
 62
7
  6
CONTINUOUS
 10
45.6578422798
 20
66.3843010829
 11
42.1223230937
 21
64.3430803136
  0
LINE
  5
247
100
AcDbEntity
  8
0
100
AcDbLine
 62
7
  6
CONTINUOUS
 10
26.1313956413
 20
47.1521373021
 11
25.3571798351
 21
47.2747906662
  0
LINE
  5
248
100
AcDbEntity
  8
0
100
AcDbLine
 62
7
  6
CONTINUOUS
 10
28.0207345122
 20
47.9239460784
 11
28.1497756639
 21
47.9035128657
  0
LINE
  5
249
100
AcDbEntity
  8
0
100
AcDbLine
 62
7
  6
CONTINUOUS
 10
9.8871697084
 20
59.696937577
 11
22.2615898984
 21
52.5527243729
  0
LINE
  5
24A
100
AcDbEntity
  8
0
100
AcDbLine
 62
7
  6
CONTINUOUS
 10
24.2531143151
 20
52.4288804904
 11
24.5535737047
 21
52.2554141052
  0
LINE
  5
24B
100
AcDbEntity
  8
0
100
AcDbLine
 62
7
  6
CONTINUOUS
 10
24.3181635799
 20
52.4766635523
 11
24.6818781921
 21
52.2666775736
  0
LINE
  5
24C
100
AcDbEntity
  8
0
100
AcDbLine
 62
7
  6
CONTINUOUS
 10
24.2037878926
 20
53.2202156601
 11
24.4926507674
 21
53.0534443744
  0
LINE
  5
24D
100
AcDbEntity
  8
0
100
AcDbLine
 62
7
  6
CONTINUOUS
 10
24.0224853919
 20
53.9045875577
 11
24.3114016941
 21
53.7377854264
  0
LINE
  5
24E
100
AcDbEntity
  8
0
100
AcDbLine
 62
7
  6
CONTINUOUS
 10
23.3220160393
 20
54.3894465224
 11
10.9475958492
 21
61.5336597265
  0
LINE
  5
24F
100
AcDbEntity
  8
0
100
AcDbLine
 62
7
  6
CONTINUOUS
 10
34.6332282092
 20
74.3941382818
 11
34.6332282092
 21
61.7111628766
  0
LINE
  5
250
100
AcDbEntity
  8
0
100
AcDbLine
 62
7
  6
CONTINUOUS
 10
34.6332282092
 20
23.4238996348
 11
34.6332282092
 21
9.0708150108
  0
LINE
  5
251
100
AcDbEntity
  8
0
100
AcDbLine
 62
7
  6
CONTINUOUS
 10
42.7587218464
 20
63.9756636345
 11
46.2942410324
 21
66.0168844039
  0
LINE
  5
252
100
AcDbEntity
  8
0
100
AcDbLine
 62
7
  6
CONTINUOUS
 10
64.1132577302
 20
73.85512983
 11
63.2647331256
 21
73.3652368454
  0
LINE
  5
253
100
AcDbEntity
  8
0
100
AcDbLine
 62
7
  6
CONTINUOUS
 10
27.8684157962
 20
47.4249631441
 11
26.1313956413
 21
47.1521373021
  0
LINE
  5
254
100
AcDbEntity
  8
0
100
AcDbLine
 62
7
  6
CONTINUOUS
 10
28.1497756639
 20
47.9035128657
 11
29.3934247507
 21
48.0988471613
  0
LINE
  5
255
100
AcDbEntity
  8
0
100
AcDbLine
 62
7
  6
CONTINUOUS
 10
28.1326318459
 20
47.3709323834
 11
27.8696384127
 21
47.3447886909
  0
LINE
  5
256
100
AcDbEntity
  8
0
100
AcDbLine
 62
7
  6
CONTINUOUS
 10
67.2987006155
 20
45.3558589668
 11
66.9819121827
 21
45.3842973234
  0
LINE
  5
257
100
AcDbEntity
  8
0
100
AcDbLine
 62
7
  6
CONTINUOUS
 10
64.8021223742
 20
47.8523041831
 11
63.2647331256
 21
48.0089587212
  0
LINE
  5
258
100
AcDbEntity
  8
0
100
AcDbLine
 62
7
  6
CONTINUOUS
 10
66.987402746
 20
45.411128589
 11
65.7351215904
 21
45.5995655189
  0
LINE
  5
259
100
AcDbEntity
  8
0
100
AcDbLine
 62
7
  6
CONTINUOUS
 10
63.4131033256
 20
46.940153061
 11
64.6653844813
 21
46.7517161311
  0
LINE
  5
25A
100
AcDbEntity
  8
0
100
AcDbLine
 62
7
  6
CONTINUOUS
 10
57.8553834717
 20
35.2141682535
 11
58.9160392276
 21
34.6018122207
  0
LINE
  5
25B
100
AcDbEntity
  8
0
100
AcDbLine
 62
7
  6
CONTINUOUS
 10
11.6545466091
 20
61.9418155017
 11
24.0289667992
 21
54.7976022976
  0
LINE
  5
25C
100
AcDbEntity
  8
0
100
AcDbLine
 62
7
  6
CONTINUOUS
 10
60.7898696953
 20
35.9286257114
 11
60.1534709427
 21
36.2960423905
  0
LINE
  5
25D
100
AcDbEntity
  8
0
100
AcDbLine
 62
7
  6
CONTINUOUS
 10
15.5427757934
 20
62.5946053215
 11
27.9171959834
 21
55.4503921174
  0
LINE
  5
25E
100
AcDbEntity
  8
0
100
AcDbLine
 62
7
  6
CONTINUOUS
 10
66.0097626785
 20
72.6677412915
 11
67.1526342544
 21
73.3275745648
  0
LINE
  5
25F
100
AcDbEntity
  8
0
100
AcDbLine
 62
7
  6
CONTINUOUS
 10
17.5510610523
 20
43.3380382271
 11
18.7607679694
 21
44.0364586723
  0
LINE
  5
260
100
AcDbEntity
  8
0
100
AcDbLine
 62
7
  6
CONTINUOUS
 10
29.3934247507
 20
48.0988471613
 11
28.1326318459
 21
47.3709323834
  0
LINE
  5
261
100
AcDbEntity
  8
0
100
AcDbLine
 62
7
  6
CONTINUOUS
 10
24.6818751031
 20
52.2666722185
 11
24.5535737047
 21
52.2554141052
  0
LINE
  5
262
100
AcDbEntity
  8
0
100
AcDbLine
 62
7
  6
CONTINUOUS
 10
60.1534709427
 20
40.3785544761
 11
60.7898696953
 21
40.0111377971
  0
LINE
  5
263
100
AcDbEntity
  8
0
100
AcDbLine
 62
7
  6
CONTINUOUS
 10
41.2737984891
 20
65.2820665589
 11
41.2737984891
 21
66.2337696966
  0
LINE
  5
264
100
AcDbEntity
  8
0
100
AcDbLine
 62
7
  6
CONTINUOUS
 10
65.0142880478
 20
47.7852219057
 11
64.8021223742
 21
47.8523041831
  0
LINE
  5
265
100
AcDbEntity
  8
0
100
AcDbLine
 62
7
  6
CONTINUOUS
 10
21.555523733
 20
67.6330224523
 11
33.9299439231
 21
60.4888092482
  0
LINE
  5
266
100
AcDbEntity
  8
0
100
AcDbLine
 62
7
  6
CONTINUOUS
 10
23.4894782272
 20
39.9095474849
 11
24.6992038074
 21
40.6079787052
  0
LINE
  5
267
100
AcDbEntity
  8
0
100
AcDbLine
 62
7
  6
CONTINUOUS
 10
34.6332282092
 20
61.7111628766
 11
22.2588080192
 21
68.8553760807
  0
LINE
  5
268
100
AcDbEntity
  8
0
100
AcDbLine
 62
7
  6
CONTINUOUS
 10
63.4131033256
 20
46.940153061
 11
65.7351215904
 21
45.5995655189
  0
LINE
  5
269
100
AcDbEntity
  8
0
100
AcDbLine
 62
7
  6
CONTINUOUS
 10
64.6653844813
 20
46.7517161311
 11
66.987402746
 21
45.411128589
  0
LINE
  5
26A
100
AcDbEntity
  8
0
100
AcDbLine
 62
7
  6
CONTINUOUS
 10
64.9767624106
 20
46.696585258
 11
67.2987806753
 21
45.3559977159
  0
LINE
  5
26B
100
AcDbEntity
  8
0
100
AcDbLine
 62
7
  6
CONTINUOUS
 10
46.5063668844
 20
69.5278269233
 11
46.5063668844
 21
68.3030732976
  0
LINE
  5
26C
100
AcDbEntity
  8
0
100
AcDbLine
 62
7
  6
CONTINUOUS
 10
63.2647331256
 20
48.7398961997
 11
64.8021223742
 21
47.8523041831
  0
LINE
  5
26D
100
AcDbEntity
  8
0
100
AcDbLine
 62
7
  6
CONTINUOUS
 10
63.2647331256
 20
48.7953093206
 11
65.0142898926
 21
47.7852251014
  0
LINE
  5
26E
100
AcDbEntity
  8
0
100
AcDbLine
 62
7
  6
CONTINUOUS
 10
42.7587218464
 20
63.9756636345
 11
42.1223230937
 21
64.3430803136
  0
LINE
  5
26F
100
AcDbEntity
  8
0
100
AcDbLine
 62
7
  6
CONTINUOUS
 10
45.6578422798
 20
66.3843010829
 11
46.2942410324
 21
66.0168844039
  0
LINE
  5
270
100
AcDbEntity
  8
0
100
AcDbLine
 62
7
  6
CONTINUOUS
 10
22.2588080192
 20
81.5383313987
 11
34.6332282092
 21
74.3941181946
  0
LINE
  5
271
100
AcDbEntity
  8
0
100
AcDbLine
 62
7
  6
CONTINUOUS
 10
45.4456839679
 20
68.9154450113
 11
46.5063668844
 21
68.3030732976
  0
LINE
  5
272
100
AcDbEntity
  8
0
100
AcDbLine
 62
7
  6
CONTINUOUS
 10
35.6938183436
 20
76.2309800692
 11
23.3193981535
 21
83.3751932733
  0
LINE
  5
273
100
AcDbEntity
  8
0
100
AcDbLine
 62
7
  6
CONTINUOUS
 10
57.2543505092
 20
37.9699170277
 11
57.2543505092
 21
33.8874049421
  0
LINE
  5
274
100
AcDbEntity
  8
0
100
AcDbLine
 62
7
  6
CONTINUOUS
 10
57.8553834717
 20
33.9894459899
 11
57.8553834717
 21
39.7585249586
  0
LINE
  5
275
100
AcDbEntity
  8
0
100
AcDbLine
 62
7
  6
CONTINUOUS
 10
58.9160392276
 20
40.6439301074
 11
58.9160392276
 21
34.6018122207
  0
LINE
  5
276
100
AcDbEntity
  8
0
100
AcDbLine
 62
7
  6
CONTINUOUS
 10
60.1534709427
 20
40.3785544761
 11
60.1534709427
 21
36.2960423905
  0
LINE
  5
277
100
AcDbEntity
  8
0
100
AcDbLine
 62
7
  6
CONTINUOUS
 10
60.7898696953
 20
35.9286257114
 11
60.7898696953
 21
40.0111377971
  0
LINE
  5
278
100
AcDbEntity
  8
0
100
AcDbLine
 62
7
  6
CONTINUOUS
 10
58.0918319907
 20
40.1680766778
 11
58.9160392276
 21
40.6439301074
  0
LINE
  5
279
100
AcDbEntity
  8
0
100
AcDbLine
 62
7
  6
CONTINUOUS
 10
63.2647331256
 20
44.9376440842
 11
63.2647331256
 21
73.3652368454
  0
LINE
  5
27A
100
AcDbEntity
  8
0
100
AcDbLine
 62
7
  6
CONTINUOUS
 10
28.9591151362
 20
21.0645346267
 11
33.9386154413
 21
23.8390684864
  0
LINE
  5
27B
100
AcDbEntity
  8
0
100
AcDbLine
 62
7
  6
CONTINUOUS
 10
65.3248911189
 20
46.4955976015
 11
65.3248911189
 21
47.0986945347
  0
LINE
  5
27C
100
AcDbEntity
  8
0
100
AcDbLine
 62
7
  6
CONTINUOUS
 10
67.5058162025
 20
44.8983817031
 11
67.5058162025
 21
27.7789628626
  0
LINE
  5
27D
100
AcDbEntity
  8
0
100
AcDbLine
 62
7
  6
CONTINUOUS
 10
67.5064385801
 20
73.9516080918
 11
67.5064385801
 21
78.7032752346
  0
LINE
  5
27E
100
AcDbEntity
  8
0
100
AcDbLine
 62
7
  6
CONTINUOUS
 10
58.9160392276
 20
34.6018122207
 11
57.8553834717
 21
33.9894459899
  0
LINE
  5
27F
100
AcDbEntity
  8
0
100
AcDbLine
 62
7
  6
CONTINUOUS
 10
66.9819121827
 20
45.3842973234
 11
66.987402746
 21
45.411128589
  0
LINE
  5
280
100
AcDbEntity
  8
0
100
AcDbLine
 62
7
  6
CONTINUOUS
 10
65.759713943
 20
72.6429867473
 11
63.8867172719
 21
73.7243374162
  0
LINE
  5
281
100
AcDbEntity
  8
0
100
AcDbLine
 62
7
  6
CONTINUOUS
 10
64.1132577302
 20
73.85512983
 11
65.7597255323
 21
72.6429782151
  0
LINE
  5
282
100
AcDbEntity
  8
0
100
AcDbLine
 62
7
  6
CONTINUOUS
 10
67.5064385801
 20
78.7032752346
 11
65.3051197795
 21
91.8481409967
  0
LINE
  5
283
100
AcDbEntity
  8
0
100
AcDbLine
 62
7
  6
CONTINUOUS
 10
65.2919972033
 20
25.5595122508
 11
65.5372821569
 21
25.8148066692
  0
LINE
  5
284
100
AcDbEntity
  8
0
100
AcDbLine
 62
7
  6
CONTINUOUS
 10
65.5372821569
 20
25.8148066692
 11
66.7803747864
 21
26.5329674898
  0
LINE
  5
285
100
AcDbEntity
  8
0
100
AcDbLine
 62
7
  6
CONTINUOUS
 10
35.6867282791
 20
8.4578866435
 11
65.2919972033
 21
25.5595122508
  0
LINE
  5
286
100
AcDbEntity
  8
0
100
AcDbLine
 62
7
  6
CONTINUOUS
 10
51.3003631478
 20
99.5249161003
 11
63.6747833379
 21
92.3807028962
  0
LINE
  5
287
100
AcDbEntity
  8
0
100
AcDbLine
 62
7
  6
CONTINUOUS
 10
52.4832613525
 20
99.6173517548
 11
64.8576815425
 21
92.4731385506
  0
ARC
  5
288
100
AcDbEntity
  8
0
100
AcDbCircle
 62
7
  6
CONTINUOUS
 10
15.7460126576
 20
35.3272248854
 40
10.3945174332
100
AcDbArc
 50
30.5328715068
 51
34.2942266688
  0
ARC
  5
289
100
AcDbEntity
  8
0
100
AcDbCircle
 62
7
  6
CONTINUOUS
 10
48.9606235647
 20
91.7987645105
 40
0.671261705
100
AcDbArc
 50
180.0320520869
 51
186.0058206641
  0
ARC
  5
28A
100
AcDbEntity
  8
0
100
AcDbCircle
 62
7
  6
CONTINUOUS
 10
51.6208145167
 20
91.797843041
 40
0.6684759318
100
AcDbArc
 50
353.0789801318
 51
0.0161620927
  0
ARC
  5
28B
100
AcDbEntity
  8
0
100
AcDbCircle
 62
7
  6
CONTINUOUS
 10
67.044217056
 20
73.9406478551
 40
0.4623514508
100
AcDbArc
 50
359.9953459192
 51
1.3583479299
  0
ARC
  5
28C
100
AcDbEntity
  8
0
100
AcDbCircle
 62
7
  6
CONTINUOUS
 10
24.4765267462
 20
52.1464896502
 40
0.2597772446
100
AcDbArc
 50
356.8744443153
 51
359.9755430016
  0
SPLINE
  5
28D
100
AcDbEntity
  8
0
100
AcDbSpline
 62
7
  6
CONTINUOUS
 70
0
 71
3
 72
11
 73
7
 74
0
 42
0.0000001
 43
0.0000001
 44
0.0000000001
 40
0.0
 40
0.0
 40
0.0
 40
0.0
 40
0.2874222781
 40
0.5473052115
 40
0.7820669384
 40
1.0
 40
1.0
 40
1.0
 40
1.0
 10
48.8751185188
 20
90.9819746224
 30
0.0
 10
48.7938032031
 20
91.0289209798
 30
0.0
 10
48.6452007608
 20
91.1301062964
 30
0.0
 10
48.4632434727
 20
91.3120537147
 30
0.0
 10
48.3399368581
 20
91.5124305646
 30
0.0
 10
48.3004890639
 20
91.6577270901
 30
0.0
 10
48.2930462331
 20
91.7285307366
 30
0.0
  0
SPLINE
  5
28E
100
AcDbEntity
  8
0
100
AcDbSpline
 62
7
  6
CONTINUOUS
 70
0
 71
3
 72
11
 73
7
 74
0
 42
0.0000001
 43
0.0000001
 44
0.0000000001
 40
0.0
 40
0.0
 40
0.0
 40
0.0
 40
0.2177825102
 40
0.4509091639
 40
0.7102957096
 40
1.0
 40
1.0
 40
1.0
 40
1.0
 10
41.5087492924
 20
63.8518547265
 30
0.0
 10
41.4262826891
 20
63.8994657746
 30
0.0
 10
41.2719908503
 20
64.0291774079
 30
0.0
 10
41.1077291195
 20
64.2977522708
 30
0.0
 10
41.010167367
 20
64.6287373192
 30
0.0
 10
40.9909622533
 20
64.8696383599
 30
0.0
 10
40.9909622533
 20
64.9963092927
 30
0.0
  0
SPLINE
  5
28F
100
AcDbEntity
  8
0
100
AcDbSpline
 62
7
  6
CONTINUOUS
 70
0
 71
3
 72
11
 73
7
 74
0
 42
0.0000001
 43
0.0000001
 44
0.0000000001
 40
0.0
 40
0.0
 40
0.0
 40
0.0
 40
0.2879142373
 40
0.5466481709
 40
0.7805110756
 40
1.0
 40
1.0
 40
1.0
 40
1.0
 10
51.3003631478
 20
99.5249161003
 30
0.0
 10
51.4046947981
 20
99.581449547
 30
0.0
 10
51.6119713715
 20
99.6734013035
 30
0.0
 10
51.9291089923
 20
99.7419620224
 30
0.0
 10
52.2261114269
 20
99.7289317869
 30
0.0
 10
52.4049002495
 20
99.6625511436
 30
0.0
 10
52.4832556924
 20
99.6173419494
 30
0.0
  0
SPLINE
  5
290
100
AcDbEntity
  8
0
100
AcDbSpline
 62
7
  6
CONTINUOUS
 70
0
 71
3
 72
13
 73
9
 74
0
 42
0.0000001
 43
0.0000001
 44
0.0000000001
 40
0.0
 40
0.0
 40
0.0
 40
0.0
 40
0.1142276976
 40
0.2375642965
 40
0.5000099644
 40
0.7624501748
 40
0.8857804227
 40
1.0
 40
1.0
 40
1.0
 40
1.0
 10
22.2588080192
 20
81.5383514859
 30
0.0
 10
22.2588080192
 20
81.6221632322
 30
0.0
 10
22.2741857125
 20
81.7966436898
 30
0.0
 10
22.3575401558
 20
82.1548214848
 30
0.0
 10
22.5512603127
 20
82.5941245457
 30
0.0
 10
22.8348725245
 20
82.9815194749
 30
0.0
 10
23.1033976433
 20
83.232762218
 30
0.0
 10
23.2468152317
 20
83.3332990063
 30
0.0
 10
23.3193981535
 20
83.3751932733
 30
0.0
  0
SPLINE
  5
291
100
AcDbEntity
  8
0
100
AcDbSpline
 62
7
  6
CONTINUOUS
 70
0
 71
3
 72
13
 73
9
 74
0
 42
0.0000001
 43
0.0000001
 44
0.0000000001
 40
0.0
 40
0.0
 40
0.0
 40
0.0
 40
0.1143753993
 40
0.2378851405
 40
0.5003230312
 40
0.7625843694
 40
0.8858872643
 40
1.0
 40
1.0
 40
1.0
 40
1.0
 10
21.555523733
 20
67.6330224523
 30
0.0
 10
21.6037055643
 20
67.6611286308
 30
0.0
 10
21.6988786972
 20
67.7284394377
 30
0.0
 10
21.8770638926
 20
67.8959835736
 30
0.0
 10
22.0649922723
 20
68.1538679443
 30
0.0
 10
22.193475229
 20
68.445854932
 30
0.0
 10
22.2485868421
 20
68.6838282158
 30
0.0
 10
22.2588080192
 20
68.7997238422
 30
0.0
 10
22.2588080192
 20
68.8553760807
 30
0.0
  0
SPLINE
  5
292
100
AcDbEntity
  8
0
100
AcDbSpline
 62
7
  6
CONTINUOUS
 70
0
 71
3
 72
11
 73
7
 74
0
 42
0.0000001
 43
0.0000001
 44
0.0000000001
 40
0.0
 40
0.0
 40
0.0
 40
0.0
 40
0.2642527887
 40
0.520043149
 40
0.7657299387
 40
1.0
 40
1.0
 40
1.0
 40
1.0
 10
15.5427757934
 20
62.5946053215
 30
0.0
 10
16.0049052317
 20
63.1118267788
 30
0.0
 10
16.9487149117
 20
64.0997088066
 30
0.0
 10
18.4386512856
 20
65.4513271198
 30
0.0
 10
19.966120595
 20
66.6361235187
 30
0.0
 10
21.0243840267
 20
67.323189743
 30
0.0
 10
21.555523733
 20
67.6330224523
 30
0.0
  0
SPLINE
  5
293
100
AcDbEntity
  8
0
100
AcDbSpline
 62
7
  6
CONTINUOUS
 70
0
 71
3
 72
11
 73
7
 74
0
 42
0.0000001
 43
0.0000001
 44
0.0000000001
 40
0.0
 40
0.0
 40
0.0
 40
0.0
 40
0.2177825102
 40
0.4509091639
 40
0.7102957096
 40
1.0
 40
1.0
 40
1.0
 40
1.0
 10
57.7721375483
 20
32.742950376
 30
0.0
 10
57.689670945
 20
32.790561424
 30
0.0
 10
57.5353791063
 20
32.9202730573
 30
0.0
 10
57.3711173754
 20
33.1888479202
 30
0.0
 10
57.2735556229
 20
33.5198329686
 30
0.0
 10
57.2543505092
 20
33.7607340093
 30
0.0
 10
57.2543505092
 20
33.8874049421
 30
0.0
  0
SPLINE
  5
294
100
AcDbEntity
  8
0
100
AcDbSpline
 62
7
  6
CONTINUOUS
 70
0
 71
3
 72
11
 73
7
 74
0
 42
0.0000001
 43
0.0000001
 44
0.0000000001
 40
0.0
 40
0.0
 40
0.0
 40
0.0
 40
0.2177231375
 40
0.4508717887
 40
0.7104673698
 40
1.0
 40
1.0
 40
1.0
 40
1.0
 10
29.1773311253
 20
29.4290770143
 30
0.0
 10
29.1443532696
 20
29.4481146663
 30
0.0
 10
29.0825983306
 20
29.4999375086
 30
0.0
 10
29.0168817092
 20
29.6074116361
 30
0.0
 10
28.9779300085
 20
29.7398295501
 30
0.0
 10
28.9701970207
 20
29.8361877442
 30
0.0
 10
28.9701970207
 20
29.8868252859
 30
0.0
  0
SPLINE
  5
295
100
AcDbEntity
  8
0
100
AcDbSpline
 62
7
  6
CONTINUOUS
 70
0
 71
3
 72
11
 73
7
 74
0
 42
0.0000001
 43
0.0000001
 44
0.0000000001
 40
0.0
 40
0.0
 40
0.0
 40
0.0
 40
0.2177651606
 40
0.4508956102
 40
0.7103690052
 40
1.0
 40
1.0
 40
1.0
 40
1.0
 10
58.0221481438
 20
54.0784528348
 30
0.0
 10
57.9561954684
 20
54.1165647093
 30
0.0
 10
57.8326954377
 20
54.2202322655
 30
0.0
 10
57.7013037721
 20
54.4351605803
 30
0.0
 10
57.6233022677
 20
54.6999562359
 30
0.0
 10
57.6079024278
 20
54.8926781273
 30
0.0
 10
57.6079024278
 20
54.9939888975
 30
0.0
  0
SPLINE
  5
296
100
AcDbEntity
  8
0
100
AcDbSpline
 62
7
  6
CONTINUOUS
 70
0
 71
3
 72
19
 73
15
 74
0
 42
0.0000001
 43
0.0000001
 44
0.0000000001
 40
0.0
 40
0.0
 40
0.0
 40
0.0
 40
0.0428394104
 40
0.0874448899
 40
0.1352571039
 40
0.1871950253
 40
0.2436735499
 40
0.3046656819
 40
0.4382689093
 40
0.5825434307
 40
0.7296392143
 40
0.871166535
 40
0.9376088396
 40
1.0
 40
1.0
 40
1.0
 40
1.0
 10
26.9460299472
 20
20.5469805944
 30
0.0
 10
27.0199865311
 20
20.5896866446
 30
0.0
 10
27.183036284
 20
20.6573898928
 30
0.0
 10
27.4521403334
 20
20.6968937994
 30
0.0
 10
27.7411309894
 20
20.6755794114
 30
0.0
 10
28.0435741184
 20
20.5952453981
 30
0.0
 10
28.3535649833
 20
20.4582795607
 30
0.0
 10
28.7814644994
 20
20.1963435314
 30
0.0
 10
29.2912287434
 20
19.744911023
 30
0.0
 10
29.8151677064
 20
19.074123504
 30
0.0
 10
30.2277298942
 20
18.3117513083
 30
0.0
 10
30.4560167425
 20
17.6370396576
 30
0.0
 10
30.5504002912
 20
17.1055746702
 30
0.0
 10
30.5673472896
 20
16.8485652438
 30
0.0
 10
30.5673472896
 20
16.724187095
 30
0.0
  0
SPLINE
  5
297
100
AcDbEntity
  8
0
100
AcDbSpline
 62
7
  6
CONTINUOUS
 70
0
 71
3
 72
13
 73
9
 74
0
 42
0.0000001
 43
0.0000001
 44
0.0000000001
 40
0.0
 40
0.0
 40
0.0
 40
0.0
 40
0.1142260229
 40
0.2375602528
 40
0.5000015383
 40
0.7624419778
 40
0.8857752456
 40
1.0
 40
1.0
 40
1.0
 40
1.0
 10
9.8871697084
 20
59.696937577
 30
0.0
 10
9.8871697084
 20
59.7807401642
 30
0.0
 10
9.9025443373
 20
59.9552011278
 30
0.0
 10
9.9858831908
 20
60.3133403432
 30
0.0
 10
10.1795699807
 20
60.7526025771
 30
0.0
 10
10.4631364046
 20
61.1399723953
 30
0.0
 10
10.7316223709
 20
61.3912147199
 30
0.0
 10
10.8750213775
 20
61.4917590858
 30
0.0
 10
10.9475958492
 20
61.5336597265
 30
0.0
  0
SPLINE
  5
298
100
AcDbEntity
  8
0
100
AcDbSpline
 62
7
  6
CONTINUOUS
 70
0
 71
3
 72
11
 73
7
 74
0
 42
0.0000001
 43
0.0000001
 44
0.0000000001
 40
0.0
 40
0.0
 40
0.0
 40
0.0
 40
0.2043673255
 40
0.4256221896
 40
0.6840146034
 40
1.0
 40
1.0
 40
1.0
 40
1.0
 10
22.7424048821
 20
39.8337294451
 30
0.0
 10
22.7886431671
 20
39.8070429
 30
0.0
 10
22.8947663667
 20
39.7669531843
 30
0.0
 10
23.0758234662
 20
39.7592908429
 30
0.0
 10
23.2801274175
 20
39.8069696387
 30
0.0
 10
23.4170050442
 20
39.8704007333
 30
0.0
 10
23.4896192188
 20
39.9096539823
 30
0.0
  0
SPLINE
  5
299
100
AcDbEntity
  8
0
100
AcDbSpline
 62
7
  6
CONTINUOUS
 70
0
 71
3
 72
10
 73
6
 74
0
 42
0.0000001
 43
0.0000001
 44
0.0000000001
 40
0.0
 40
0.0
 40
0.0
 40
0.0
 40
0.2503065779
 40
0.5006299523
 40
1.0
 40
1.0
 40
1.0
 40
1.0
 10
18.9191851649
 20
42.0408872657
 30
0.0
 10
18.7817947509
 20
42.1202795288
 30
0.0
 10
18.5151021848
 20
42.2939119163
 30
0.0
 10
18.0241311121
 20
42.6954779556
 30
0.0
 10
17.7119030822
 20
43.0653712205
 30
0.0
 10
17.5510610523
 20
43.3380382271
 30
0.0
  0
SPLINE
  5
29A
100
AcDbEntity
  8
0
100
AcDbSpline
 62
7
  6
CONTINUOUS
 70
0
 71
3
 72
19
 73
15
 74
0
 42
0.0000001
 43
0.0000001
 44
0.0000000001
 40
0.0
 40
0.0
 40
0.0
 40
0.0
 40
0.0428394104
 40
0.0874448899
 40
0.1352571039
 40
0.1871950253
 40
0.2436735499
 40
0.3046656819
 40
0.4382689093
 40
0.5825434307
 40
0.7296392143
 40
0.871166535
 40
0.9376088396
 40
1.0
 40
1.0
 40
1.0
 40
1.0
 10
26.9460299472
 20
75.252642542
 30
0.0
 10
27.0199865311
 20
75.2953485923
 30
0.0
 10
27.183036284
 20
75.3630518404
 30
0.0
 10
27.4521403334
 20
75.4025557471
 30
0.0
 10
27.7411309894
 20
75.3812413591
 30
0.0
 10
28.0435741184
 20
75.3009073458
 30
0.0
 10
28.3535649833
 20
75.1639415083
 30
0.0
 10
28.7814644994
 20
74.9020054791
 30
0.0
 10
29.2912287434
 20
74.4505729707
 30
0.0
 10
29.8151677064
 20
73.7797854517
 30
0.0
 10
30.2277298942
 20
73.017413256
 30
0.0
 10
30.4560167425
 20
72.3427016053
 30
0.0
 10
30.5504002912
 20
71.8112366179
 30
0.0
 10
30.5673472896
 20
71.5542271915
 30
0.0
 10
30.5673472896
 20
71.4298490427
 30
0.0
  0
SPLINE
  5
29B
100
AcDbEntity
  8
0
100
AcDbSpline
 62
7
  6
CONTINUOUS
 70
0
 71
3
 72
12
 73
8
 74
0
 42
0.0000001
 43
0.0000001
 44
0.0000000001
 40
0.0
 40
0.0
 40
0.0
 40
0.0
 40
0.1081503316
 40
0.2183608732
 40
0.4513297381
 40
0.7104733704
 40
1.0
 40
1.0
 40
1.0
 40
1.0
 10
25.3571217546
 20
47.2746900645
 30
0.0
 10
25.3079514859
 20
47.3030771245
 30
0.0
 10
25.2134251497
 20
47.3690941137
 30
0.0
 10
25.043858174
 20
47.5359226727
 30
0.0
 10
24.8757855718
 20
47.8097443108
 30
0.0
 10
24.7590102642
 20
48.2066976854
 30
0.0
 10
24.7359175592
 20
48.495753786
 30
0.0
 10
24.7359175592
 20
48.647748059
 30
0.0
  0
SPLINE
  5
29C
100
AcDbEntity
  8
0
100
AcDbSpline
 62
7
  6
CONTINUOUS
 70
0
 71
3
 72
13
 73
9
 74
0
 42
0.0000001
 43
0.0000001
 44
0.0000000001
 40
0.0
 40
0.0
 40
0.0
 40
0.0
 40
0.1081163058
 40
0.2182571601
 40
0.451155244
 40
0.5771780552
 40
0.7105521925
 40
1.0
 40
1.0
 40
1.0
 40
1.0
 10
10.9225055239
 20
48.5880121475
 30
0.0
 10
10.8405428043
 20
48.6353309308
 30
0.0
 10
10.6829668508
 20
48.745321805
 30
0.0
 10
10.4003422077
 20
49.0233283676
 30
0.0
 10
10.1819390349
 20
49.3792389562
 30
0.0
 10
10.0311628373
 20
49.7835798685
 30
0.0
 10
9.9167191755
 20
50.2511869902
 30
0.0
 10
9.8871697084
 20
50.6230778192
 30
0.0
 10
9.8871697084
 20
50.8764501895
 30
0.0
  0
SPLINE
  5
29D
100
AcDbEntity
  8
0
100
AcDbSpline
 62
7
  6
CONTINUOUS
 70
0
 71
3
 72
11
 73
7
 74
0
 42
0.0000001
 43
0.0000001
 44
0.0000000001
 40
0.0
 40
0.0
 40
0.0
 40
0.0
 40
0.2187110597
 40
0.4522642901
 40
0.711471125
 40
1.0
 40
1.0
 40
1.0
 40
1.0
 10
28.2278372304
 20
21.0008265753
 30
0.0
 10
28.2761764873
 20
20.9729127282
 30
0.0
 10
28.3867947728
 20
20.9321205789
 30
0.0
 10
28.5706937127
 20
20.9255646674
 30
0.0
 10
28.7668114293
 20
20.9702211896
 30
0.0
 10
28.8947877743
 20
21.0286919853
 30
0.0
 10
28.9591151362
 20
21.0645346267
 30
0.0
  0
SPLINE
  5
29E
100
AcDbEntity
  8
0
100
AcDbSpline
 62
7
  6
CONTINUOUS
 70
0
 71
3
 72
11
 73
7
 74
0
 42
0.0000001
 43
0.0000001
 44
0.0000000001
 40
0.0
 40
0.0
 40
0.0
 40
0.0
 40
0.2177488625
 40
0.4508835943
 40
0.7104460086
 40
1.0
 40
1.0
 40
1.0
 40
1.0
 10
15.8534170393
 20
28.1450397755
 30
0.0
 10
15.803958898
 20
28.1735997633
 30
0.0
 10
15.7113254412
 20
28.2512950834
 30
0.0
 10
15.6127918096
 20
28.4124812999
 30
0.0
 10
15.554364899
 20
28.6110508671
 30
0.0
 10
15.5427757934
 20
28.7555557853
 30
0.0
 10
15.5427757934
 20
28.8315011088
 30
0.0
  0
SPLINE
  5
29F
100
AcDbEntity
  8
0
100
AcDbSpline
 62
7
  6
CONTINUOUS
 70
0
 71
3
 72
11
 73
7
 74
0
 42
0.0000001
 43
0.0000001
 44
0.0000000001
 40
0.0
 40
0.0
 40
0.0
 40
0.0
 40
0.2179960674
 40
0.4512129181
 40
0.7105180725
 40
1.0
 40
1.0
 40
1.0
 40
1.0
 10
34.9429928147
 20
8.3861524429
 30
0.0
 10
34.9920824695
 20
8.3578125733
 30
0.0
 10
35.1047761135
 20
8.3167975978
 30
0.0
 10
35.2919648754
 20
8.3116290286
 30
0.0
 10
35.4915140218
 20
8.3591899116
 30
0.0
 10
35.6214171276
 20
8.4204688972
 30
0.0
 10
35.6867282791
 20
8.4578866435
 30
0.0
  0
SPLINE
  5
2A0
100
AcDbEntity
  8
0
100
AcDbSpline
 62
7
  6
CONTINUOUS
 70
0
 71
3
 72
11
 73
7
 74
0
 42
0.0000001
 43
0.0000001
 44
0.0000000001
 40
0.0
 40
0.0
 40
0.0
 40
0.0
 40
0.2177828198
 40
0.4509097388
 40
0.7102941641
 40
1.0
 40
1.0
 40
1.0
 40
1.0
 10
22.5685726243
 20
15.5303656463
 30
0.0
 10
22.5192367849
 20
15.5588476694
 30
0.0
 10
22.4269335465
 20
15.6364487213
 30
0.0
 10
22.3286641383
 20
15.797120511
 30
0.0
 10
22.2702969625
 20
15.9951301214
 30
0.0
 10
22.2588080192
 20
16.1392476654
 30
0.0
 10
22.2588080192
 20
16.2150282153
 30
0.0
  0
SPLINE
  5
2A1
100
AcDbEntity
  8
0
100
AcDbSpline
 62
7
  6
CONTINUOUS
 70
0
 71
3
 72
11
 73
7
 74
0
 42
0.0000001
 43
0.0000001
 44
0.0000000001
 40
0.0
 40
0.0
 40
0.0
 40
0.0
 40
0.2895161052
 40
0.5491679737
 40
0.78232675
 40
1.0
 40
1.0
 40
1.0
 40
1.0
 10
67.5058162025
 20
44.8983817031
 30
0.0
 10
67.5058161812
 20
44.9489972168
 30
0.0
 10
67.4980728975
 20
45.0453228457
 30
0.0
 10
67.4591469048
 20
45.1777079391
 30
0.0
 10
67.3934216043
 20
45.2851179213
 30
0.0
 10
67.3317263365
 20
45.3369504502
 30
0.0
 10
67.298769223
 20
45.3559778012
 30
0.0
  0
SPLINE
  5
2A2
100
AcDbEntity
  8
0
100
AcDbSpline
 62
7
  6
CONTINUOUS
 70
0
 71
3
 72
13
 73
9
 74
0
 42
0.0000001
 43
0.0000001
 44
0.0000000001
 40
0.0
 40
0.0
 40
0.0
 40
0.0
 40
0.1142216451
 40
0.2374311599
 40
0.4992187269
 40
0.7614320774
 40
0.885141268
 40
1.0
 40
1.0
 40
1.0
 40
1.0
 10
66.7803747864
 20
26.5329674898
 30
0.0
 10
66.8294490876
 20
26.5617348388
 30
0.0
 10
66.9263955437
 20
26.6303881774
 30
0.0
 10
67.1081614569
 20
26.8008550327
 30
0.0
 10
67.3006745492
 20
27.0630461166
 30
0.0
 10
67.4336806108
 20
27.3601306339
 30
0.0
 10
67.4926372946
 20
27.6030430383
 30
0.0
 10
67.5048209029
 20
27.7217697317
 30
0.0
 10
67.5058162025
 20
27.7789628626
 30
0.0
  0
SPLINE
  5
2A3
100
AcDbEntity
  8
0
100
AcDbSpline
 62
7
  6
CONTINUOUS
 70
0
 71
3
 72
11
 73
7
 74
0
 42
0.0000001
 43
0.0000001
 44
0.0000000001
 40
0.0
 40
0.0
 40
0.0
 40
0.0
 40
0.2885288374
 40
0.5477358614
 40
0.7812890728
 40
1.0
 40
1.0
 40
1.0
 40
1.0
 10
33.9386154413
 20
23.8390684864
 30
0.0
 10
33.981500343
 20
23.8629635772
 30
0.0
 10
34.0668179467
 20
23.9019440657
 30
0.0
 10
34.1975631001
 20
23.9317151527
 30
0.0
 10
34.3201623935
 20
23.927344484
 30
0.0
 10
34.3939079035
 20
23.9001497592
 30
0.0
 10
34.4261340454
 20
23.8815405233
 30
0.0
  0
SPLINE
  5
2A4
100
AcDbEntity
  8
0
100
AcDbSpline
 62
7
  6
CONTINUOUS
 70
0
 71
3
 72
9
 73
5
 74
0
 42
0.0000001
 43
0.0000001
 44
0.0000000001
 40
0.0
 40
0.0
 40
0.0
 40
0.0
 40
0.5164934965
 40
1.0
 40
1.0
 40
1.0
 40
1.0
 10
24.1813753983
 20
54.2019357301
 30
0.0
 10
24.1813753983
 20
54.2100009077
 30
0.0
 10
24.1804603948
 20
54.225606619
 30
0.0
 10
24.1780767555
 20
54.2411107125
 30
0.0
 10
24.1761221439
 20
54.248403391
 30
0.0
  0
SPLINE
  5
2A5
100
AcDbEntity
  8
0
100
AcDbSpline
 62
7
  6
CONTINUOUS
 70
0
 71
3
 72
11
 73
7
 74
0
 42
0.0000001
 43
0.0000001
 44
0.0000000001
 40
0.0
 40
0.0
 40
0.0
 40
0.0
 40
0.2519022364
 40
0.5144960793
 40
0.7693783073
 40
1.0
 40
1.0
 40
1.0
 40
1.0
 10
24.0526034354
 20
53.9312014585
 30
0.0
 10
24.0717458637
 20
53.948482196
 30
0.0
 10
24.1068409498
 20
53.9883229755
 30
0.0
 10
24.1474497006
 20
54.0563033557
 30
0.0
 10
24.1740279047
 20
54.1285817381
 30
0.0
 10
24.1813753983
 20
54.178325654
 30
0.0
 10
24.1813753983
 20
54.2019357301
 30
0.0
  0
SPLINE
  5
2A6
100
AcDbEntity
  8
0
100
AcDbSpline
 62
7
  6
CONTINUOUS
 70
0
 71
3
 72
11
 73
7
 74
0
 42
0.0000001
 43
0.0000001
 44
0.0000000001
 40
0.0
 40
0.0
 40
0.0
 40
0.0
 40
0.27205618
 40
0.526421066
 40
0.7669395747
 40
1.0
 40
1.0
 40
1.0
 40
1.0
 10
65.3051197795
 20
91.8481409967
 30
0.0
 10
65.2857395683
 20
91.9168519446
 30
0.0
 10
65.2384838329
 20
92.0473843373
 30
0.0
 10
65.1380641017
 20
92.2231046661
 30
0.0
 10
65.011588355
 20
92.3680306533
 30
0.0
 10
64.9106494467
 20
92.4425642737
 30
0.0
 10
64.8576758864
 20
92.4731287521
 30
0.0
  0
SPLINE
  5
2A7
100
AcDbEntity
  8
0
100
AcDbSpline
 62
7
  6
CONTINUOUS
 70
0
 71
3
 72
11
 73
7
 74
0
 42
0.0000001
 43
0.0000001
 44
0.0000000001
 40
0.0
 40
0.0
 40
0.0
 40
0.0
 40
0.237242511
 40
0.4999983851
 40
0.7627553013
 40
1.0
 40
1.0
 40
1.0
 40
1.0
 10
67.1526342544
 20
73.3275745648
 30
0.0
 10
67.2028702925
 20
73.356608722
 30
0.0
 10
67.2979756312
 20
73.4366084015
 30
0.0
 10
67.4089471848
 20
73.5882834591
 30
0.0
 10
67.4848002291
 20
73.7602218746
 30
0.0
 10
67.5065685053
 20
73.882586994
 30
0.0
 10
67.5065685053
 20
73.9406102987
 30
0.0
  0
SPLINE
  5
2A8
100
AcDbEntity
  8
0
100
AcDbSpline
 62
7
  6
CONTINUOUS
 70
0
 71
3
 72
11
 73
7
 74
0
 42
0.0000001
 43
0.0000001
 44
0.0000000001
 40
0.0
 40
0.0
 40
0.0
 40
0.0
 40
0.2177180596
 40
0.4509447287
 40
0.7102968642
 40
1.0
 40
1.0
 40
1.0
 40
1.0
 10
65.7597255323
 20
72.6429782151
 30
0.0
 10
65.7762146314
 20
72.633455149
 30
0.0
 10
65.8141219232
 20
72.619713324
 30
0.0
 10
65.8770734091
 20
72.6180914229
 30
0.0
 10
65.9441695567
 20
72.6343158777
 30
0.0
 10
65.9878183556
 20
72.6550753933
 30
0.0
 10
66.0097626785
 20
72.6677412915
 30
0.0
  0
SPLINE
  5
2A9
100
AcDbEntity
  8
0
100
AcDbSpline
 62
7
  6
CONTINUOUS
 70
0
 71
3
 72
17
 73
13
 74
0
 42
0.0000001
 43
0.0000001
 44
0.0000000001
 40
0.0
 40
0.0
 40
0.0
 40
0.0
 40
0.1286891333
 40
0.2702803493
 40
0.4174326844
 40
0.5617743804
 40
0.6954465661
 40
0.8127104963
 40
0.8646756522
 40
0.91250911
 40
0.9571392634
 40
1.0
 40
1.0
 40
1.0
 40
1.0
 10
57.6079024278
 20
54.9939888975
 30
0.0
 10
57.6079024278
 20
55.1649384764
 30
0.0
 10
57.6557278729
 20
55.5243859424
 30
0.0
 10
57.8342196301
 20
56.0521553621
 30
0.0
 10
58.1092752817
 20
56.5605609639
 30
0.0
 10
58.4587719141
 20
57.0079193864
 30
0.0
 10
58.8541570111
 20
57.3580965026
 30
0.0
 10
59.212035834
 20
57.5537894325
 30
0.0
 10
59.491986656
 20
57.628257327
 30
0.0
 10
59.6846618803
 20
57.6424468706
 30
0.0
 10
59.8640745685
 20
57.6161542116
 30
0.0
 10
59.9727752042
 20
57.5709886022
 30
0.0
 10
60.0220720608
 20
57.5425015757
 30
0.0
  0
SPLINE
  5
2AA
100
AcDbEntity
  8
0
100
AcDbSpline
 62
7
  6
CONTINUOUS
 70
0
 71
3
 72
17
 73
13
 74
0
 42
0.0000001
 43
0.0000001
 44
0.0000000001
 40
0.0
 40
0.0
 40
0.0
 40
0.0
 40
0.1286849204
 40
0.270303802
 40
0.4174438806
 40
0.5617821443
 40
0.6954492858
 40
0.8127130378
 40
0.8646795618
 40
0.9125091497
 40
0.9571393989
 40
1.0
 40
1.0
 40
1.0
 40
1.0
 10
28.9701970207
 20
29.8868252859
 30
0.0
 10
28.9701970207
 20
29.9722966619
 30
0.0
 10
28.9941264671
 20
30.1520317307
 30
0.0
 10
29.0833525648
 20
30.4159292003
 30
0.0
 10
29.220910344
 20
30.6701241008
 30
0.0
 10
29.3956405179
 20
30.8937926838
 30
0.0
 10
29.5933337946
 20
31.0688807209
 30
0.0
 10
29.7722757937
 20
31.1666885722
 30
0.0
 10
29.9122386853
 20
31.2039816181
 30
0.0
 10
30.0085737915
 20
31.2110202406
 30
0.0
 10
30.0982902192
 20
31.1979346565
 30
0.0
 10
30.1526162139
 20
31.1752944899
 30
0.0
 10
30.1772705905
 20
31.1610618652
 30
0.0
  0
SPLINE
  5
2AB
100
AcDbEntity
  8
0
100
AcDbSpline
 62
7
  6
CONTINUOUS
 70
0
 71
3
 72
11
 73
7
 74
0
 42
0.0000001
 43
0.0000001
 44
0.0000000001
 40
0.0
 40
0.0
 40
0.0
 40
0.0
 40
0.289702809
 40
0.549088757
 40
0.7822160314
 40
1.0
 40
1.0
 40
1.0
 40
1.0
 10
59.0221101023
 20
41.0317834552
 30
0.0
 10
59.1318056056
 20
41.0951158056
 30
0.0
 10
59.3500253041
 20
41.1989292533
 30
0.0
 10
59.6854336849
 20
41.2799273408
 30
0.0
 10
60.0001452257
 20
41.2719615915
 30
0.0
 10
60.1896187671
 20
41.2032018442
 30
0.0
 10
60.2720826562
 20
41.1555923632
 30
0.0
  0
SPLINE
  5
2AC
100
AcDbEntity
  8
0
100
AcDbSpline
 62
7
  6
CONTINUOUS
 70
0
 71
3
 72
15
 73
11
 74
0
 42
0.0000001
 43
0.0000001
 44
0.0000000001
 40
0.0
 40
0.0
 40
0.0
 40
0.0
 40
0.1141242661
 40
0.2373486253
 40
0.3669740476
 40
0.5000015346
 40
0.6330288076
 40
0.7626536034
 40
0.8858770013
 40
1.0
 40
1.0
 40
1.0
 40
1.0
 10
57.2543505092
 20
37.9699170277
 30
0.0
 10
57.2543505092
 20
38.1096182494
 30
0.0
 10
57.2800013849
 20
38.4004244487
 30
0.0
 10
57.3819557298
 20
38.8391236095
 30
0.0
 10
57.5454780046
 20
39.2834939533
 30
0.0
 10
57.7641877639
 20
39.7168092234
 30
0.0
 10
58.0300924588
 20
40.1228757627
 30
0.0
 10
58.3331643775
 20
40.4866749924
 30
0.0
 10
58.6621085167
 20
40.7943180807
 30
0.0
 10
58.9011264584
 20
40.9619339328
 30
0.0
 10
59.0221101023
 20
41.0317834552
 30
0.0
  0
SPLINE
  5
2AD
100
AcDbEntity
  8
0
100
AcDbSpline
 62
7
  6
CONTINUOUS
 70
0
 71
3
 72
11
 73
7
 74
0
 42
0.0000001
 43
0.0000001
 44
0.0000000001
 40
0.0
 40
0.0
 40
0.0
 40
0.0
 40
0.289702809
 40
0.549088757
 40
0.7822160314
 40
1.0
 40
1.0
 40
1.0
 40
1.0
 10
46.2942410324
 20
70.0993964895
 30
0.0
 10
46.4039365358
 20
70.1627288399
 30
0.0
 10
46.6221562343
 20
70.2665422876
 30
0.0
 10
46.957564615
 20
70.3475403751
 30
0.0
 10
47.2722761558
 20
70.3395746258
 30
0.0
 10
47.4617496973
 20
70.2708148785
 30
0.0
 10
47.5442135864
 20
70.2232053975
 30
0.0
  0
SPLINE
  5
2AE
100
AcDbEntity
  8
0
100
AcDbSpline
 62
7
  6
CONTINUOUS
 70
0
 71
3
 72
15
 73
11
 74
0
 42
0.0000001
 43
0.0000001
 44
0.0000000001
 40
0.0
 40
0.0
 40
0.0
 40
0.0
 40
0.1141242661
 40
0.2373486253
 40
0.3669740476
 40
0.5000015346
 40
0.6330288076
 40
0.7626536034
 40
0.8858770013
 40
1.0
 40
1.0
 40
1.0
 40
1.0
 10
40.9909622533
 20
64.9963092927
 30
0.0
 10
40.9909622533
 20
65.1360105143
 30
0.0
 10
41.016613129
 20
65.4268167137
 30
0.0
 10
41.1185674739
 20
65.8655158745
 30
0.0
 10
41.2820897487
 20
66.3098862183
 30
0.0
 10
41.500799508
 20
66.7432014883
 30
0.0
 10
41.7667042029
 20
67.1492680276
 30
0.0
 10
42.0697761216
 20
67.5130672574
 30
0.0
 10
42.3987202608
 20
67.8207103457
 30
0.0
 10
42.6377382025
 20
67.9883261978
 30
0.0
 10
42.7587218464
 20
68.0581757202
 30
0.0
  0
SPLINE
  5
2AF
100
AcDbEntity
  8
0
100
AcDbSpline
 62
7
  6
CONTINUOUS
 70
0
 71
3
 72
11
 73
7
 74
0
 42
0.0000001
 43
0.0000001
 44
0.0000000001
 40
0.0
 40
0.0
 40
0.0
 40
0.0
 40
0.2897030037
 40
0.5490834836
 40
0.7821945523
 40
1.0
 40
1.0
 40
1.0
 40
1.0
 10
65.3248911189
 20
47.0986945347
 30
0.0
 10
65.3248911189
 20
47.1746804973
 30
0.0
 10
65.3133801191
 20
47.3191905438
 30
0.0
 10
65.2548333364
 20
47.5177254562
 30
0.0
 10
65.1563257013
 20
47.6788471614
 30
0.0
 10
65.0637711088
 20
47.7566730638
 30
0.0
 10
65.0142873856
 20
47.7852207584
 30
0.0
  0
SPLINE
  5
2B0
100
AcDbEntity
  8
0
100
AcDbSpline
 62
7
  6
CONTINUOUS
 70
0
 71
3
 72
18
 73
14
 74
0
 42
0.0000001
 43
0.0000001
 44
0.0000000001
 40
0.0
 40
0.0
 40
0.0
 40
0.0
 40
0.0430282129
 40
0.0884218543
 40
0.1373356302
 40
0.1904203686
 40
0.2479117216
 40
0.3096513421
 40
0.4438139058
 40
0.5874178769
 40
0.7330103712
 40
0.8728037924
 40
1.0
 40
1.0
 40
1.0
 40
1.0
 10
52.2844193987
 20
91.7172909963
 30
0.0
 10
52.277669425
 20
91.6616792854
 30
0.0
 10
52.2492193824
 20
91.5487846736
 30
0.0
 10
52.1667407162
 20
91.3886834807
 30
0.0
 10
52.0460320413
 20
91.2380977196
 30
0.0
 10
51.8902647129
 20
91.0995569494
 30
0.0
 10
51.702449164
 20
90.9756408984
 30
0.0
 10
51.4063537649
 20
90.8286711375
 30
0.0
 10
50.9806194787
 20
90.6985916966
 30
0.0
 10
50.4311961746
 20
90.6313047646
 30
0.0
 10
49.8705403725
 20
90.6537631175
 30
0.0
 10
49.3423678166
 20
90.7640690781
 30
0.0
 10
49.0185339716
 20
90.8991755453
 30
0.0
 10
48.8751185188
 20
90.9819746224
 30
0.0
  0
SPLINE
  5
2B1
100
AcDbEntity
  8
0
100
AcDbSpline
 62
7
  6
CONTINUOUS
 70
0
 71
3
 72
12
 73
8
 74
0
 42
0.0000001
 43
0.0000001
 44
0.0000000001
 40
0.0
 40
0.0
 40
0.0
 40
0.0
 40
0.2894832083
 40
0.5486755374
 40
0.7816290778
 40
0.8918324007
 40
1.0
 40
1.0
 40
1.0
 40
1.0
 10
30.5673472896
 20
16.724187095
 30
0.0
 10
30.5673472896
 20
16.5721831972
 30
0.0
 10
30.5442283747
 20
16.2830629816
 30
0.0
 10
30.4274507092
 20
15.8860355156
 30
0.0
 10
30.2593855136
 20
15.6120965527
 30
0.0
 10
30.0897243434
 20
15.4452966454
 30
0.0
 10
29.9951922092
 20
15.3792404179
 30
0.0
 10
29.9460062812
 20
15.3508381228
 30
0.0
  0
SPLINE
  5
2B2
100
AcDbEntity
  8
0
100
AcDbSpline
 62
7
  6
CONTINUOUS
 70
0
 71
3
 72
12
 73
8
 74
0
 42
0.0000001
 43
0.0000001
 44
0.0000000001
 40
0.0
 40
0.0
 40
0.0
 40
0.0
 40
0.2894832083
 40
0.5486755374
 40
0.7816290778
 40
0.8918324007
 40
1.0
 40
1.0
 40
1.0
 40
1.0
 10
30.5673472896
 20
71.4298490427
 30
0.0
 10
30.5673472896
 20
71.2778451449
 30
0.0
 10
30.5442283747
 20
70.9887249292
 30
0.0
 10
30.4274507092
 20
70.5916974633
 30
0.0
 10
30.2593855136
 20
70.3177585004
 30
0.0
 10
30.0897243434
 20
70.1509585931
 30
0.0
 10
29.9951922092
 20
70.0849023655
 30
0.0
 10
29.9460062812
 20
70.0565000705
 30
0.0
  0
SPLINE
  5
2B3
100
AcDbEntity
  8
0
100
AcDbSpline
 62
7
  6
CONTINUOUS
 70
0
 71
3
 72
11
 73
7
 74
0
 42
0.0000001
 43
0.0000001
 44
0.0000000001
 40
0.0
 40
0.0
 40
0.0
 40
0.0
 40
0.2897058347
 40
0.5490901904
 40
0.7822171358
 40
1.0
 40
1.0
 40
1.0
 40
1.0
 10
34.6332282092
 20
9.0708150108
 30
0.0
 10
34.6332282092
 20
8.9950344609
 30
0.0
 10
34.6447171272
 20
8.8509169331
 30
0.0
 10
34.7030843175
 20
8.6529073345
 30
0.0
 10
34.8013537222
 20
8.4922355538
 30
0.0
 10
34.8936569525
 20
8.41463445
 30
0.0
 10
34.9429928147
 20
8.3861524429
 30
0.0
  0
SPLINE
  5
2B4
100
AcDbEntity
  8
0
100
AcDbSpline
 62
7
  6
CONTINUOUS
 70
0
 71
3
 72
11
 73
7
 74
0
 42
0.0000001
 43
0.0000001
 44
0.0000000001
 40
0.0
 40
0.0
 40
0.0
 40
0.0
 40
0.2177651606
 40
0.4508956102
 40
0.7103690052
 40
1.0
 40
1.0
 40
1.0
 40
1.0
 10
60.0220720608
 20
57.5425015757
 30
0.0
 10
60.0880247362
 20
57.5043897012
 30
0.0
 10
60.2115247668
 20
57.4007221451
 30
0.0
 10
60.3429164325
 20
57.1857938302
 30
0.0
 10
60.4209179368
 20
56.9209981747
 30
0.0
 10
60.4363177767
 20
56.7282762832
 30
0.0
 10
60.4363177767
 20
56.626965513
 30
0.0
  0
SPLINE
  5
2B5
100
AcDbEntity
  8
0
100
AcDbSpline
 62
7
  6
CONTINUOUS
 70
0
 71
3
 72
9
 73
5
 74
0
 42
0.0000001
 43
0.0000001
 44
0.0000000001
 40
0.0
 40
0.0
 40
0.0
 40
0.0
 40
0.2550908205
 40
1.0
 40
1.0
 40
1.0
 40
1.0
 10
64.659893918
 20
46.7248848655
 30
0.0
 10
64.6654988754
 20
46.7263867359
 30
0.0
 10
64.6875547354
 20
46.7319559467
 30
0.0
 10
64.7099431
 20
46.7362274452
 30
0.0
 10
64.7267233148
 20
46.738583736
 30
0.0
  0
SPLINE
  5
2B6
100
AcDbEntity
  8
0
100
AcDbSpline
 62
7
  6
CONTINUOUS
 70
0
 71
3
 72
9
 73
5
 74
0
 42
0.0000001
 43
0.0000001
 44
0.0000000001
 40
0.0
 40
0.0
 40
0.0
 40
0.0
 40
0.5197634828
 40
1.0
 40
1.0
 40
1.0
 40
1.0
 10
64.7267233148
 20
46.738583736
 30
0.0
 10
64.7708440108
 20
46.7447791984
 30
0.0
 10
64.8580659002
 20
46.7459777994
 30
0.0
 10
64.9411005098
 20
46.7171476555
 30
0.0
 10
64.9767509582
 20
46.6965653433
 30
0.0
  0
SPLINE
  5
2B7
100
AcDbEntity
  8
0
100
AcDbSpline
 62
7
  6
CONTINUOUS
 70
0
 71
3
 72
11
 73
7
 74
0
 42
0.0000001
 43
0.0000001
 44
0.0000000001
 40
0.0
 40
0.0
 40
0.0
 40
0.0
 40
0.2179470069
 40
0.4527123807
 40
0.712591706
 40
1.0
 40
1.0
 40
1.0
 40
1.0
 10
52.285634946
 20
91.7856575534
 30
0.0
 10
52.2782260644
 20
91.8564961788
 30
0.0
 10
52.2388249683
 20
92.0018729509
 30
0.0
 10
52.1155247302
 20
92.2023661838
 30
0.0
 10
51.9335256334
 20
92.3844048171
 30
0.0
 10
51.7848757108
 20
92.4856315577
 30
0.0
 10
51.7035338677
 20
92.5325932303
 30
0.0
  0
SPLINE
  5
2B8
100
AcDbEntity
  8
0
100
AcDbSpline
 62
7
  6
CONTINUOUS
 70
0
 71
3
 72
11
 73
7
 74
0
 42
0.0000001
 43
0.0000001
 44
0.0000000001
 40
0.0
 40
0.0
 40
0.0
 40
0.0
 40
0.289553961
 40
0.5491165647
 40
0.7822512711
 40
1.0
 40
1.0
 40
1.0
 40
1.0
 10
27.9171959834
 20
21.6872879047
 30
0.0
 10
27.9171959834
 20
21.6113425903
 30
0.0
 10
27.9287851743
 20
21.4668376463
 30
0.0
 10
27.9872119997
 20
21.2682680151
 30
0.0
 10
28.0857457043
 20
21.1070818385
 30
0.0
 10
28.1783791059
 20
21.0293865204
 30
0.0
 10
28.2278372304
 20
21.0008265753
 30
0.0
  0
SPLINE
  5
2B9
100
AcDbEntity
  8
0
100
AcDbSpline
 62
7
  6
CONTINUOUS
 70
0
 71
3
 72
13
 73
9
 74
0
 42
0.0000001
 43
0.0000001
 44
0.0000000001
 40
0.0
 40
0.0
 40
0.0
 40
0.0
 40
0.2894478075
 40
0.4228219448
 40
0.548844756
 40
0.7817428399
 40
0.8918836942
 40
1.0
 40
1.0
 40
1.0
 40
1.0
 10
22.2615898984
 20
43.7322369854
 30
0.0
 10
22.2615898984
 20
43.4788646151
 30
0.0
 10
22.2911393656
 20
43.1069737861
 30
0.0
 10
22.4055830273
 20
42.6393666644
 30
0.0
 10
22.5563592249
 20
42.2350257521
 30
0.0
 10
22.7747623977
 20
41.8791151635
 30
0.0
 10
23.0573870409
 20
41.6011086009
 30
0.0
 10
23.2149629944
 20
41.4911177267
 30
0.0
 10
23.296925714
 20
41.4437989434
 30
0.0
  0
SPLINE
  5
2BA
100
AcDbEntity
  8
0
100
AcDbSpline
 62
7
  6
CONTINUOUS
 70
0
 71
3
 72
18
 73
14
 74
0
 42
0.0000001
 43
0.0000001
 44
0.0000000001
 40
0.0
 40
0.0
 40
0.0
 40
0.0
 40
0.0428406443
 40
0.0874502122
 40
0.1352645757
 40
0.1872097386
 40
0.2436973335
 40
0.3046986913
 40
0.4383311322
 40
0.582640002
 40
0.7297673687
 40
0.8713373855
 40
1.0
 40
1.0
 40
1.0
 40
1.0
 10
48.2893619647
 20
91.798388997
 30
0.0
 10
48.2893390933
 20
91.8553107637
 30
0.0
 10
48.3045831607
 20
91.9719999677
 30
0.0
 10
48.3714951724
 20
92.1404925796
 30
0.0
 10
48.4801350236
 20
92.300195174
 30
0.0
 10
48.6273169985
 20
92.4480108806
 30
0.0
 10
48.8097492927
 20
92.5812579757
 30
0.0
 10
49.1035855986
 20
92.7409930561
 30
0.0
 10
49.5341777336
 20
92.8847373799
 30
0.0
 10
50.0960268024
 20
92.9635807219
 30
0.0
 10
50.6739581543
 20
92.9475747803
 30
0.0
 10
51.2202628139
 20
92.8382326134
 30
0.0
 10
51.5554840516
 20
92.699920648
 30
0.0
 10
51.7035338677
 20
92.6144459805
 30
0.0
  0
SPLINE
  5
2BB
100
AcDbEntity
  8
0
100
AcDbSpline
 62
7
  6
CONTINUOUS
 70
0
 71
3
 72
13
 73
9
 74
0
 42
0.0000001
 43
0.0000001
 44
0.0000000001
 40
0.0
 40
0.0
 40
0.0
 40
0.0
 40
0.1142247162
 40
0.2375579183
 40
0.4999983243
 40
0.7624396433
 40
0.8857739388
 40
1.0
 40
1.0
 40
1.0
 40
1.0
 10
23.3220160393
 20
54.3894465224
 30
0.0
 10
23.2494415919
 20
54.3475458958
 30
0.0
 10
23.1060426332
 20
54.2470015952
 30
0.0
 10
22.8375567417
 20
53.9957593369
 30
0.0
 10
22.5539903012
 20
53.608389599
 30
0.0
 10
22.3603034335
 20
53.1691273393
 30
0.0
 10
22.2769645601
 20
52.810988026
 30
0.0
 10
22.2615898984
 20
52.6365269881
 30
0.0
 10
22.2615898984
 20
52.5527243729
 30
0.0
  0
SPLINE
  5
2BC
100
AcDbEntity
  8
0
100
AcDbSpline
 62
7
  6
CONTINUOUS
 70
0
 71
3
 72
11
 73
7
 74
0
 42
0.0000001
 43
0.0000001
 44
0.0000000001
 40
0.0
 40
0.0
 40
0.0
 40
0.0
 40
0.2896586258
 40
0.5491345301
 40
0.7822532901
 40
1.0
 40
1.0
 40
1.0
 40
1.0
 10
51.7035338677
 20
92.6144459805
 30
0.0
 10
51.7912729984
 20
92.5637909157
 30
0.0
 10
51.9504727386
 20
92.4541010072
 30
0.0
 10
52.1407900911
 20
92.2541729758
 30
0.0
 10
52.2612198234
 20
92.0329530959
 30
0.0
 10
52.2892598204
 20
91.8741913261
 30
0.0
 10
52.2892904218
 20
91.7980316059
 30
0.0
  0
SPLINE
  5
2BD
100
AcDbEntity
  8
0
100
AcDbSpline
 62
7
  6
CONTINUOUS
 70
0
 71
3
 72
19
 73
15
 74
0
 42
0.0000001
 43
0.0000001
 44
0.0000000001
 40
0.0
 40
0.0
 40
0.0
 40
0.0
 40
0.0428394104
 40
0.0874448899
 40
0.1352571039
 40
0.1871950253
 40
0.2436735499
 40
0.3046656819
 40
0.4382689093
 40
0.5825434307
 40
0.7296392143
 40
0.871166535
 40
0.9376088396
 40
1.0
 40
1.0
 40
1.0
 40
1.0
 10
29.9460062812
 20
70.0565000705
 30
0.0
 10
29.8720496972
 20
70.0137940203
 30
0.0
 10
29.7089999444
 20
69.9460907721
 30
0.0
 10
29.4398958949
 20
69.9065868654
 30
0.0
 10
29.150905239
 20
69.9279012535
 30
0.0
 10
28.84846211
 20
70.0082352668
 30
0.0
 10
28.5384712451
 20
70.1452011042
 30
0.0
 10
28.1105717289
 20
70.4071371335
 30
0.0
 10
27.600807485
 20
70.8585696419
 30
0.0
 10
27.076868522
 20
71.5293571609
 30
0.0
 10
26.6643063342
 20
72.2917293566
 30
0.0
 10
26.4360194859
 20
72.9664410073
 30
0.0
 10
26.3416359372
 20
73.4979059947
 30
0.0
 10
26.3246889387
 20
73.7549154211
 30
0.0
 10
26.3246889387
 20
73.8792935698
 30
0.0
  0
SPLINE
  5
2BE
100
AcDbEntity
  8
0
100
AcDbSpline
 62
7
  6
CONTINUOUS
 70
0
 71
3
 72
11
 73
7
 74
0
 42
0.0000001
 43
0.0000001
 44
0.0000000001
 40
0.0
 40
0.0
 40
0.0
 40
0.0
 40
0.2194889743
 40
0.4533519122
 40
0.7120857728
 40
1.0
 40
1.0
 40
1.0
 40
1.0
 10
64.8576758864
 20
92.4731287521
 30
0.0
 10
64.7793204359
 20
92.5183379747
 30
0.0
 10
64.6005315486
 20
92.584718565
 30
0.0
 10
64.3035291234
 20
92.5977488131
 30
0.0
 10
63.9863915111
 20
92.5291881195
 30
0.0
 10
63.7791149847
 20
92.437236341
 30
0.0
 10
63.6747833379
 20
92.3807028962
 30
0.0
  0
SPLINE
  5
2BF
100
AcDbEntity
  8
0
100
AcDbSpline
 62
7
  6
CONTINUOUS
 70
0
 71
3
 72
18
 73
14
 74
0
 42
0.0000001
 43
0.0000001
 44
0.0000000001
 40
0.0
 40
0.0
 40
0.0
 40
0.0
 40
0.127043083
 40
0.2666437895
 40
0.4120676116
 40
0.5555894771
 40
0.6897992739
 40
0.7516112612
 40
0.8092024439
 40
0.8624047209
 40
0.9114370274
 40
0.9569267981
 40
1.0
 40
1.0
 40
1.0
 40
1.0
 10
51.7035338677
 20
92.5325932303
 30
0.0
 10
51.5605770007
 20
92.6151275488
 30
0.0
 10
51.2378735221
 20
92.7499035235
 30
0.0
 10
50.7115074727
 20
92.8602584083
 30
0.0
 10
50.1525895356
 20
92.8832944443
 30
0.0
 10
49.6044323479
 20
92.8170721994
 30
0.0
 10
49.1792256152
 20
92.6882649225
 30
0.0
 10
48.8829651322
 20
92.5424960798
 30
0.0
 10
48.6946719432
 20
92.4194575833
 30
0.0
 10
48.5381133873
 20
92.2818013352
 30
0.0
 10
48.4162880911
 20
92.1320817456
 30
0.0
 10
48.3323502506
 20
91.9727917898
 30
0.0
 10
48.3026482268
 20
91.86028696
 30
0.0
 10
48.2952488705
 20
91.8048117632
 30
0.0
  0
SPLINE
  5
2C0
100
AcDbEntity
  8
0
100
AcDbSpline
 62
7
  6
CONTINUOUS
 70
0
 71
3
 72
11
 73
7
 74
0
 42
0.0000001
 43
0.0000001
 44
0.0000000001
 40
0.0
 40
0.0
 40
0.0
 40
0.0
 40
0.2177488625
 40
0.4508835943
 40
0.7104460086
 40
1.0
 40
1.0
 40
1.0
 40
1.0
 10
34.4261340454
 20
23.8815405233
 30
0.0
 10
34.4591061396
 20
23.8625005314
 30
0.0
 10
34.5208617774
 20
23.8107036514
 30
0.0
 10
34.5865508651
 20
23.7032461738
 30
0.0
 10
34.6255021388
 20
23.5708664624
 30
0.0
 10
34.6332282092
 20
23.4745298504
 30
0.0
 10
34.6332282092
 20
23.4238996348
 30
0.0
  0
SPLINE
  5
2C1
100
AcDbEntity
  8
0
100
AcDbSpline
 62
7
  6
CONTINUOUS
 70
0
 71
3
 72
11
 73
7
 74
0
 42
0.0000001
 43
0.0000001
 44
0.0000000001
 40
0.0
 40
0.0
 40
0.0
 40
0.0
 40
0.2177231375
 40
0.4508717887
 40
0.7104673698
 40
1.0
 40
1.0
 40
1.0
 40
1.0
 10
30.1772705905
 20
31.1610618652
 30
0.0
 10
30.2102484462
 20
31.1420242132
 30
0.0
 10
30.2720033852
 20
31.0902013708
 30
0.0
 10
30.3377200066
 20
30.9827272434
 30
0.0
 10
30.3766717073
 20
30.8503093294
 30
0.0
 10
30.3844046951
 20
30.7539511353
 30
0.0
 10
30.3844046951
 20
30.7033135936
 30
0.0
  0
SPLINE
  5
2C2
100
AcDbEntity
  8
0
100
AcDbSpline
 62
7
  6
CONTINUOUS
 70
0
 71
3
 72
12
 73
8
 74
0
 42
0.0000001
 43
0.0000001
 44
0.0000000001
 40
0.0
 40
0.0
 40
0.0
 40
0.0
 40
0.2894832083
 40
0.5486755374
 40
0.7816290778
 40
0.8918324007
 40
1.0
 40
1.0
 40
1.0
 40
1.0
 10
26.3246889387
 20
19.1736316222
 30
0.0
 10
26.3246889387
 20
19.32563552
 30
0.0
 10
26.3478078537
 20
19.6147557356
 30
0.0
 10
26.4645855191
 20
20.0117832015
 30
0.0
 10
26.6326507148
 20
20.2857221645
 30
0.0
 10
26.802311885
 20
20.4525220718
 30
0.0
 10
26.8968440192
 20
20.5185782993
 30
0.0
 10
26.9460299472
 20
20.5469805944
 30
0.0
  0
SPLINE
  5
2C3
100
AcDbEntity
  8
0
100
AcDbSpline
 62
7
  6
CONTINUOUS
 70
0
 71
3
 72
11
 73
7
 74
0
 42
0.0000001
 43
0.0000001
 44
0.0000000001
 40
0.0
 40
0.0
 40
0.0
 40
0.0
 40
0.2177825102
 40
0.4509091639
 40
0.7102957096
 40
1.0
 40
1.0
 40
1.0
 40
1.0
 10
47.5442135864
 20
70.2232053975
 30
0.0
 10
47.6266801897
 20
70.1755943494
 30
0.0
 10
47.7809720284
 20
70.0458827161
 30
0.0
 10
47.9452337592
 20
69.7773078532
 30
0.0
 10
48.0427955118
 20
69.4463228048
 30
0.0
 10
48.0620006255
 20
69.2054217641
 30
0.0
 10
48.0620006255
 20
69.0787508314
 30
0.0
  0
SPLINE
  5
2C4
100
AcDbEntity
  8
0
100
AcDbSpline
 62
7
  6
CONTINUOUS
 70
0
 71
3
 72
15
 73
11
 74
0
 42
0.0000001
 43
0.0000001
 44
0.0000000001
 40
0.0
 40
0.0
 40
0.0
 40
0.0
 40
0.1141229605
 40
0.2373462928
 40
0.366971064
 40
0.4999983279
 40
0.633025824
 40
0.762651271
 40
0.8858756957
 40
1.0
 40
1.0
 40
1.0
 40
1.0
 10
45.6578422798
 20
66.3843010829
 30
0.0
 10
45.7788258831
 20
66.4541505819
 30
0.0
 10
46.0178437454
 20
66.6217663246
 30
0.0
 10
46.3467877662
 20
66.9294093106
 30
0.0
 10
46.649859648
 20
67.2932084095
 30
0.0
 10
46.9157643746
 20
67.6992748929
 30
0.0
 10
47.1344741982
 20
68.1325901635
 30
0.0
 10
47.2979965679
 20
68.5769606046
 30
0.0
 10
47.3999509421
 20
69.0156599192
 30
0.0
 10
47.4256018728
 20
69.306466242
 30
0.0
 10
47.4256018728
 20
69.4461675104
 30
0.0
  0
SPLINE
  5
2C5
100
AcDbEntity
  8
0
100
AcDbSpline
 62
7
  6
CONTINUOUS
 70
0
 71
3
 72
10
 73
6
 74
0
 42
0.0000001
 43
0.0000001
 44
0.0000000001
 40
0.0
 40
0.0
 40
0.0
 40
0.0
 40
0.2785421116
 40
0.537974013
 40
1.0
 40
1.0
 40
1.0
 40
1.0
 10
47.4256018728
 20
69.4461675104
 30
0.0
 10
47.4256018728
 20
69.5328150923
 30
0.0
 10
47.4162487505
 20
69.7005246614
 30
0.0
 10
47.3592648753
 20
70.0065246775
 30
0.0
 10
47.2683821321
 20
70.2184278542
 30
0.0
 10
47.1849391291
 20
70.3354496873
 30
0.0
  0
SPLINE
  5
2C6
100
AcDbEntity
  8
0
100
AcDbSpline
 62
7
  6
CONTINUOUS
 70
0
 71
3
 72
11
 73
7
 74
0
 42
0.0000001
 43
0.0000001
 44
0.0000000001
 40
0.0
 40
0.0
 40
0.0
 40
0.0
 40
0.2890626683
 40
0.5489980567
 40
0.7822658392
 40
1.0
 40
1.0
 40
1.0
 40
1.0
 10
27.9171959834
 20
48.152781325
 30
0.0
 10
27.9171959834
 20
48.1275095301
 30
0.0
 10
27.9211376836
 20
48.0793636016
 30
0.0
 10
27.9405213889
 20
48.0131503642
 30
0.0
 10
27.9733640797
 20
47.9593715413
 30
0.0
 10
28.0042312672
 20
47.9334331399
 30
0.0
 10
28.0207281205
 20
47.9239349973
 30
0.0
  0
SPLINE
  5
2C7
100
AcDbEntity
  8
0
100
AcDbSpline
 62
7
  6
CONTINUOUS
 70
0
 71
3
 72
11
 73
7
 74
0
 42
0.0000001
 43
0.0000001
 44
0.0000000001
 40
0.0
 40
0.0
 40
0.0
 40
0.0
 40
0.2342700613
 40
0.479956851
 40
0.7357472113
 40
1.0
 40
1.0
 40
1.0
 40
1.0
 10
33.9299439231
 20
60.4888092482
 30
0.0
 10
33.3988042167
 20
60.1789765389
 30
0.0
 10
32.3405407851
 20
59.4919103146
 30
0.0
 10
30.8130714757
 20
58.3071139157
 30
0.0
 10
29.3231351018
 20
56.9554956025
 30
0.0
 10
28.3793254218
 20
55.9676135747
 30
0.0
 10
27.9171959834
 20
55.4503921174
 30
0.0
  0
SPLINE
  5
2C8
100
AcDbEntity
  8
0
100
AcDbSpline
 62
7
  6
CONTINUOUS
 70
0
 71
3
 72
13
 73
9
 74
0
 42
0.0000001
 43
0.0000001
 44
0.0000000001
 40
0.0
 40
0.0
 40
0.0
 40
0.0
 40
0.1141128168
 40
0.2374158713
 40
0.4996772978
 40
0.7621151006
 40
0.8856246819
 40
1.0
 40
1.0
 40
1.0
 40
1.0
 10
34.6332282092
 20
61.7111628766
 30
0.0
 10
34.6332282092
 20
61.6555105985
 30
0.0
 10
34.6230069687
 20
61.5396148594
 30
0.0
 10
34.5678953497
 20
61.3016414146
 30
0.0
 10
34.4394122575
 20
61.0096543842
 30
0.0
 10
34.2514838468
 20
60.7517701518
 30
0.0
 10
34.0732987874
 20
60.5842261021
 30
0.0
 10
33.9781257202
 20
60.5169154068
 30
0.0
 10
33.9299439231
 20
60.4888092482
 30
0.0
  0
SPLINE
  5
2C9
100
AcDbEntity
  8
0
100
AcDbSpline
 62
7
  6
CONTINUOUS
 70
0
 71
3
 72
12
 73
8
 74
0
 42
0.0000001
 43
0.0000001
 44
0.0000000001
 40
0.0
 40
0.0
 40
0.0
 40
0.0
 40
0.2894832083
 40
0.5486755374
 40
0.7816290778
 40
0.8918324007
 40
1.0
 40
1.0
 40
1.0
 40
1.0
 10
26.3246889387
 20
73.8792935698
 30
0.0
 10
26.3246889387
 20
74.0312974677
 30
0.0
 10
26.3478078537
 20
74.3204176833
 30
0.0
 10
26.4645855191
 20
74.7174451492
 30
0.0
 10
26.6326507148
 20
74.9913841122
 30
0.0
 10
26.802311885
 20
75.1581840194
 30
0.0
 10
26.8968440192
 20
75.224240247
 30
0.0
 10
26.9460299472
 20
75.252642542
 30
0.0
  0
SPLINE
  5
2CA
100
AcDbEntity
  8
0
100
AcDbSpline
 62
7
  6
CONTINUOUS
 70
0
 71
3
 72
13
 73
9
 74
0
 42
0.0000001
 43
0.0000001
 44
0.0000000001
 40
0.0
 40
0.0
 40
0.0
 40
0.0
 40
0.1142195391
 40
0.2375497213
 40
0.4999898982
 40
0.7624355996
 40
0.8857722641
 40
1.0
 40
1.0
 40
1.0
 40
1.0
 10
35.6938183436
 20
76.2309800692
 30
0.0
 10
35.6212354461
 20
76.1890858162
 30
0.0
 10
35.4778179056
 20
76.0885490933
 30
0.0
 10
35.2092928618
 20
75.8373064165
 30
0.0
 10
34.9256806333
 20
75.4499115676
 30
0.0
 10
34.7319603986
 20
75.0106084809
 30
0.0
 10
34.6486059353
 20
74.652430588
 30
0.0
 10
34.6332282092
 20
74.4779500562
 30
0.0
 10
34.6332282092
 20
74.3941382818
 30
0.0
  0
SPLINE
  5
2CB
100
AcDbEntity
  8
0
100
AcDbSpline
 62
7
  6
CONTINUOUS
 70
0
 71
3
 72
10
 73
6
 74
0
 42
0.0000001
 43
0.0000001
 44
0.0000000001
 40
0.0
 40
0.0
 40
0.0
 40
0.0
 40
0.2785421116
 40
0.537974013
 40
1.0
 40
1.0
 40
1.0
 40
1.0
 10
60.1534709427
 20
40.3785544761
 30
0.0
 10
60.1534709427
 20
40.465202058
 30
0.0
 10
60.1441178204
 20
40.6329116271
 30
0.0
 10
60.0871339451
 20
40.9389116432
 30
0.0
 10
59.996251202
 20
41.1508148199
 30
0.0
 10
59.912808199
 20
41.267836653
 30
0.0
  0
SPLINE
  5
2CC
100
AcDbEntity
  8
0
100
AcDbSpline
 62
7
  6
CONTINUOUS
 70
0
 71
3
 72
15
 73
11
 74
0
 42
0.0000001
 43
0.0000001
 44
0.0000000001
 40
0.0
 40
0.0
 40
0.0
 40
0.0
 40
0.1141229605
 40
0.2373462928
 40
0.366971064
 40
0.4999983279
 40
0.633025824
 40
0.762651271
 40
0.8858756957
 40
1.0
 40
1.0
 40
1.0
 40
1.0
 10
58.3857113496
 20
33.234175963
 30
0.0
 10
58.506694953
 20
33.304025462
 30
0.0
 10
58.7457128153
 20
33.4716412047
 30
0.0
 10
59.074656836
 20
33.7792841907
 30
0.0
 10
59.3777287178
 20
34.1430832896
 30
0.0
 10
59.6436334444
 20
34.549149773
 30
0.0
 10
59.862343268
 20
34.9824650436
 30
0.0
 10
60.0258656377
 20
35.4268354847
 30
0.0
 10
60.1278200119
 20
35.8655347992
 30
0.0
 10
60.1534709427
 20
36.1563411221
 30
0.0
 10
60.1534709427
 20
36.2960423905
 30
0.0
  0
SPLINE
  5
2CD
100
AcDbEntity
  8
0
100
AcDbSpline
 62
7
  6
CONTINUOUS
 70
0
 71
3
 72
19
 73
15
 74
0
 42
0.0000001
 43
0.0000001
 44
0.0000000001
 40
0.0
 40
0.0
 40
0.0
 40
0.0
 40
0.0428394104
 40
0.0874448899
 40
0.1352571039
 40
0.1871950253
 40
0.2436735499
 40
0.3046656819
 40
0.4382689093
 40
0.5825434307
 40
0.7296392143
 40
0.871166535
 40
0.9376088396
 40
1.0
 40
1.0
 40
1.0
 40
1.0
 10
29.9460062812
 20
15.3508381228
 30
0.0
 10
29.8720496972
 20
15.3081320726
 30
0.0
 10
29.7089999444
 20
15.2404288244
 30
0.0
 10
29.4398958949
 20
15.2009249178
 30
0.0
 10
29.150905239
 20
15.2222393058
 30
0.0
 10
28.84846211
 20
15.3025733191
 30
0.0
 10
28.5384712451
 20
15.4395391565
 30
0.0
 10
28.1105717289
 20
15.7014751858
 30
0.0
 10
27.600807485
 20
16.1529076942
 30
0.0
 10
27.076868522
 20
16.8236952132
 30
0.0
 10
26.6643063342
 20
17.5860674089
 30
0.0
 10
26.4360194859
 20
18.2607790596
 30
0.0
 10
26.3416359372
 20
18.792244047
 30
0.0
 10
26.3246889387
 20
19.0492534734
 30
0.0
 10
26.3246889387
 20
19.1736316222
 30
0.0
  0
SPLINE
  5
2CE
100
AcDbEntity
  8
0
100
AcDbSpline
 62
7
  6
CONTINUOUS
 70
0
 71
3
 72
10
 73
6
 74
0
 42
0.0000001
 43
0.0000001
 44
0.0000000001
 40
0.0
 40
0.0
 40
0.0
 40
0.0
 40
0.4620294686
 40
0.7214605962
 40
1.0
 40
1.0
 40
1.0
 40
1.0
 10
41.2319363675
 20
64.1068645256
 30
0.0
 10
41.3749902007
 20
64.0931208683
 30
0.0
 10
41.6039224287
 20
64.1203699788
 30
0.0
 10
41.8973895821
 20
64.2240139558
 30
0.0
 10
42.0472917302
 20
64.2997611942
 30
0.0
 10
42.1223230937
 20
64.3430803136
 30
0.0
  0
SPLINE
  5
2CF
100
AcDbEntity
  8
0
100
AcDbSpline
 62
7
  6
CONTINUOUS
 70
0
 71
3
 72
11
 73
7
 74
0
 42
0.0000001
 43
0.0000001
 44
0.0000000001
 40
0.0
 40
0.0
 40
0.0
 40
0.0
 40
0.285102639
 40
0.5511346958
 40
0.7924771961
 40
1.0
 40
1.0
 40
1.0
 40
1.0
 10
19.1819111434
 20
43.819550392
 30
0.0
 10
19.0219788893
 20
43.792530303
 30
0.0
 10
18.7135640828
 20
43.7352735119
 30
0.0
 10
18.2758563209
 20
43.6256438071
 30
0.0
 10
17.8893537596
 20
43.4978759695
 30
0.0
 10
17.6551084075
 20
43.3942391034
 30
0.0
 10
17.5512494778
 20
43.3380957891
 30
0.0
  0
SPLINE
  5
2D0
100
AcDbEntity
  8
0
100
AcDbSpline
 62
7
  6
CONTINUOUS
 70
0
 71
3
 72
11
 73
7
 74
0
 42
0.0000001
 43
0.0000001
 44
0.0000000001
 40
0.0
 40
0.0
 40
0.0
 40
0.0
 40
0.2331786173
 40
0.479455085
 40
0.7362800602
 40
1.0
 40
1.0
 40
1.0
 40
1.0
 10
22.6614666589
 20
41.8106761423
 30
0.0
 10
22.7090304207
 20
41.6563764739
 30
0.0
 10
22.8183154584
 20
41.3426515717
 30
0.0
 10
23.0076108379
 20
40.8691148185
 30
0.0
 10
23.2274417934
 20
40.3855488896
 30
0.0
 10
23.3966973563
 20
40.0668339998
 30
0.0
 10
23.4894782272
 20
39.9095474849
 30
0.0
  0
SPLINE
  5
2D1
100
AcDbEntity
  8
0
100
AcDbSpline
 62
7
  6
CONTINUOUS
 70
0
 71
3
 72
17
 73
13
 74
0
 42
0.0000001
 43
0.0000001
 44
0.0000000001
 40
0.0
 40
0.0
 40
0.0
 40
0.0
 40
0.1286891333
 40
0.2702803493
 40
0.4174326844
 40
0.5617743804
 40
0.6954465661
 40
0.8127104963
 40
0.8646756522
 40
0.91250911
 40
0.9571392634
 40
1.0
 40
1.0
 40
1.0
 40
1.0
 10
60.4363177767
 20
56.626965513
 30
0.0
 10
60.4363177767
 20
56.4560159341
 30
0.0
 10
60.3884923316
 20
56.0965684682
 30
0.0
 10
60.2100005744
 20
55.5687990485
 30
0.0
 10
59.9349449228
 20
55.0603934467
 30
0.0
 10
59.5854482904
 20
54.6130350241
 30
0.0
 10
59.1900631934
 20
54.2628579079
 30
0.0
 10
58.8321843705
 20
54.067164978
 30
0.0
 10
58.5522335486
 20
53.9926970835
 30
0.0
 10
58.3595583242
 20
53.9785075399
 30
0.0
 10
58.180145636
 20
54.004800199
 30
0.0
 10
58.0714450003
 20
54.0499658083
 30
0.0
 10
58.0221481438
 20
54.0784528348
 30
0.0
  0
SPLINE
  5
2D2
100
AcDbEntity
  8
0
100
AcDbSpline
 62
7
  6
CONTINUOUS
 70
0
 71
3
 72
17
 73
13
 74
0
 42
0.0000001
 43
0.0000001
 44
0.0000000001
 40
0.0
 40
0.0
 40
0.0
 40
0.0
 40
0.1286849204
 40
0.270303802
 40
0.4174438806
 40
0.5617821443
 40
0.6954492858
 40
0.8127130378
 40
0.8646795618
 40
0.9125091497
 40
0.9571393989
 40
1.0
 40
1.0
 40
1.0
 40
1.0
 10
30.3844046951
 20
30.7033135936
 30
0.0
 10
30.3844046951
 20
30.6178422176
 30
0.0
 10
30.3604752487
 20
30.4381071488
 30
0.0
 10
30.271249151
 20
30.1742096792
 30
0.0
 10
30.1336913718
 20
29.9200147786
 30
0.0
 10
29.9589611979
 20
29.6963461957
 30
0.0
 10
29.7612679212
 20
29.5212581586
 30
0.0
 10
29.5823259221
 20
29.4234503073
 30
0.0
 10
29.4423630305
 20
29.3861572614
 30
0.0
 10
29.3460279243
 20
29.3791186389
 30
0.0
 10
29.2563114966
 20
29.3922042229
 30
0.0
 10
29.2019855019
 20
29.4148443896
 30
0.0
 10
29.1773311253
 20
29.4290770143
 30
0.0
  0
SPLINE
  5
2D3
100
AcDbEntity
  8
0
100
AcDbSpline
 62
7
  6
CONTINUOUS
 70
0
 71
3
 72
15
 73
11
 74
0
 42
0.0000001
 43
0.0000001
 44
0.0000000001
 40
0.0
 40
0.0
 40
0.0
 40
0.0
 40
0.1141242661
 40
0.2373486253
 40
0.3669740476
 40
0.5000015346
 40
0.6330288076
 40
0.7626536034
 40
0.8858770013
 40
1.0
 40
1.0
 40
1.0
 40
1.0
 10
60.7898696953
 20
35.9286257114
 30
0.0
 10
60.7898696953
 20
35.7889244898
 30
0.0
 10
60.7642188196
 20
35.4981182904
 30
0.0
 10
60.6622644747
 20
35.0594191296
 30
0.0
 10
60.4987421999
 20
34.6150487858
 30
0.0
 10
60.2800324406
 20
34.1817335158
 30
0.0
 10
60.0141277457
 20
33.7756669765
 30
0.0
 10
59.7110558271
 20
33.4118677467
 30
0.0
 10
59.3821116878
 20
33.1042246584
 30
0.0
 10
59.1430937461
 20
32.9366088063
 30
0.0
 10
59.0221101023
 20
32.8667592839
 30
0.0
  0
SPLINE
  5
2D4
100
AcDbEntity
  8
0
100
AcDbSpline
 62
7
  6
CONTINUOUS
 70
0
 71
3
 72
11
 73
7
 74
0
 42
0.0000001
 43
0.0000001
 44
0.0000000001
 40
0.0
 40
0.0
 40
0.0
 40
0.0
 40
0.2177825102
 40
0.4509091639
 40
0.7102957096
 40
1.0
 40
1.0
 40
1.0
 40
1.0
 10
60.2720826562
 20
41.1555923632
 30
0.0
 10
60.3545492596
 20
41.1079813151
 30
0.0
 10
60.5088410983
 20
40.9782696818
 30
0.0
 10
60.6731028291
 20
40.7096948189
 30
0.0
 10
60.7706645816
 20
40.3787097705
 30
0.0
 10
60.7898696953
 20
40.1378087298
 30
0.0
 10
60.7898696953
 20
40.0111377971
 30
0.0
  0
SPLINE
  5
2D5
100
AcDbEntity
  8
0
100
AcDbSpline
 62
7
  6
CONTINUOUS
 70
0
 71
3
 72
11
 73
7
 74
0
 42
0.0000001
 43
0.0000001
 44
0.0000000001
 40
0.0
 40
0.0
 40
0.0
 40
0.0
 40
0.289702809
 40
0.549088757
 40
0.7822160314
 40
1.0
 40
1.0
 40
1.0
 40
1.0
 10
59.0221101023
 20
32.8667592839
 30
0.0
 10
58.9124145989
 20
32.8034269336
 30
0.0
 10
58.6941949004
 20
32.6996134858
 30
0.0
 10
58.3587865197
 20
32.6186153984
 30
0.0
 10
58.0440749789
 20
32.6265811477
 30
0.0
 10
57.8546014374
 20
32.6953408949
 30
0.0
 10
57.7721375483
 20
32.742950376
 30
0.0
  0
SPLINE
  5
2D6
100
AcDbEntity
  8
0
100
AcDbSpline
 62
7
  6
CONTINUOUS
 70
0
 71
3
 72
11
 73
7
 74
0
 42
0.0000001
 43
0.0000001
 44
0.0000000001
 40
0.0
 40
0.0
 40
0.0
 40
0.0
 40
0.289702809
 40
0.549088757
 40
0.7822160314
 40
1.0
 40
1.0
 40
1.0
 40
1.0
 10
42.7587218464
 20
63.9756636345
 30
0.0
 10
42.649026343
 20
63.9123312842
 30
0.0
 10
42.4308066445
 20
63.8085178364
 30
0.0
 10
42.0953982638
 20
63.727519749
 30
0.0
 10
41.780686723
 20
63.7354854983
 30
0.0
 10
41.5912131815
 20
63.8042452455
 30
0.0
 10
41.5087492924
 20
63.8518547265
 30
0.0
  0
SPLINE
  5
2D7
100
AcDbEntity
  8
0
100
AcDbSpline
 62
7
  6
CONTINUOUS
 70
0
 71
3
 72
15
 73
11
 74
0
 42
0.0000001
 43
0.0000001
 44
0.0000000001
 40
0.0
 40
0.0
 40
0.0
 40
0.0
 40
0.1141242661
 40
0.2373486253
 40
0.3669740476
 40
0.5000015346
 40
0.6330288076
 40
0.7626536034
 40
0.8858770013
 40
1.0
 40
1.0
 40
1.0
 40
1.0
 10
48.0620006255
 20
69.0787508314
 30
0.0
 10
48.0620006255
 20
68.9390496097
 30
0.0
 10
48.0363497498
 20
68.6482434104
 30
0.0
 10
47.9343954049
 20
68.2095442496
 30
0.0
 10
47.7708731301
 20
67.7651739058
 30
0.0
 10
47.5521633707
 20
67.3318586357
 30
0.0
 10
47.2862586759
 20
66.9257920964
 30
0.0
 10
46.9831867572
 20
66.5619928667
 30
0.0
 10
46.654242618
 20
66.2543497784
 30
0.0
 10
46.4152246763
 20
66.0867339263
 30
0.0
 10
46.2942410324
 20
66.0168844039
 30
0.0
  0
SPLINE
  5
2D8
100
AcDbEntity
  8
0
100
AcDbSpline
 62
7
  6
CONTINUOUS
 70
0
 71
3
 72
10
 73
6
 74
0
 42
0.0000001
 43
0.0000001
 44
0.0000000001
 40
0.0
 40
0.0
 40
0.0
 40
0.0
 40
0.4620294686
 40
0.7214605962
 40
1.0
 40
1.0
 40
1.0
 40
1.0
 10
57.4953246234
 20
32.997960175
 30
0.0
 10
57.6383784566
 20
32.9842165178
 30
0.0
 10
57.8673106846
 20
33.0114656282
 30
0.0
 10
58.160777838
 20
33.1151096053
 30
0.0
 10
58.3106799861
 20
33.1908568437
 30
0.0
 10
58.3857113496
 20
33.234175963
 30
0.0
  0
ELLIPSE
  5
2D9
100
AcDbEntity
  8
0
100
AcDbEllipse
 62
7
  6
CONTINUOUS
 10
31.0773664556
 20
54.6594875986
 30
0.0
 11
0.4999995164
 21
0.8660303017
 31
0.0
 40
0.5773519923
 41
0.0
 42
6.2831853072
  0
ENDSEC
  0
SECTION
  2
OBJECTS
  0
DICTIONARY
  5
C
100
AcDbDictionary
280
0
281
1
  3
ACAD_GROUP
350
D
  3
ACAD_MLINESTYLE
350
17
  3
ACAD_LAYOUT
350
1A
  3
ACAD_PLOTSETTINGS
350
19
  3
ACAD_PLOTSTYLENAME
350
E
  0
DICTIONARY
  5
D
102
{ACAD_REACTORS
330
C
102
}
100
AcDbDictionary
280
0
281
1
  0
ACDBDICTIONARYWDFLT
  5
E
102
{ACAD_REACTORS
330
C
102
}
100
AcDbDictionary
281
1
  3
Normal
350
F
100
AcDbDictionaryWithDefault
340
F
  0
DICTIONARY
  5
17
102
{ACAD_REACTORS
330
C
102
}
100
AcDbDictionary
280
0
281
1
  3
Standard
350
18
  0
DICTIONARY
  5
19
102
{ACAD_REACTORS
330
C
102
}
100
AcDbDictionary
281
1
  0
DICTIONARY
  5
1A
102
{ACAD_REACTORS
330
C
102
}
100
AcDbDictionary
281
1
  3
Model
350
2DA
  3
Layout1
350
2DB
  0
ACDBPLACEHOLDER
  5
F
102
{ACAD_REACTORS
330
E
102
}
  0
MLINESTYLE
  5
18
102
{ACAD_REACTORS
330
17
102
}
100
AcDbMlineStyle
  2
STANDARD
 70
0
  3

 62
256
 51
90.0
 52
90.0
 71
2
 49
0.5
 62
256
  6
BYLAYER
 49
-0.5
 62
256
  6
BYLAYER
  0
LAYOUT
  5
2DA
102
{ACAD_REACTORS
330
1A
102
}
100
AcDbPlotSettings
  1

  2
none_device
  4

  6

 40
0.0
 41
0.0
 42
0.0
 43
0.0
 44
210.0
 45
297.0
 46
0.0
 47
0.0
 48
0.0
 49
0.0
140
0.0
141
0.0
142
1.0
143
1.0
 70
1024
 72
1
 73
0
 74
0
  7

 75
0
147
1.0
148
0.0
149
0.0
100
AcDbLayout
  1
Model
 70
0
 71
0
 10
0.0
 20
0.0
 11
210.0
 21
297.0
 12
0.0
 22
0.0
 32
0.0
 14
0.0
 24
0.0
 34
0.0
 15
0.0
 25
0.0
 35
0.0
146
0.0
 13
0.0
 23
0.0
 33
0.0
 16
1.0
 26
0.0
 36
0.0
 17
0.0
 27
1.0
 37
0.0
 76
0
330
210
345
0
346
0
  0
LAYOUT
  5
2DB
102
{ACAD_REACTORS
330
1A
102
}
100
AcDbPlotSettings
  1

  2
none_device
  4

  6

 40
0.0
 41
0.0
 42
0.0
 43
0.0
 44
210.0
 45
297.0
 46
0.0
 47
0.0
 48
0.0
 49
0.0
140
0.0
141
0.0
142
1.0
143
1.0
 70
0
 72
1
 73
0
 74
0
  7

 75
0
147
1.0
148
0.0
149
0.0
100
AcDbLayout
  1
Layout1
 70
0
 71
1
 10
0.0
 20
0.0
 11
210.0
 21
297.0
 12
0.0
 22
0.0
 32
0.0
 14
0.0
 24
0.0
 34
0.0
 15
0.0
 25
0.0
 35
0.0
146
0.0
 13
0.0
 23
0.0
 33
0.0
 16
1.0
 26
0.0
 36
0.0
 17
0.0
 27
1.0
 37
0.0
 76
0
330
211
345
0
346
0
  0
ENDSEC
  0
EOF
