999
DXF file: C:\Users\sesa63760\Dev\_Creo\CAD\MCADID0005253_3D-CAD\drw0001_1.dxf
999
Pro/ENGINEER 2019471 by Parametric Technology Corporation
  0
SECTION
  2
HEADER
  9
$ACADVER
  1
AC1024
  9
$DWGCODEPAGE
  3
ANSI_1252
  9
$EXTMAX
 10
80.1996885147
 20
113.4252737564
 30
0.0
  9
$EXTMIN
 10
0.0
 20
0.0
 30
0.0
  9
$LIMMIN
 10
0.0
 20
0.0
  9
$LIMMAX
 10
80.1996885147
 20
113.4252737564
  9
$VIEWCTR
 10
40.0998442573
 20
56.7126368782
  9
$VIEWSIZE
 40
113.4252737564
  9
$CLAYER
  8
0
  9
$LTSCALE
 40
7.3936474745
  9
$CELTYPE
  6
BYLAYER
  9
$DIMSCALE
 40
1.0
  9
$DIMASZ
 40
0.9547581966
  9
$DIMEXO
 40
1.0
  9
$DIMDLI
 40
5.1083382551
  9
$DIMEXE
 40
1.0
  9
$DIMCEN
 40
1.2098695867
  9
$DIMLFAC
 40
1.0
  9
$DIMBLK
  1
_FILLED
  9
$DIMALT
 70
0
  9
$DIMALTF
 40
0.0393700787
  9
$DIMTXT
 40
1.3366614752
  9
$DIMTOL
 70
1
  9
$DIMLIM
 70
0
  9
$DIMTFAC
 40
1.0
  9
$DIMTP
 40
0.01
  9
$DIMTM
 40
0.01
  9
$DIMGAP
 40
0.625
  9
$DIMDSEP
 70
46
  9
$AUNITS
 70
0
  9
$PDMODE
 70
3
  9
$PDSIZE
 40
0.3125
  9
$HANDSEED
  5
3E0
  9
$TILEMODE
 70
1
  9
$MEASUREMENT
 70
1
  9
$INSUNITS
 70
4
  0
ENDSEC
  0
SECTION
  2
CLASSES
  0
CLASS
  1
ACDBDICTIONARYWDFLT
  2
AcDbDictionaryWithDefault
  3
AutoCAD 2000
 90
0
 91
1
280
0
281
0
  0
CLASS
  1
ACDBPLACEHOLDER
  2
AcDbPlaceHolder
  3
AutoCAD 2000
 90
0
 91
1
280
0
281
0
  0
CLASS
  1
LAYOUT
  2
AcDbLayout
  3
AutoCAD 2000
 90
0
 91
0
280
0
281
0
  0
ENDSEC
  0
SECTION
  2
TABLES
  0
TABLE
  2
VPORT
  5
8
100
AcDbSymbolTable
 70
2
  0
VPORT
  5
1F4
100
AcDbSymbolTableRecord
100
AcDbViewportTableRecord
  2
*ACTIVE
 70
0
 10
0.0
 20
0.0
 11
1.0
 21
1.0
 12
40.0998442573
 22
56.7126368782
 13
0.0
 23
0.0
 14
1.0
 24
1.0
 15
0.0
 25
0.0
 16
0.0
 26
0.0
 36
1.0
 17
0.0
 27
0.0
 37
0.0
 40
113.4252737564
 41
0.7070707071
 42
50.0
 43
0.0
 44
0.0
 50
0.0
 51
0.0
 71
0
 72
100
 73
1
 74
1
 75
0
 76
0
 77
0
 78
0
  0
ENDTAB
  0
TABLE
  2
LTYPE
  5
5
100
AcDbSymbolTable
 70
6
  0
LTYPE
  5
14
100
AcDbSymbolTableRecord
100
AcDbLinetypeTableRecord
  2
BYBLOCK
 70
0
  3

 72
65
 73
0
 40
0.0
  0
LTYPE
  5
15
100
AcDbSymbolTableRecord
100
AcDbLinetypeTableRecord
  2
BYLAYER
 70
0
  3

 72
65
 73
0
 40
0.0
  0
LTYPE
  5
16
100
AcDbSymbolTableRecord
100
AcDbLinetypeTableRecord
  2
CONTINUOUS
 70
64
  3
Solid line
 72
65
 73
0
 40
0.0
  0
LTYPE
  5
1F5
100
AcDbSymbolTableRecord
100
AcDbLinetypeTableRecord
  2
CENTER
 70
64
  3
____ _ ____ _ ____ _ ____ _ ____ _ ____ _ ____
 72
65
 73
4
 40
0.6
 49
0.375
 74
0
 49
-0.075
 74
0
 49
0.075
 74
0
 49
-0.075
 74
0
  0
LTYPE
  5
1F6
100
AcDbSymbolTableRecord
100
AcDbLinetypeTableRecord
  2
HIDDEN
 70
64
  3
- - - - - - - - - - - - - - - - - - - -
 72
65
 73
2
 40
0.2
 49
0.1
 74
0
 49
-0.1
 74
0
  0
LTYPE
  5
1F7
100
AcDbSymbolTableRecord
100
AcDbLinetypeTableRecord
  2
PHANTOM
 70
64
  3
_____ _ _ _____ _ _ _____ _ _ _____
 72
65
 73
6
 40
0.8
 49
0.45
 74
0
 49
-0.05
 74
0
 49
0.1
 74
0
 49
-0.05
 74
0
 49
0.1
 74
0
 49
-0.05
 74
0
  0
LTYPE
  5
1F8
100
AcDbSymbolTableRecord
100
AcDbLinetypeTableRecord
  2
DOT
 70
64
  3
. . . . . . . . . . . . . . . . . . . .
 72
65
 73
2
 40
0.2
 49
0.1
 74
0
 49
-0.1
 74
0
  0
LTYPE
  5
1F9
100
AcDbSymbolTableRecord
100
AcDbLinetypeTableRecord
  2
DASHED
 70
64
  3
- - - - - - - - - - - - - - - - - - - -
 72
65
 73
2
 40
0.2
 49
0.1
 74
0
 49
-0.1
 74
0
  0
ENDTAB
  0
TABLE
  2
LAYER
  5
2
100
AcDbSymbolTable
 70
36
  0
LAYER
  5
10
100
AcDbSymbolTableRecord
100
AcDbLayerTableRecord
  2
0
 70
0
 62
7
  6
CONTINUOUS
370
-3
390
F
  0
LAYER
  5
1FA
100
AcDbSymbolTableRecord
100
AcDbLayerTableRecord
  2
DEFAULT_1
 70
0
 62
7
  6
CENTER
370
-3
390
F
  0
LAYER
  5
1FB
100
AcDbSymbolTableRecord
100
AcDbLayerTableRecord
  2
DEFAULT_2
 70
0
 62
7
  6
HIDDEN
370
-3
390
F
  0
LAYER
  5
1FC
100
AcDbSymbolTableRecord
100
AcDbLayerTableRecord
  2
DEFAULT_3
 70
0
 62
7
  6
PHANTOM
370
-3
390
F
  0
LAYER
  5
1FD
100
AcDbSymbolTableRecord
100
AcDbLayerTableRecord
  2
00_COMPONENTS
 70
0
 62
7
  6
CONTINUOUS
370
-3
390
F
  0
LAYER
  5
1FE
100
AcDbSymbolTableRecord
100
AcDbLayerTableRecord
  2
00_COMPONENTS_1
 70
0
 62
7
  6
CONTINUOUS
370
-3
390
F
  0
LAYER
  5
1FF
100
AcDbSymbolTableRecord
100
AcDbLayerTableRecord
  2
00_COMPONENTS_3
 70
0
 62
7
  6
CONTINUOUS
370
-3
390
F
  0
LAYER
  5
200
100
AcDbSymbolTableRecord
100
AcDbLayerTableRecord
  2
00_COMPONENTS_4
 70
0
 62
7
  6
CONTINUOUS
370
-3
390
F
  0
LAYER
  5
201
100
AcDbSymbolTableRecord
100
AcDbLayerTableRecord
  2
00_COMPONENTS_5
 70
0
 62
7
  6
CONTINUOUS
370
-3
390
F
  0
LAYER
  5
202
100
AcDbSymbolTableRecord
100
AcDbLayerTableRecord
  2
00_COMPONENTS_6
 70
0
 62
7
  6
CONTINUOUS
370
-3
390
F
  0
LAYER
  5
203
100
AcDbSymbolTableRecord
100
AcDbLayerTableRecord
  2
01_1_DEFAULT_DATUMS
 70
0
 62
7
  6
CONTINUOUS
370
-3
390
F
  0
LAYER
  5
204
100
AcDbSymbolTableRecord
100
AcDbLayerTableRecord
  2
01_PLANES
 70
0
 62
7
  6
CONTINUOUS
370
-3
390
F
  0
LAYER
  5
205
100
AcDbSymbolTableRecord
100
AcDbLayerTableRecord
  2
02_COORD_SYS
 70
0
 62
7
  6
CONTINUOUS
370
-3
390
F
  0
LAYER
  5
206
100
AcDbSymbolTableRecord
100
AcDbLayerTableRecord
  2
03_AXES
 70
0
 62
7
  6
CONTINUOUS
370
-3
390
F
  0
LAYER
  5
207
100
AcDbSymbolTableRecord
100
AcDbLayerTableRecord
  2
03_AXES_1
 70
0
 62
7
  6
CONTINUOUS
370
-3
390
F
  0
LAYER
  5
208
100
AcDbSymbolTableRecord
100
AcDbLayerTableRecord
  2
03_AXES_6
 70
0
 62
7
  6
CONTINUOUS
370
-3
390
F
  0
LAYER
  5
209
100
AcDbSymbolTableRecord
100
AcDbLayerTableRecord
  2
04_POINTS
 70
0
 62
7
  6
CONTINUOUS
370
-3
390
F
  0
LAYER
  5
20A
100
AcDbSymbolTableRecord
100
AcDbLayerTableRecord
  2
05_CURVES
 70
0
 62
7
  6
CONTINUOUS
370
-3
390
F
  0
LAYER
  5
20B
100
AcDbSymbolTableRecord
100
AcDbLayerTableRecord
  2
06_SURFS
 70
0
 62
7
  6
CONTINUOUS
370
-3
390
F
  0
LAYER
  5
20C
100
AcDbSymbolTableRecord
100
AcDbLayerTableRecord
  2
07_COSMETICS
 70
0
 62
7
  6
CONTINUOUS
370
-3
390
F
  0
LAYER
  5
20D
100
AcDbSymbolTableRecord
100
AcDbLayerTableRecord
  2
10_NOTES
 70
0
 62
7
  6
CONTINUOUS
370
-3
390
F
  0
LAYER
  5
20E
100
AcDbSymbolTableRecord
100
AcDbLayerTableRecord
  2
11_NOTES_PUB
 70
0
 62
7
  6
CONTINUOUS
370
-3
390
F
  0
LAYER
  5
20F
100
AcDbSymbolTableRecord
100
AcDbLayerTableRecord
  2
13_REF_GTOL
 70
0
 62
7
  6
CONTINUOUS
370
-3
390
F
  0
LAYER
  5
210
100
AcDbSymbolTableRecord
100
AcDbLayerTableRecord
  2
16_MISC
 70
0
 62
7
  6
CONTINUOUS
370
-3
390
F
  0
LAYER
  5
211
100
AcDbSymbolTableRecord
100
AcDbLayerTableRecord
  2
17_NO_PRINT
 70
0
 62
7
  6
CONTINUOUS
370
-3
390
F
  0
LAYER
  5
212
100
AcDbSymbolTableRecord
100
AcDbLayerTableRecord
  2
18_DATUM_CAMS_JOINTS
 70
0
 62
7
  6
CONTINUOUS
370
-3
390
F
  0
LAYER
  5
213
100
AcDbSymbolTableRecord
100
AcDbLayerTableRecord
  2
19_DATUM_FUNCTIONAL
 70
0
 62
7
  6
CONTINUOUS
370
-3
390
F
  0
LAYER
  5
214
100
AcDbSymbolTableRecord
100
AcDbLayerTableRecord
  2
20_DATUM_KINEMATIC_SCHEME
 70
0
 62
7
  6
CONTINUOUS
370
-3
390
F
  0
LAYER
  5
215
100
AcDbSymbolTableRecord
100
AcDbLayerTableRecord
  2
INTFCLR_89194
 70
0
 62
7
  6
CONTINUOUS
370
-3
390
F
  0
LAYER
  5
216
100
AcDbSymbolTableRecord
100
AcDbLayerTableRecord
  2
INTF_BLANK
 70
0
 62
7
  6
CONTINUOUS
370
-3
390
F
  0
LAYER
  5
217
100
AcDbSymbolTableRecord
100
AcDbLayerTableRecord
  2
SHELL5
 70
0
 62
7
  6
CONTINUOUS
370
-3
390
F
  0
LAYER
  5
218
100
AcDbSymbolTableRecord
100
AcDbLayerTableRecord
  2
SHELL56
 70
0
 62
7
  6
CONTINUOUS
370
-3
390
F
  0
LAYER
  5
219
100
AcDbSymbolTableRecord
100
AcDbLayerTableRecord
  2
SHELL8
 70
0
 62
7
  6
CONTINUOUS
370
-3
390
F
  0
LAYER
  5
21A
100
AcDbSymbolTableRecord
100
AcDbLayerTableRecord
  2
_BLACK_HOLE
 70
0
 62
7
  6
CONTINUOUS
370
-3
390
F
  0
LAYER
  5
21B
100
AcDbSymbolTableRecord
100
AcDbLayerTableRecord
  2
black
 70
0
 62
7
  6
CONTINUOUS
370
-3
390
F
  0
ENDTAB
  0
TABLE
  2
STYLE
  5
3
100
AcDbSymbolTable
 70
1
  0
STYLE
  5
11
100
AcDbSymbolTableRecord
100
AcDbTextStyleTableRecord
  2
STANDARD
 70
0
 40
0.0
 41
1.0
 50
0.0
 71
0
 42
0.2
  3
ARIAL.TTF
  4

  0
STYLE
  5
21C
100
AcDbSymbolTableRecord
100
AcDbTextStyleTableRecord
  2
TEXTSTYLE_1
 70
0
 40
0.0
 41
0.8
 50
0.0
 71
0
 42
0.2
  3
gdt
  4

  0
ENDTAB
  0
TABLE
  2
VIEW
  5
6
100
AcDbSymbolTable
 70
0
  0
ENDTAB
  0
TABLE
  2
UCS
  5
7
100
AcDbSymbolTable
 70
0
  0
ENDTAB
  0
TABLE
  2
APPID
  5
9
100
AcDbSymbolTable
 70
1
  0
APPID
  5
21D
100
AcDbSymbolTableRecord
100
AcDbRegAppTableRecord
  2
ACAD
 70
0
  0
ENDTAB
  0
TABLE
  2
BLOCK_RECORD
  5
1
100
AcDbSymbolTable
 70
0
  0
BLOCK_RECORD
  5
21E
100
AcDbSymbolTableRecord
100
AcDbBlockTableRecord
  2
*Model_Space
  0
BLOCK_RECORD
  5
21F
100
AcDbSymbolTableRecord
100
AcDbBlockTableRecord
  2
*Paper_Space
  0
BLOCK_RECORD
  5
220
100
AcDbSymbolTableRecord
100
AcDbBlockTableRecord
  2
_FILLED
  0
ENDTAB
  0
TABLE
  2
DIMSTYLE
  5
A
100
AcDbSymbolTable
 70
1
100
AcDbDimStyleTable
 71
0
  0
DIMSTYLE
105
221
100
AcDbSymbolTableRecord
100
AcDbDimStyleTableRecord
  2
STANDARD
 70
0
  3

  4

 40
1.0
 41
0.9547581966
 42
1.0
 43
0.38
 44
1.0
 45
0.0
 46
0.0
 47
0.01
 48
0.01
140
1.3366614752
141
0.09
142
0.0
143
25.4
144
1.0
145
0.0
146
1.0
147
0.625
 71
1
 72
0
 73
0
 74
0
 75
0
 76
0
 77
1
 78
8
 79
2
170
0
171
1
172
0
173
0
174
0
175
0
176
0
177
0
178
0
270
2
179
2
271
2
272
2
273
2
274
2
275
0
280
0
281
0
282
0
283
1
284
8
285
0
286
0
287
3
288
0
340
11
278
46
341
220
342
220
343
220
344
220
  0
ENDTAB
  0
ENDSEC
  0
SECTION
  2
BLOCKS
  0
BLOCK
  5
20
100
AcDbEntity
  8
0
100
AcDbBlockBegin
  2
*Model_Space
 70
0
 10
0.0
 20
0.0
 30
0.0
  3
*Model_Space
  1

  0
ENDBLK
  5
21
100
AcDbEntity
  8
0
100
AcDbBlockEnd
  0
BLOCK
  5
1C
100
AcDbEntity
  8
0
100
AcDbBlockBegin
  2
*Paper_Space
 70
0
 10
0.0
 20
0.0
 30
0.0
  3
*Paper_Space
  1

  0
ENDBLK
  5
1D
100
AcDbEntity
  8
0
100
AcDbBlockEnd
  0
BLOCK
  5
222
100
AcDbEntity
  8
0
100
AcDbBlockBegin
  2
_FILLED
 70
64
 10
0.0
 20
0.0
  3
_FILLED
  1

  0
SOLID
  5
223
100
AcDbEntity
  8
0
  6
BYBLOCK
 62
0
100
AcDbTrace
 10
0.0
 20
0.0
 11
-1.0
 21
0.25
 12
-1.0
 22
-0.25
 13
-1.0
 23
-0.25
  0
ENDBLK
  5
224
100
AcDbEntity
  8
0
  6
BYBLOCK
 62
0
100
AcDbBlockEnd
  0
ENDSEC
  0
SECTION
  2
ENTITIES
  0
LINE
  5
225
100
AcDbEntity
  8
0
100
AcDbLine
 62
7
  6
BYLAYER
 10
21.6999623369
 20
99.2389400839
 11
26.2798738905
 21
101.8831374685
  0
LINE
  5
226
100
AcDbEntity
  8
0
100
AcDbLine
 62
7
  6
BYLAYER
 10
27.2715424943
 20
102.2275219083
 11
26.4774623839
 21
101.7690622794
  0
LINE
  5
227
100
AcDbEntity
  8
0
100
AcDbLine
 62
7
  6
BYLAYER
 10
21.6999623369
 20
99.0107878059
 11
18.5530232909
 21
97.1939125458
  0
LINE
  5
228
100
AcDbEntity
  8
0
100
AcDbLine
 62
7
  6
BYLAYER
 10
26.2798813682
 20
100.8462016349
 11
23.4960135611
 21
99.2389444011
  0
LINE
  5
229
100
AcDbEntity
  8
0
100
AcDbLine
 62
7
  6
BYLAYER
 10
26.2798813682
 20
99.3737211758
 11
24.7712372756
 21
98.5027103021
  0
LWPOLYLINE
  5
22A
100
AcDbEntity
  8
00_COMPONENTS
100
AcDbPolyline
 62
7
  6
BYLAYER
 90
9
 70
0
 10
26.3914527877
 20
14.4848300106
 10
28.4257773788
 20
13.4607267996
 10
33.3247633951
 20
11.8704177275
 10
38.7852465022
 20
11.1021722435
 10
44.4022476481
 20
11.2129676007
 10
49.7591795538
 20
12.1945866143
 10
54.4587430864
 20
13.9742270926
 10
56.4504464327
 20
15.1241306918
 10
59.5328790946
 20
17.8374009921
  0
LINE
  5
22B
100
AcDbEntity
  8
0
100
AcDbLine
 62
7
  6
BYLAYER
 10
28.7225137251
 20
100.4729106061
 11
27.8244918518
 21
99.9544405307
  0
LINE
  5
22C
100
AcDbEntity
  8
0
100
AcDbLine
 62
7
  6
BYLAYER
 10
25.0406240447
 20
98.3471832969
 11
24.1426021715
 21
97.8287132215
  0
LINE
  5
22D
100
AcDbEntity
  8
0
100
AcDbLine
 62
7
  6
BYLAYER
 10
28.7225137251
 20
99.0004301471
 11
27.8244918518
 21
98.4819600716
  0
LINE
  5
22E
100
AcDbEntity
  8
0
100
AcDbLine
 62
7
  6
BYLAYER
 10
25.0406240447
 20
96.8747028378
 11
24.1426021715
 21
96.3562327624
  0
LINE
  5
22F
100
AcDbEntity
  8
0
100
AcDbLine
 62
7
  6
BYLAYER
 10
12.8459859273
 20
87.3089789989
 11
18.5530232909
 21
97.1939125458
  0
LINE
  5
230
100
AcDbEntity
  8
0
100
AcDbLine
 62
7
  6
BYLAYER
 10
9.304086587
 20
77.1267100736
 11
11.0108435677
 21
80.0829162906
  0
LINE
  5
231
100
AcDbEntity
  8
0
100
AcDbLine
 62
7
  6
BYLAYER
 10
12.8015361123
 20
83.1845039759
 11
14.5985786305
 21
86.297090199
  0
LINE
  5
232
100
AcDbEntity
  8
0
100
AcDbLine
 62
7
  6
BYLAYER
 10
17.6140286171
 20
86.2823854455
 11
24.7044063294
 21
90.3759924908
  0
LINE
  5
233
100
AcDbEntity
  8
0
100
AcDbLine
 62
7
  6
BYLAYER
 10
39.0807464746
 20
98.6761267985
 11
46.1711241868
 21
102.7697338438
  0
LINE
  5
234
100
AcDbEntity
  8
0
100
AcDbLine
 62
7
  6
BYLAYER
 10
21.2200524477
 20
92.3876396328
 11
17.7357877894
 21
86.3526827168
  0
LINE
  5
235
100
AcDbEntity
  8
0
100
AcDbLine
 62
7
  6
BYLAYER
 10
17.6140286171
 20
86.1417884733
 11
16.9274703196
 21
84.9526280185
  0
LINE
  5
236
100
AcDbEntity
  8
0
100
AcDbLine
 62
7
  6
BYLAYER
 10
16.6419093684
 20
81.5391597077
 11
16.394394191
 21
81.110448465
  0
LINE
  5
237
100
AcDbEntity
  8
0
100
AcDbLine
 62
7
  6
BYLAYER
 10
16.2992327211
 20
80.9456230492
 11
15.9088656441
 21
80.269483685
  0
LINE
  5
238
100
AcDbEntity
  8
0
100
AcDbLine
 62
7
  6
BYLAYER
 10
14.6023754432
 20
78.0065637157
 11
14.355918886
 21
77.579686067
  0
LINE
  5
239
100
AcDbEntity
  8
0
100
AcDbLine
 62
7
  6
BYLAYER
 10
47.9671828887
 20
101.7328023273
 11
35.3499755694
 21
94.4482977677
  0
LINE
  5
23A
100
AcDbEntity
  8
0
100
AcDbLine
 62
7
  6
BYLAYER
 10
32.0272946383
 20
92.5299584886
 11
19.410087319
 21
85.245453929
  0
LINE
  5
23B
100
AcDbEntity
  8
0
100
AcDbLine
 62
7
  6
BYLAYER
 10
19.428047906
 20
85.2350846139
 11
32.0183145691
 21
92.5040350712
  0
LINE
  5
23C
100
AcDbEntity
  8
0
100
AcDbLine
 62
7
  6
BYLAYER
 10
35.3769162256
 20
94.4431127085
 11
47.9851434757
 21
101.7224330121
  0
LINE
  5
23D
100
AcDbEntity
  8
0
100
AcDbLine
 62
7
  6
BYLAYER
 10
35.924714354
 20
94.1164796824
 11
32.6020334229
 21
92.1981404034
  0
LINE
  5
23E
100
AcDbEntity
  8
0
100
AcDbLine
 62
7
  6
BYLAYER
 10
33.7861120735
 20
91.5274972113
 11
35.924714354
 21
92.7622124433
  0
LINE
  5
23F
100
AcDbEntity
  8
0
100
AcDbLine
 62
7
  6
BYLAYER
 10
10.5782927398
 20
69.4109094914
 11
10.5782927398
 21
67.3853847284
  0
LINE
  5
240
100
AcDbEntity
  8
0
100
AcDbLine
 62
7
  6
BYLAYER
 10
17.6140286171
 20
82.0943032156
 11
16.3029990637
 21
79.8235208134
  0
LINE
  5
241
100
AcDbEntity
  8
0
100
AcDbLine
 62
7
  6
BYLAYER
 10
15.672349401
 20
78.7311974922
 11
13.8794830096
 21
75.625844573
  0
LINE
  5
242
100
AcDbEntity
  8
0
100
AcDbLine
 62
7
  6
BYLAYER
 10
24.1027502989
 20
82.5362049857
 11
27.4433916675
 21
84.4649136663
  0
LINE
  5
243
100
AcDbEntity
  8
0
100
AcDbLine
 62
7
  6
BYLAYER
 10
24.1067808244
 20
82.5338780134
 11
27.4474221929
 21
84.462586694
  0
LINE
  5
244
100
AcDbEntity
  8
00_COMPONENTS
100
AcDbLine
 62
7
  6
BYLAYER
 10
23.8454987155
 20
28.5197558992
 11
28.2845374043
 21
27.4319059499
  0
LINE
  5
245
100
AcDbEntity
  8
00_COMPONENTS
100
AcDbLine
 62
7
  6
BYLAYER
 10
52.2680089792
 20
21.5544130583
 11
56.6932442848
 21
20.4699458255
  0
LINE
  5
246
100
AcDbEntity
  8
00_COMPONENTS
100
AcDbLine
 62
7
  6
BYLAYER
 10
57.4973665929
 20
20.9987547965
 11
52.2680089792
 21
22.2802837072
  0
LINE
  5
247
100
AcDbEntity
  8
00_COMPONENTS
100
AcDbLine
 62
7
  6
BYLAYER
 10
27.711976112
 20
28.2980909362
 11
23.8454987155
 21
29.2456265481
  0
LINE
  5
248
100
AcDbEntity
  8
00_COMPONENTS
100
AcDbLine
 62
7
  6
BYLAYER
 10
24.2939082156
 20
29.8555299662
 11
27.2018446219
 21
29.1428985399
  0
LINE
  5
249
100
AcDbEntity
  8
00_COMPONENTS
100
AcDbLine
 62
7
  6
BYLAYER
 10
52.7164184793
 20
22.8901871253
 11
57.8038060715
 21
21.6434499999
  0
LINE
  5
24A
100
AcDbEntity
  8
00_COMPONENTS
100
AcDbLine
 62
7
  6
BYLAYER
 10
20.3663428488
 20
21.7360906546
 11
21.4717805698
 21
19.1172086039
  0
LINE
  5
24B
100
AcDbEntity
  8
0
100
AcDbLine
 62
7
  6
BYLAYER
 10
19.1598955931
 20
72.5772659146
 11
19.410087319
 21
73.0106131009
  0
LINE
  5
24C
100
AcDbEntity
  8
0
100
AcDbLine
 62
7
  6
BYLAYER
 10
49.3102437234
 20
94.3936268352
 11
32.1131248504
 21
84.4649248909
  0
LINE
  5
24D
100
AcDbEntity
  8
0
100
AcDbLine
 62
7
  6
BYLAYER
 10
32.1351158881
 20
84.4625979618
 11
49.332234761
 21
94.391299906
  0
LINE
  5
24E
100
AcDbEntity
  8
0
100
AcDbLine
 62
7
  6
BYLAYER
 10
10.5782927398
 20
69.4109094914
 11
16.6233933833
 21
72.9010291419
  0
LINE
  5
24F
100
AcDbEntity
  8
0
100
AcDbLine
 62
7
  6
BYLAYER
 10
57.338578787
 20
96.3223467835
 11
53.9979374185
 21
94.393638103
  0
LINE
  5
250
100
AcDbEntity
  8
0
100
AcDbLine
 62
7
  6
BYLAYER
 10
57.3426093125
 20
96.3200198112
 11
54.0019679439
 21
94.3913111307
  0
LINE
  5
251
100
AcDbEntity
  8
00_COMPONENTS_3
100
AcDbLine
 62
7
  6
BYLAYER
 10
30.7219017673
 20
29.9436861729
 11
29.5819760031
 21
30.6018414369
  0
LINE
  5
252
100
AcDbEntity
  8
00_COMPONENTS
100
AcDbLine
 62
7
  6
BYLAYER
 10
20.2581374043
 20
22.9546066842
 11
20.3663428488
 21
21.7360906546
  0
LINE
  5
253
100
AcDbEntity
  8
0
100
AcDbLine
 62
7
  6
BYLAYER
 10
17.6140286171
 20
66.1653988923
 11
17.6140286171
 21
72.329091164
  0
LINE
  5
254
100
AcDbEntity
  8
0
100
AcDbLine
 62
7
  6
BYLAYER
 10
17.6140286171
 20
74.0475446174
 11
17.6140286171
 21
86.2823854455
  0
LINE
  5
255
100
AcDbEntity
  8
0
100
AcDbLine
 62
7
  6
BYLAYER
 10
19.1598955931
 20
71.4366120378
 11
19.1598955931
 21
72.5772659146
  0
LINE
  5
256
100
AcDbEntity
  8
0
100
AcDbLine
 62
7
  6
BYLAYER
 10
19.410087319
 20
85.245453929
 11
19.410087319
 21
73.0106131009
  0
LINE
  5
257
100
AcDbEntity
  8
0
100
AcDbLine
 62
7
  6
BYLAYER
 10
19.410087319
 20
71.2921596475
 11
19.410087319
 21
65.1284673758
  0
LINE
  5
258
100
AcDbEntity
  8
0
100
AcDbLine
 62
7
  6
BYLAYER
 10
19.428047906
 20
85.2350846139
 11
19.428047906
 21
65.1180980606
  0
LINE
  5
259
100
AcDbEntity
  8
00_COMPONENTS
100
AcDbLine
 62
7
  6
BYLAYER
 10
20.2581374043
 20
22.9546066842
 11
20.2581374043
 21
25.366719079
  0
LINE
  5
25A
100
AcDbEntity
  8
00_COMPONENTS_3
100
AcDbLine
 62
7
  6
BYLAYER
 10
21.0518874043
 20
53.649219705
 11
21.0518874043
 21
54.8935693887
  0
LINE
  5
25B
100
AcDbEntity
  8
0
100
AcDbLine
 62
7
  6
BYLAYER
 10
21.2658716315
 20
61.21504777
 11
21.2658716315
 21
57.3172156247
  0
LINE
  5
25C
100
AcDbEntity
  8
0
100
AcDbLine
 62
7
  6
BYLAYER
 10
21.5662635158
 20
63.0671451211
 11
21.5662635158
 21
61.0416203582
  0
LINE
  5
25D
100
AcDbEntity
  8
0
100
AcDbLine
 62
7
  6
BYLAYER
 10
21.6999623369
 20
97.7664596248
 11
21.6999623369
 21
99.2389400839
  0
LWPOLYLINE
  5
25E
100
AcDbEntity
  8
00_COMPONENTS_3
100
AcDbPolyline
 62
7
  6
BYLAYER
 90
3
 70
0
 10
21.0517479161
 20
54.8935693815
 10
21.1400439065
 20
55.9722610153
 10
21.5570645391
 20
57.0005737585
  0
LINE
  5
25F
100
AcDbEntity
  8
0
100
AcDbLine
 62
7
  6
BYLAYER
 10
45.5206452575
 20
84.7397451146
 11
48.8433261885
 21
86.6580843936
  0
LINE
  5
260
100
AcDbEntity
  8
0
100
AcDbLine
 62
7
  6
BYLAYER
 10
62.0173117054
 20
93.6211401831
 11
49.4270450423
 21
86.3521897258
  0
LINE
  5
261
100
AcDbEntity
  8
0
100
AcDbLine
 62
7
  6
BYLAYER
 10
46.0504827988
 20
84.4027422422
 11
33.4602161357
 21
77.1337917849
  0
LINE
  5
262
100
AcDbEntity
  8
0
100
AcDbLine
 62
7
  6
BYLAYER
 10
33.4781767227
 20
77.1234224697
 11
46.0953840421
 21
84.4079270293
  0
LINE
  5
263
100
AcDbEntity
  8
0
100
AcDbLine
 62
7
  6
BYLAYER
 10
49.4180649731
 20
86.3262663083
 11
62.0352722924
 21
93.6107708679
  0
LINE
  5
264
100
AcDbEntity
  8
0
100
AcDbLine
 62
7
  6
BYLAYER
 10
63.8313309943
 20
92.5738393515
 11
56.7409532821
 21
88.4802323062
  0
LINE
  5
265
100
AcDbEntity
  8
0
100
AcDbLine
 62
7
  6
BYLAYER
 10
42.3646131369
 20
80.1800979985
 11
35.2742354246
 21
76.0864909532
  0
LINE
  5
266
100
AcDbEntity
  8
00_COMPONENTS_3
100
AcDbLine
 62
7
  6
BYLAYER
 10
23.4331675192
 20
48.3172764624
 11
23.4331675192
 21
43.976165899
  0
LINE
  5
267
100
AcDbEntity
  8
0
100
AcDbLine
 62
7
  6
BYLAYER
 10
23.6805487468
 20
60.7680808116
 11
23.6805487468
 21
54.6915065229
  0
LINE
  5
268
100
AcDbEntity
  8
00_COMPONENTS
100
AcDbLine
 62
7
  6
BYLAYER
 10
23.8454987155
 20
29.2456265481
 11
23.8454987155
 21
28.5197558992
  0
LINE
  5
269
100
AcDbEntity
  8
0
100
AcDbLine
 62
7
  6
BYLAYER
 10
24.1027502989
 20
62.4192184325
 11
24.1027502989
 21
82.5362049857
  0
LINE
  5
26A
100
AcDbEntity
  8
0
100
AcDbLine
 62
7
  6
BYLAYER
 10
24.1067808244
 20
62.4168914602
 11
24.1067808244
 21
82.5338780134
  0
LINE
  5
26B
100
AcDbEntity
  8
0
100
AcDbLine
 62
7
  6
BYLAYER
 10
24.1426021715
 20
96.3562327624
 11
24.1426021715
 21
97.8287132215
  0
LINE
  5
26C
100
AcDbEntity
  8
00_COMPONENTS_3
100
AcDbLine
 62
7
  6
BYLAYER
 10
24.8956374003
 20
37.1337478988
 11
24.8956374003
 21
42.8085104916
  0
LINE
  5
26D
100
AcDbEntity
  8
0
100
AcDbLine
 62
7
  6
BYLAYER
 10
25.0406240447
 20
96.8747028378
 11
25.0406240447
 21
98.3471832969
  0
LINE
  5
26E
100
AcDbEntity
  8
0
100
AcDbLine
 62
7
  6
BYLAYER
 10
25.9256221241
 20
59.471916416
 11
25.9256221241
 21
53.3953421273
  0
LINE
  5
26F
100
AcDbEntity
  8
0
100
AcDbLine
 62
7
  6
BYLAYER
 10
26.2798813682
 20
99.3737211758
 11
26.2798813682
 21
100.8462016349
  0
LINE
  5
270
100
AcDbEntity
  8
0
100
AcDbLine
 62
7
  6
BYLAYER
 10
19.410087319
 20
65.1284673758
 11
19.428047906
 21
65.1388368636
  0
LINE
  5
271
100
AcDbEntity
  8
0
100
AcDbLine
 62
7
  6
BYLAYER
 10
52.7228458863
 20
81.328275109
 11
53.6208677596
 21
81.8467451844
  0
LINE
  5
272
100
AcDbEntity
  8
0
100
AcDbLine
 62
7
  6
BYLAYER
 10
56.4047355667
 20
83.4540024182
 11
57.30275744
 21
83.9724724936
  0
LINE
  5
273
100
AcDbEntity
  8
00_COMPONENTS_3
100
AcDbLine
 62
7
  6
BYLAYER
 10
30.0445062286
 20
43.8415164232
 11
28.3208120961
 21
44.8366691813
  0
LINE
  5
274
100
AcDbEntity
  8
00_COMPONENTS_3
100
AcDbLine
 62
7
  6
BYLAYER
 10
33.6625057747
 20
42.5304093038
 11
33.2165097848
 21
42.7878993834
  0
LINE
  5
275
100
AcDbEntity
  8
00_COMPONENTS_3
100
AcDbLine
 62
7
  6
BYLAYER
 10
23.3742375761
 20
48.3688459675
 11
25.6955022986
 21
46.3375106772
  0
LWPOLYLINE
  5
276
100
AcDbEntity
  8
0
100
AcDbPolyline
 62
7
  6
BYLAYER
 90
3
 70
0
 10
22.5634072563
 20
55.9062811861
 10
22.9735526796
 20
55.1599966717
 10
23.6041888124
 20
54.6047748246
  0
LWPOLYLINE
  5
277
100
AcDbEntity
  8
00_COMPONENTS_3
100
AcDbPolyline
 62
7
  6
BYLAYER
 90
9
 70
0
 10
26.5442538838
 20
52.1996758715
 10
26.9268538853
 20
51.3755514821
 10
29.3404265208
 20
49.1567999583
 10
30.9491701781
 20
48.2272043518
 10
34.7905159199
 20
46.8317409123
 10
39.1725749188
 20
46.1512988904
 10
43.7106206842
 20
46.2462784621
 10
48.0024148392
 20
47.110123913
 10
51.5572954096
 20
48.6231637681
  0
LINE
  5
278
100
AcDbEntity
  8
00_COMPONENTS_3
100
AcDbLine
 62
7
  6
BYLAYER
 10
26.5077425875
 20
33.2676933573
 11
26.5077425875
 21
31.4165120885
  0
LINE
  5
279
100
AcDbEntity
  8
0
100
AcDbLine
 62
7
  6
BYLAYER
 10
27.8244918518
 20
98.4819600716
 11
27.8244918518
 21
99.9544405307
  0
LINE
  5
27A
100
AcDbEntity
  8
00_COMPONENTS
100
AcDbLine
 62
7
  6
BYLAYER
 10
28.2845374043
 20
24.7012717325
 11
28.2845374043
 21
27.4514560099
  0
LINE
  5
27B
100
AcDbEntity
  8
0
100
AcDbLine
 62
7
  6
BYLAYER
 10
28.7225137251
 20
99.0004301471
 11
28.7225137251
 21
100.4729106061
  0
LINE
  5
27C
100
AcDbEntity
  8
0
100
AcDbLine
 62
7
  6
BYLAYER
 10
29.9077928515
 20
56.2257451005
 11
29.9077928515
 21
58.2512698634
  0
LINE
  5
27D
100
AcDbEntity
  8
00_COMPONENTS_3
100
AcDbLine
 62
7
  6
BYLAYER
 10
30.0445062286
 20
43.8415164232
 11
30.0445062286
 21
44.1821820178
  0
LINE
  5
27E
100
AcDbEntity
  8
0
100
AcDbLine
 62
7
  6
BYLAYER
 10
55.1654782432
 20
80.9549840802
 11
57.9493460503
 21
82.562241314
  0
LINE
  5
27F
100
AcDbEntity
  8
0
100
AcDbLine
 62
7
  6
BYLAYER
 10
59.7453972745
 20
82.5622456312
 11
55.1654857209
 21
79.9180482466
  0
LINE
  5
280
100
AcDbEntity
  8
0
100
AcDbLine
 62
7
  6
BYLAYER
 10
59.7453972745
 20
81.0897651721
 11
55.1654857209
 21
78.4455677875
  0
LINE
  5
281
100
AcDbEntity
  8
00_COMPONENTS_3
100
AcDbLine
 62
7
  6
BYLAYER
 10
48.1289144405
 20
42.5304440768
 11
47.4981834888
 21
42.5304425607
  0
LINE
  5
282
100
AcDbEntity
  8
00_COMPONENTS_3
100
AcDbLine
 62
7
  6
BYLAYER
 10
34.2932367264
 20
42.5304108199
 11
33.6625057747
 21
42.5304093038
  0
LINE
  5
283
100
AcDbEntity
  8
0
100
AcDbLine
 62
7
  6
BYLAYER
 10
21.2658716315
 20
57.3172156247
 11
23.6805487468
 21
54.6915065229
  0
LINE
  5
284
100
AcDbEntity
  8
0
100
AcDbLine
 62
7
  6
BYLAYER
 10
16.0266350846
 20
79.2480911997
 11
15.4394369255
 21
80.5226420774
  0
LINE
  5
285
100
AcDbEntity
  8
0
100
AcDbLine
 62
7
  6
BYLAYER
 10
16.2031880933
 20
79.5932781859
 11
15.896635022
 21
80.2586710862
  0
LINE
  5
286
100
AcDbEntity
  8
0
100
AcDbLine
 62
7
  6
BYLAYER
 10
16.2385877393
 20
81.0772568316
 11
16.5236581202
 21
80.4584934745
  0
LINE
  5
287
100
AcDbEntity
  8
0
100
AcDbLine
 62
7
  6
BYLAYER
 10
30.4735688173
 20
52.0012694386
 11
30.4735688173
 21
55.899101584
  0
LINE
  5
288
100
AcDbEntity
  8
0
100
AcDbLine
 62
7
  6
BYLAYER
 10
32.0272946383
 20
92.5040350712
 11
32.0272946383
 21
92.5299584886
  0
LINE
  5
289
100
AcDbEntity
  8
0
100
AcDbLine
 62
7
  6
BYLAYER
 10
32.6020334229
 20
92.1981404034
 11
32.6020334229
 21
92.1670324579
  0
LINE
  5
28A
100
AcDbEntity
  8
0
100
AcDbLine
 62
7
  6
BYLAYER
 10
33.2279849969
 20
64.4552344552
 11
33.2279849969
 21
63.3145805785
  0
LINE
  5
28B
100
AcDbEntity
  8
0
100
AcDbLine
 62
7
  6
BYLAYER
 10
33.4602161357
 20
57.0168052316
 11
33.4602161357
 21
63.1805049012
  0
LINE
  5
28C
100
AcDbEntity
  8
0
100
AcDbLine
 62
7
  6
BYLAYER
 10
33.4602161357
 20
64.8574728197
 11
33.4602161357
 21
77.1337917849
  0
LINE
  5
28D
100
AcDbEntity
  8
0
100
AcDbLine
 62
7
  6
BYLAYER
 10
33.4781767227
 20
57.0064359165
 11
33.4781767227
 21
63.1701281882
  0
LINE
  5
28E
100
AcDbEntity
  8
0
100
AcDbLine
 62
7
  6
BYLAYER
 10
33.4781767227
 20
64.8885816416
 11
33.4781767227
 21
77.1234224697
  0
LINE
  5
28F
100
AcDbEntity
  8
00_COMPONENTS_3
100
AcDbLine
 62
7
  6
BYLAYER
 10
33.6625057747
 20
42.5304093038
 11
33.6625057747
 21
38.0703883101
  0
LINE
  5
290
100
AcDbEntity
  8
0
100
AcDbLine
 62
7
  6
BYLAYER
 10
33.4781767227
 20
64.8885816416
 11
33.2279849969
 21
64.4552344552
  0
LINE
  5
291
100
AcDbEntity
  8
0
100
AcDbLine
 62
7
  6
BYLAYER
 10
42.3646131369
 20
80.1800979985
 11
38.0720310087
 21
72.7450863842
  0
LINE
  5
292
100
AcDbEntity
  8
0
100
AcDbLine
 62
7
  6
BYLAYER
 10
39.8246237119
 20
71.7331975843
 11
35.2742354246
 21
63.8516501251
  0
LINE
  5
293
100
AcDbEntity
  8
0
100
AcDbLine
 62
7
  6
BYLAYER
 10
54.1738171171
 20
76.6287028887
 11
62.8923363206
 21
81.6623122512
  0
LWPOLYLINE
  5
294
100
AcDbEntity
  8
0
100
AcDbPolyline
 62
7
  6
BYLAYER
 90
5
 70
0
 10
37.4371310404
 20
49.8290270968
 10
42.9533112686
 20
49.7180152649
 10
48.3198349989
 20
50.4697910569
 10
53.1533943297
 20
52.036272484
 10
55.2461464323
 20
53.089474508
  0
LWPOLYLINE
  5
295
100
AcDbEntity
  8
0
100
AcDbPolyline
 62
7
  6
BYLAYER
 90
3
 70
0
 10
30.4735688172
 20
52.0012694386
 10
35.6891253045
 20
50.8600430422
 10
39.6406940487
 20
50.6065790967
  0
LINE
  5
296
100
AcDbEntity
  8
0
100
AcDbLine
 62
7
  6
BYLAYER
 10
25.9256221241
 20
53.3953421272
 11
30.4735688172
 21
52.0012694386
  0
LINE
  5
297
100
AcDbEntity
  8
0
100
AcDbLine
 62
7
  6
BYLAYER
 10
23.6805487468
 20
54.6915065229
 11
25.9256221241
 21
53.3953421272
  0
LWPOLYLINE
  5
298
100
AcDbEntity
  8
0
100
AcDbPolyline
 62
7
  6
BYLAYER
 90
4
 70
0
 10
26.2595956495
 20
53.2929699136
 10
27.5593339724
 20
52.5426695404
 10
32.1798344461
 20
50.7931961276
 10
37.4371310404
 20
49.8290270968
  0
LINE
  5
299
100
AcDbEntity
  8
0
100
AcDbLine
 62
7
  6
BYLAYER
 10
23.6805487468
 20
60.7680808116
 11
21.5662635158
 21
63.0671451211
  0
LINE
  5
29A
100
AcDbEntity
  8
0
100
AcDbLine
 62
7
  6
BYLAYER
 10
35.2742354246
 20
76.0864909532
 11
35.2742354246
 21
63.8516501251
  0
LINE
  5
29B
100
AcDbEntity
  8
0
100
AcDbLine
 62
7
  6
BYLAYER
 10
35.2742354246
 20
62.1331966717
 11
35.2742354246
 21
55.9695044
  0
LINE
  5
29C
100
AcDbEntity
  8
0
100
AcDbLine
 62
7
  6
BYLAYER
 10
35.3769162256
 20
91.216611676
 11
35.3769162256
 21
92.4459429343
  0
LINE
  5
29D
100
AcDbEntity
  8
0
100
AcDbLine
 62
7
  6
BYLAYER
 10
35.3769162256
 20
94.4327439244
 11
35.3769162256
 21
94.4431127085
  0
LINE
  5
29E
100
AcDbEntity
  8
0
100
AcDbLine
 62
7
  6
BYLAYER
 10
35.3948768126
 20
94.4327433934
 11
35.3948768126
 21
94.4534825548
  0
LINE
  5
29F
100
AcDbEntity
  8
0
100
AcDbLine
 62
7
  6
BYLAYER
 10
35.924714354
 20
92.7622124433
 11
35.924714354
 21
94.1164796824
  0
LINE
  5
2A0
100
AcDbEntity
  8
00_COMPONENTS
100
AcDbLine
 62
7
  6
BYLAYER
 10
36.5014391855
 20
17.8766381623
 11
36.5014391855
 21
18.6025088111
  0
LINE
  5
2A1
100
AcDbEntity
  8
0
100
AcDbLine
 62
7
  6
BYLAYER
 10
36.9574478832
 20
91.6506796034
 11
36.9574478832
 21
93.5513521354
  0
LINE
  5
2A2
100
AcDbEntity
  8
0
100
AcDbLine
 62
7
  6
BYLAYER
 10
41.5563848903
 20
70.7334392422
 11
45.8489670185
 21
78.1684508565
  0
LINE
  5
2A3
100
AcDbEntity
  8
0
100
AcDbLine
 62
7
  6
BYLAYER
 10
38.5083975804
 20
61.4066557968
 11
40.3012639718
 21
64.512008716
  0
LINE
  5
2A4
100
AcDbEntity
  8
0
100
AcDbLine
 62
7
  6
BYLAYER
 10
40.9319136344
 20
65.6043320372
 11
43.3089775935
 21
69.7215504424
  0
LINE
  5
2A5
100
AcDbEntity
  8
0
100
AcDbLine
 62
7
  6
BYLAYER
 10
41.5480897507
 20
65.684827078
 11
40.5309149615
 21
63.9230188827
  0
LINE
  5
2A6
100
AcDbEntity
  8
0
100
AcDbLine
 62
7
  6
BYLAYER
 10
33.4781767227
 20
57.0271747195
 11
33.4602161357
 21
57.0168052316
  0
LINE
  5
2A7
100
AcDbEntity
  8
0
100
AcDbLine
 62
7
  6
BYLAYER
 10
10.5782927398
 20
67.3853847284
 11
21.5662635158
 21
61.0416203582
  0
LINE
  5
2A8
100
AcDbEntity
  8
0
100
AcDbLine
 62
7
  6
BYLAYER
 10
29.9077928515
 20
56.2257451005
 11
40.8957636275
 21
49.8819807302
  0
LINE
  5
2A9
100
AcDbEntity
  8
0
100
AcDbLine
 62
7
  6
BYLAYER
 10
25.9256221241
 20
59.471916416
 11
23.6805487468
 21
60.7680808116
  0
LINE
  5
2AA
100
AcDbEntity
  8
0
100
AcDbLine
 62
7
  6
BYLAYER
 10
40.8957636275
 20
51.9075054931
 11
29.9077928515
 21
58.2512698634
  0
LINE
  5
2AB
100
AcDbEntity
  8
0
100
AcDbLine
 62
7
  6
BYLAYER
 10
21.5662635158
 20
63.0671451211
 11
10.5782927398
 21
69.4109094914
  0
LINE
  5
2AC
100
AcDbEntity
  8
0
100
AcDbLine
 62
7
  6
BYLAYER
 10
35.2742354246
 20
55.9695044
 11
33.4781767227
 21
57.0064359165
  0
LINE
  5
2AD
100
AcDbEntity
  8
0
100
AcDbLine
 62
7
  6
BYLAYER
 10
17.6140286171
 20
66.1653988923
 11
19.410087319
 21
65.1284673758
  0
LINE
  5
2AE
100
AcDbEntity
  8
0
100
AcDbLine
 62
7
  6
BYLAYER
 10
19.428047906
 20
65.1180980606
 11
33.4602161357
 21
57.0168052316
  0
LINE
  5
2AF
100
AcDbEntity
  8
0
100
AcDbLine
 62
7
  6
BYLAYER
 10
40.8957636275
 20
51.9075054931
 11
40.8957636275
 21
49.8819807302
  0
LINE
  5
2B0
100
AcDbEntity
  8
0
100
AcDbLine
 62
7
  6
BYLAYER
 10
35.2742354246
 20
55.9695044
 11
40.6122312627
 21
59.0513793377
  0
LINE
  5
2B1
100
AcDbEntity
  8
0
100
AcDbLine
 62
7
  6
BYLAYER
 10
46.4697977295
 20
60.2971069918
 11
45.8458235917
 21
60.0366216303
  0
LINE
  5
2B2
100
AcDbEntity
  8
0
100
AcDbLine
 62
7
  6
BYLAYER
 10
29.9077928515
 20
58.2512698634
 11
25.9256221241
 21
59.471916416
  0
LINE
  5
2B3
100
AcDbEntity
  8
0
100
AcDbLine
 62
7
  6
BYLAYER
 10
21.2200524477
 20
92.3876396328
 11
18.5530232909
 21
97.1939125458
  0
LINE
  5
2B4
100
AcDbEntity
  8
0
100
AcDbLine
 62
7
  6
BYLAYER
 10
54.1738171171
 20
76.6287028887
 11
48.4667797535
 21
66.7437693418
  0
LINE
  5
2B5
100
AcDbEntity
  8
0
100
AcDbLine
 62
7
  6
BYLAYER
 10
50.2193724567
 20
65.7318805419
 11
48.4223299386
 21
62.6192943188
  0
LINE
  5
2B6
100
AcDbEntity
  8
0
100
AcDbLine
 62
7
  6
BYLAYER
 10
46.631637394
 20
59.5177066335
 11
44.9248804133
 21
56.5615004165
  0
LINE
  5
2B7
100
AcDbEntity
  8
0
100
AcDbLine
 62
7
  6
BYLAYER
 10
49.5034143131
 20
53.9180070569
 11
33.2279849969
 21
63.3145805785
  0
LINE
  5
2B8
100
AcDbEntity
  8
0
100
AcDbLine
 62
7
  6
BYLAYER
 10
19.410087319
 20
71.2921596475
 11
9.304086587
 21
77.1267100736
  0
LINE
  5
2B9
100
AcDbEntity
  8
0
100
AcDbLine
 62
7
  6
BYLAYER
 10
19.1598955931
 20
72.5772659146
 11
13.8794830096
 21
75.625844573
  0
LINE
  5
2BA
100
AcDbEntity
  8
0
100
AcDbLine
 62
7
  6
BYLAYER
 10
33.2279849969
 20
64.4552344552
 11
38.5083975804
 21
61.4066557968
  0
LINE
  5
2BB
100
AcDbEntity
  8
0
100
AcDbLine
 62
7
  6
BYLAYER
 10
17.6140286171
 20
74.0475446174
 11
19.410087319
 21
73.0106131009
  0
LINE
  5
2BC
100
AcDbEntity
  8
0
100
AcDbLine
 62
7
  6
BYLAYER
 10
33.4781767227
 20
64.8885816416
 11
35.2742354246
 21
63.8516501251
  0
LINE
  5
2BD
100
AcDbEntity
  8
0
100
AcDbLine
 62
7
  6
BYLAYER
 10
48.9319166925
 20
56.4151607888
 11
50.2654111406
 21
55.6452453976
  0
LINE
  5
2BE
100
AcDbEntity
  8
0
100
AcDbLine
 62
7
  6
BYLAYER
 10
49.2460150152
 20
56.4097560773
 11
49.0081042988
 21
56.5471178208
  0
LINE
  5
2BF
100
AcDbEntity
  8
0
100
AcDbLine
 62
7
  6
BYLAYER
 10
40.4275185479
 20
59.1580219787
 11
38.5083975804
 21
61.4066557968
  0
LINE
  5
2C0
100
AcDbEntity
  8
0
100
AcDbLine
 62
7
  6
BYLAYER
 10
45.5206452575
 20
84.7086371691
 11
45.5206452575
 21
84.7397451146
  0
LINE
  5
2C1
100
AcDbEntity
  8
0
100
AcDbLine
 62
7
  6
BYLAYER
 10
46.0504827988
 20
84.3820030808
 11
46.0504827988
 21
84.4027422422
  0
LINE
  5
2C2
100
AcDbEntity
  8
0
100
AcDbLine
 62
7
  6
BYLAYER
 10
47.8644739717
 20
87.2543201451
 11
47.8644739717
 21
86.0929471761
  0
LINE
  5
2C3
100
AcDbEntity
  8
0
100
AcDbLine
 62
7
  6
BYLAYER
 10
47.9671828887
 20
101.7120635243
 11
47.9671828887
 21
101.7328023273
  0
LINE
  5
2C4
100
AcDbEntity
  8
00_COMPONENTS_3
100
AcDbLine
 62
7
  6
BYLAYER
 10
48.1289144405
 20
42.5304440768
 11
48.1289144405
 21
38.070423083
  0
LINE
  5
2C5
100
AcDbEntity
  8
0
100
AcDbLine
 62
7
  6
BYLAYER
 10
48.0331840922
 20
58.708500134
 11
49.8238766368
 21
61.8100878193
  0
LINE
  5
2C6
100
AcDbEntity
  8
0
100
AcDbLine
 62
7
  6
BYLAYER
 10
50.1413753149
 20
61.6267746309
 11
48.3506827703
 21
58.5251869456
  0
LINE
  5
2C7
100
AcDbEntity
  8
0
100
AcDbLine
 62
7
  6
BYLAYER
 10
52.2593028392
 20
62.1783946437
 11
51.4909560382
 21
60.8475715589
  0
LINE
  5
2C8
100
AcDbEntity
  8
0
100
AcDbLine
 62
7
  6
BYLAYER
 10
49.7002634936
 20
57.7459838736
 11
48.9319166925
 21
56.4151607888
  0
LINE
  5
2C9
100
AcDbEntity
  8
0
100
AcDbLine
 62
7
  6
BYLAYER
 10
52.4210017964
 20
61.9090250228
 11
52.1035031183
 21
61.3590981283
  0
LINE
  5
2CA
100
AcDbEntity
  8
0
100
AcDbLine
 62
7
  6
BYLAYER
 10
49.5635136933
 20
56.9596829719
 11
49.2460150152
 21
56.4097560773
  0
LWPOLYLINE
  5
2CB
100
AcDbEntity
  8
00_COMPONENTS
100
AcDbPolyline
 62
7
  6
BYLAYER
 90
3
 70
0
 10
24.8529982104
 20
29.718516963
 10
25.4994420816
 20
30.3993794709
 10
26.5566734459
 20
31.1135973606
  0
LINE
  5
2CC
100
AcDbEntity
  8
0
100
AcDbLine
 62
7
  6
BYLAYER
 10
68.6077848189
 20
74.3437587337
 11
69.2241822121
 21
74.92766176
  0
LINE
  5
2CD
100
AcDbEntity
  8
0
100
AcDbLine
 62
7
  6
BYLAYER
 10
71.2129820688
 20
69.4110552392
 11
70.125364362
 21
68.7831226117
  0
LINE
  5
2CE
100
AcDbEntity
  8
0
100
AcDbLine
 62
7
  6
BYLAYER
 10
46.9407890757
 20
55.39758173
 11
40.8957636275
 21
51.9075054931
  0
LINE
  5
2CF
100
AcDbEntity
  8
0
100
AcDbLine
 62
7
  6
BYLAYER
 10
40.8957636275
 20
49.8819807302
 11
48.6949251348
 21
54.3848018477
  0
LINE
  5
2D0
100
AcDbEntity
  8
0
100
AcDbLine
 62
7
  6
BYLAYER
 10
68.3712283029
 20
65.7448529681
 11
71.2129820688
 21
67.3855304763
  0
LINE
  5
2D1
100
AcDbEntity
  8
0
100
AcDbLine
 62
7
  6
BYLAYER
 10
67.5627391245
 20
64.3445008603
 11
49.5034143131
 21
53.9180070569
  0
LINE
  5
2D2
100
AcDbEntity
  8
0
100
AcDbLine
 62
7
  6
BYLAYER
 10
43.3685975688
 20
60.5363399418
 11
43.5795775963
 21
60.4145270833
  0
LINE
  5
2D3
100
AcDbEntity
  8
0
100
AcDbLine
 62
7
  6
BYLAYER
 10
49.325601026
 20
57.0970458417
 11
49.5635136933
 21
56.9596829719
  0
LINE
  5
2D4
100
AcDbEntity
  8
0
100
AcDbLine
 62
7
  6
BYLAYER
 10
14.3559188859
 20
77.579686067
 11
14.4028365178
 21
77.5525987724
  0
LINE
  5
2D5
100
AcDbEntity
  8
0
100
AcDbLine
 62
7
  6
BYLAYER
 10
41.1839686901
 20
62.0908546949
 11
42.7302876288
 21
61.198107236
  0
LINE
  5
2D6
100
AcDbEntity
  8
0
100
AcDbLine
 62
7
  6
BYLAYER
 10
41.0582378072
 20
62.7354200818
 11
40.3926523768
 21
63.119727872
  0
LINE
  5
2D7
100
AcDbEntity
  8
0
100
AcDbLine
 62
7
  6
BYLAYER
 10
44.5824112085
 20
60.7008135606
 11
49.7002634936
 21
57.7459838736
  0
LINE
  5
2D8
100
AcDbEntity
  8
0
100
AcDbLine
 62
7
  6
BYLAYER
 10
14.6012641606
 20
78.0099532795
 11
11.0108435677
 21
80.0829162906
  0
LINE
  5
2D9
100
AcDbEntity
  8
0
100
AcDbLine
 62
7
  6
BYLAYER
 10
45.5980535115
 20
60.2372713533
 11
45.140855415
 21
60.5012423446
  0
LINE
  5
2DA
100
AcDbEntity
  8
0
100
AcDbLine
 62
7
  6
BYLAYER
 10
45.9400062289
 20
61.0558570987
 11
46.3972043254
 21
60.7918861075
  0
LINE
  5
2DB
100
AcDbEntity
  8
0
100
AcDbLine
 62
7
  6
BYLAYER
 10
15.4394369255
 20
80.5226420774
 11
15.896635022
 21
80.2586710862
  0
LINE
  5
2DC
100
AcDbEntity
  8
0
100
AcDbLine
 62
7
  6
BYLAYER
 10
43.3371783336
 20
64.4162379412
 11
43.7943764301
 21
64.1522669499
  0
LINE
  5
2DD
100
AcDbEntity
  8
0
100
AcDbLine
 62
7
  6
BYLAYER
 10
45.140855415
 20
60.5012423446
 11
43.3371783336
 21
64.4162379412
  0
LINE
  5
2DE
100
AcDbEntity
  8
0
100
AcDbLine
 62
7
  6
BYLAYER
 10
45.5980535115
 20
60.2372713533
 11
43.7943764301
 21
64.1522669499
  0
LINE
  5
2DF
100
AcDbEntity
  8
0
100
AcDbLine
 62
7
  6
BYLAYER
 10
44.1363291475
 20
64.9708526953
 11
45.9400062289
 21
61.0558570987
  0
LINE
  5
2E0
100
AcDbEntity
  8
0
100
AcDbLine
 62
7
  6
BYLAYER
 10
47.6663703877
 20
62.3695723753
 11
47.5799868644
 21
63.0401946498
  0
LINE
  5
2E1
100
AcDbEntity
  8
0
100
AcDbLine
 62
7
  6
BYLAYER
 10
49.4270450423
 20
86.3521897258
 11
49.4270450423
 21
86.3314505644
  0
LINE
  5
2E2
100
AcDbEntity
  8
00_COMPONENTS_3
100
AcDbLine
 62
7
  6
BYLAYER
 10
50.4372319728
 20
44.8482764352
 11
50.4372319728
 21
43.6039267515
  0
LINE
  5
2E3
100
AcDbEntity
  8
0
100
AcDbLine
 62
7
  6
BYLAYER
 10
51.4695073774
 20
94.9741734289
 11
51.4695073774
 21
95.4664459598
  0
LINE
  5
2E4
100
AcDbEntity
  8
00_COMPONENTS_3
100
AcDbLine
 62
7
  6
BYLAYER
 10
51.7468950769
 20
44.3600565837
 11
51.7468950769
 21
43.8415685893
  0
LINE
  5
2E5
100
AcDbEntity
  8
0
100
AcDbLine
 62
7
  6
BYLAYER
 10
51.9083117677
 20
55.3064669616
 11
51.9083117677
 21
52.1889908851
  0
LINE
  5
2E6
100
AcDbEntity
  8
00_COMPONENTS
100
AcDbLine
 62
7
  6
BYLAYER
 10
52.2680089792
 20
22.2802837072
 11
52.2680089792
 21
21.5544130583
  0
LINE
  5
2E7
100
AcDbEntity
  8
0
100
AcDbLine
 62
7
  6
BYLAYER
 10
50.2654111406
 20
55.6452453976
 11
53.5927972873
 21
61.4084792525
  0
LWPOLYLINE
  5
2E8
100
AcDbEntity
  8
00_COMPONENTS
100
AcDbPolyline
 62
7
  6
BYLAYER
 90
4
 70
0
 10
26.1350783641
 20
33.6617158966
 10
23.3314625104
 20
31.6908606106
 10
21.0377407921
 20
28.6490238066
 10
20.2581374043
 20
25.366719079
  0
LWPOLYLINE
  5
2E9
100
AcDbEntity
  8
0
100
AcDbPolyline
 62
7
  6
BYLAYER
 90
3
 70
0
 10
55.2461464323
 20
53.089474508
 10
57.0668073945
 20
54.2950154294
 10
59.0061344126
 20
56.2868962386
  0
LINE
  5
2EA
100
AcDbEntity
  8
0
100
AcDbLine
 62
7
  6
BYLAYER
 10
60.2004339285
 20
56.9764212697
 11
51.9083117677
 21
52.1889908851
  0
LINE
  5
2EB
100
AcDbEntity
  8
0
100
AcDbLine
 62
7
  6
BYLAYER
 10
42.1833449213
 20
66.2213155573
 11
42.8489303518
 21
65.837007767
  0
LINE
  5
2EC
100
AcDbEntity
  8
0
100
AcDbLine
 62
7
  6
BYLAYER
 10
51.4909560382
 20
60.8475715589
 11
46.3731037531
 21
63.8024012458
  0
LINE
  5
2ED
100
AcDbEntity
  8
0
100
AcDbLine
 62
7
  6
BYLAYER
 10
12.8015361123
 20
83.1845039759
 11
16.3939958808
 21
81.1103636125
  0
LINE
  5
2EE
100
AcDbEntity
  8
0
100
AcDbLine
 62
7
  6
BYLAYER
 10
45.015356527
 20
65.1581129417
 11
43.4698763689
 21
66.0503761413
  0
LINE
  5
2EF
100
AcDbEntity
  8
0
100
AcDbLine
 62
7
  6
BYLAYER
 10
16.6889428824
 20
81.5120055101
 11
16.6419093684
 21
81.5391597077
  0
LINE
  5
2F0
100
AcDbEntity
  8
0
100
AcDbLine
 62
7
  6
BYLAYER
 10
46.1196413864
 20
64.8138993037
 11
45.9085869937
 21
64.9357550982
  0
LINE
  5
2F1
100
AcDbEntity
  8
0
100
AcDbLine
 62
7
  6
BYLAYER
 10
52.1035031183
 20
61.3590981283
 11
51.865590451
 21
61.4964609981
  0
LINE
  5
2F2
100
AcDbEntity
  8
0
100
AcDbLine
 62
7
  6
BYLAYER
 10
52.1830871775
 20
62.0463890195
 11
52.4210017964
 21
61.9090250228
  0
LINE
  5
2F3
100
AcDbEntity
  8
0
100
AcDbLine
 62
7
  6
BYLAYER
 10
53.5927972873
 20
61.4084792525
 11
52.2593028392
 21
62.1783946437
  0
LINE
  5
2F4
100
AcDbEntity
  8
0
100
AcDbLine
 62
7
  6
BYLAYER
 10
52.7228458863
 20
79.8557946499
 11
52.7228458863
 21
81.328275109
  0
LINE
  5
2F5
100
AcDbEntity
  8
00_COMPONENTS
100
AcDbLine
 62
7
  6
BYLAYER
 10
53.5067374043
 20
24.7012717325
 11
53.5067374043
 21
27.564160889
  0
LINE
  5
2F6
100
AcDbEntity
  8
0
100
AcDbLine
 62
7
  6
BYLAYER
 10
55.1654857209
 20
78.4455677875
 11
55.1654857209
 21
79.9180482466
  0
LINE
  5
2F7
100
AcDbEntity
  8
00_COMPONENTS_3
100
AcDbLine
 62
7
  6
BYLAYER
 10
55.2835322211
 20
33.267703571
 11
55.2835322211
 21
31.4165120885
  0
LINE
  5
2F8
100
AcDbEntity
  8
00_COMPONENTS
100
AcDbLine
 62
7
  6
BYLAYER
 10
55.3421799981
 20
31.1754449293
 11
55.3421799981
 21
31.5902281572
  0
LINE
  5
2F9
100
AcDbEntity
  8
0
100
AcDbLine
 62
7
  6
BYLAYER
 10
68.5993736842
 20
78.3672584843
 11
66.8467809809
 21
75.3316620263
  0
LINE
  5
2FA
100
AcDbEntity
  8
0
100
AcDbLine
 62
7
  6
BYLAYER
 10
64.8068505984
 20
69.4226814776
 11
63.4733561503
 21
67.1129885205
  0
LINE
  5
2FB
100
AcDbEntity
  8
00_COMPONENTS_3
100
AcDbLine
 62
7
  6
BYLAYER
 10
54.3718565142
 20
50.7847321473
 11
55.2062118638
 21
52.1619852436
  0
LWPOLYLINE
  5
2FC
100
AcDbEntity
  8
0
100
AcDbPolyline
 62
7
  6
BYLAYER
 90
3
 70
0
 10
51.4923837453
 20
48.7756734415
 10
54.1469109633
 20
50.8528389934
 10
54.7847291483
 20
51.9055601161
  0
LINE
  5
2FD
100
AcDbEntity
  8
00_COMPONENTS_3
100
AcDbLine
 62
7
  6
BYLAYER
 10
51.6719896155
 20
48.6719802898
 11
54.3718565142
 21
50.7847321473
  0
LWPOLYLINE
  5
2FE
100
AcDbEntity
  8
0
100
AcDbPolyline
 62
7
  6
BYLAYER
 90
4
 70
0
 10
54.9273460127
 20
51.977332265
 10
56.707782159
 20
53.1562605426
 10
59.3573840312
 20
55.8776957811
 10
59.6988019936
 20
56.6868056658
  0
LINE
  5
2FF
100
AcDbEntity
  8
00_COMPONENTS
100
AcDbLine
 62
7
  6
BYLAYER
 10
26.0742620278
 20
33.6530430986
 11
26.1093694092
 21
33.6744568634
  0
LINE
  5
300
100
AcDbEntity
  8
00_COMPONENTS_3
100
AcDbLine
 62
7
  6
BYLAYER
 10
50.4372319728
 20
44.8482764352
 11
58.2949233639
 21
49.3848895951
  0
LINE
  5
301
100
AcDbEntity
  8
00_COMPONENTS
100
AcDbLine
 62
7
  6
BYLAYER
 10
26.1015674063
 20
33.6381587291
 11
26.1377157759
 21
33.6589273282
  0
LINE
  5
302
100
AcDbEntity
  8
0
100
AcDbLine
 62
7
  6
BYLAYER
 10
50.2193724567
 20
65.7318805419
 11
38.0720310087
 21
72.7450863842
  0
LINE
  5
303
100
AcDbEntity
  8
0
100
AcDbLine
 62
7
  6
BYLAYER
 10
17.6140286171
 20
84.5562523678
 11
12.8459859273
 21
87.3089789989
  0
LINE
  5
304
100
AcDbEntity
  8
0
100
AcDbLine
 62
7
  6
BYLAYER
 10
35.2742354246
 20
76.0864909532
 11
33.4781767227
 21
77.1234224697
  0
LINE
  5
305
100
AcDbEntity
  8
0
100
AcDbLine
 62
7
  6
BYLAYER
 10
17.6140286171
 20
86.2823854455
 11
19.410087319
 21
85.245453929
  0
LINE
  5
306
100
AcDbEntity
  8
0
100
AcDbLine
 62
7
  6
BYLAYER
 10
33.4602161357
 20
77.1337917849
 11
19.428047906
 21
85.2350846139
  0
LWPOLYLINE
  5
307
100
AcDbEntity
  8
00_COMPONENTS
100
AcDbPolyline
 62
7
  6
BYLAYER
 90
4
 70
0
 10
59.1834610581
 20
25.5741106961
 10
58.7695771578
 20
27.8081388461
 10
56.9548551483
 20
30.6255206799
 10
55.2835322211
 20
31.9157673176
  0
LINE
  5
308
100
AcDbEntity
  8
00_COMPONENTS_3
100
AcDbLine
 62
7
  6
BYLAYER
 10
56.0872309089
 20
46.3474476922
 11
56.0872309089
 21
46.8659356865
  0
LINE
  5
309
100
AcDbEntity
  8
0
100
AcDbLine
 62
7
  6
BYLAYER
 10
56.4047355667
 20
81.9815219591
 11
56.4047355667
 21
83.4540024182
  0
LINE
  5
30A
100
AcDbEntity
  8
00_COMPONENTS_3
100
AcDbLine
 62
7
  6
BYLAYER
 10
56.8956374083
 20
37.1337478988
 11
56.8956374083
 21
42.8442525296
  0
LINE
  5
30B
100
AcDbEntity
  8
00_COMPONENTS_3
100
AcDbLine
 62
7
  6
BYLAYER
 10
58.2949233639
 20
48.1405399114
 11
58.2949233639
 21
49.3848895951
  0
LINE
  5
30C
100
AcDbEntity
  8
00_COMPONENTS_3
100
AcDbLine
 62
7
  6
BYLAYER
 10
58.3581675188
 20
48.219338636
 11
58.3581675188
 21
43.9762498484
  0
LINE
  5
30D
100
AcDbEntity
  8
0
100
AcDbLine
 62
7
  6
BYLAYER
 10
59.7453972745
 20
81.0897651721
 11
59.7453972745
 21
82.5622456312
  0
LINE
  5
30E
100
AcDbEntity
  8
0
100
AcDbLine
 62
7
  6
BYLAYER
 10
68.6438234991
 20
74.2941093801
 11
65.5751973995
 21
68.9790635617
  0
LINE
  5
30F
100
AcDbEntity
  8
0
100
AcDbLine
 62
7
  6
BYLAYER
 10
65.8020703484
 20
69.1413096187
 11
65.4210719346
 21
68.4813973453
  0
LINE
  5
310
100
AcDbEntity
  8
0
100
AcDbLine
 62
7
  6
BYLAYER
 10
68.9443502825
 20
72.753072715
 11
66.4678605931
 21
68.4636429375
  0
LINE
  5
311
100
AcDbEntity
  8
0
100
AcDbLine
 62
7
  6
BYLAYER
 10
65.311448128
 20
66.0517028849
 11
66.6449466172
 21
68.3614028414
  0
LINE
  5
312
100
AcDbEntity
  8
0
100
AcDbLine
 62
7
  6
BYLAYER
 10
66.9624501162
 20
68.1780980031
 11
65.6289468061
 21
65.8683896965
  0
LINE
  5
313
100
AcDbEntity
  8
0
100
AcDbLine
 62
7
  6
BYLAYER
 10
67.3658899441
 20
67.9451771792
 11
70.4345160437
 21
73.2602229977
  0
LINE
  5
314
100
AcDbEntity
  8
0
100
AcDbLine
 62
7
  6
BYLAYER
 10
66.800742297
 20
65.1918663062
 11
68.1342367451
 21
67.5015592633
  0
LWPOLYLINE
  5
315
100
AcDbEntity
  8
0
100
AcDbPolyline
 62
7
  6
BYLAYER
 90
3
 70
0
 10
60.2004339285
 20
56.9764212697
 10
62.378173038
 20
60.0455288461
 10
62.7171013637
 20
61.5468872942
  0
LINE
  5
316
100
AcDbEntity
  8
00_COMPONENTS
100
AcDbLine
 62
7
  6
BYLAYER
 10
33.3706469459
 20
16.0399117643
 11
35.4450403753
 21
18.8613944557
  0
LINE
  5
317
100
AcDbEntity
  8
00_COMPONENTS_3
100
AcDbLine
 62
7
  6
BYLAYER
 10
48.5749067167
 20
42.7879363005
 11
48.1289144405
 21
42.5304440768
  0
LINE
  5
318
100
AcDbEntity
  8
00_COMPONENTS_3
100
AcDbLine
 62
7
  6
BYLAYER
 10
58.2949233639
 20
48.1405399114
 11
50.4372319728
 21
43.6039267515
  0
LINE
  5
319
100
AcDbEntity
  8
00_COMPONENTS_3
100
AcDbLine
 62
7
  6
BYLAYER
 10
56.0872309089
 20
46.3474476922
 11
51.7468950769
 21
43.8415685893
  0
LINE
  5
31A
100
AcDbEntity
  8
0
100
AcDbLine
 62
7
  6
BYLAYER
 10
60.2004339285
 20
56.9764212697
 11
60.2004339285
 21
60.0938973463
  0
LINE
  5
31B
100
AcDbEntity
  8
00_COMPONENTS_3
100
AcDbLine
 62
7
  6
BYLAYER
 10
60.7393874043
 20
53.649219705
 11
60.7393874043
 21
54.8935693887
  0
LINE
  5
31C
100
AcDbEntity
  8
00_COMPONENTS
100
AcDbLine
 62
7
  6
BYLAYER
 10
61.5331374043
 20
22.9546066842
 11
61.5331374043
 21
25.366719079
  0
LINE
  5
31D
100
AcDbEntity
  8
0
100
AcDbLine
 62
7
  6
BYLAYER
 10
62.0173117054
 20
93.6211401831
 11
62.0173117054
 21
93.6004013801
  0
LINE
  5
31E
100
AcDbEntity
  8
0
100
AcDbLine
 62
7
  6
BYLAYER
 10
72.1412730244
 20
72.2747982212
 11
67.5627391245
 21
64.3445008603
  0
LINE
  5
31F
100
AcDbEntity
  8
00_COMPONENTS
100
AcDbLine
 62
7
  6
BYLAYER
 10
36.5014391855
 20
18.6025088111
 11
34.4470268361
 21
15.8082033518
  0
LINE
  5
320
100
AcDbEntity
  8
00_COMPONENTS
100
AcDbLine
 62
7
  6
BYLAYER
 10
34.9077757773
 20
15.7090195908
 11
36.5014391855
 21
17.8766381623
  0
LINE
  5
321
100
AcDbEntity
  8
0
100
AcDbLine
 62
7
  6
BYLAYER
 10
13.8794830096
 20
75.625844573
 11
11.9603620421
 21
75.5931706376
  0
LINE
  5
322
100
AcDbEntity
  8
0
100
AcDbLine
 62
7
  6
BYLAYER
 10
54.1738171171
 20
76.6287028887
 11
45.8489670185
 21
78.1684508565
  0
LINE
  5
323
100
AcDbEntity
  8
0
100
AcDbLine
 62
7
  6
BYLAYER
 10
63.4733561503
 20
67.1129885205
 11
66.800742297
 21
65.1918663062
  0
LINE
  5
324
100
AcDbEntity
  8
0
100
AcDbLine
 62
7
  6
BYLAYER
 10
24.7044063294
 20
90.3759924908
 11
21.2200524477
 21
92.3876396328
  0
LINE
  5
325
100
AcDbEntity
  8
0
100
AcDbLine
 62
7
  6
BYLAYER
 10
42.3646131369
 20
80.1800979985
 11
45.8489670185
 21
78.1684508565
  0
LINE
  5
326
100
AcDbEntity
  8
0
100
AcDbLine
 62
7
  6
BYLAYER
 10
65.4210719346
 20
68.4813973453
 11
64.5528252109
 21
68.9826941575
  0
LINE
  5
327
100
AcDbEntity
  8
0
100
AcDbLine
 62
7
  6
BYLAYER
 10
63.8313309943
 20
84.3865868085
 11
63.8313309943
 21
92.5738393515
  0
LINE
  5
328
100
AcDbEntity
  8
0
100
AcDbLine
 62
7
  6
BYLAYER
 10
68.1342367451
 20
67.5015592633
 11
66.4678605931
 21
68.4636429375
  0
LINE
  5
329
100
AcDbEntity
  8
0
100
AcDbLine
 62
7
  6
BYLAYER
 10
65.5751973995
 20
68.9790635617
 11
64.8068505984
 21
69.4226814776
  0
LINE
  5
32A
100
AcDbEntity
  8
0
100
AcDbLine
 62
7
  6
BYLAYER
 10
65.7021704257
 20
69.1989885151
 11
66.5948552675
 21
68.6836053869
  0
LINE
  5
32B
100
AcDbEntity
  8
0
100
AcDbLine
 62
7
  6
BYLAYER
 10
66.7218570061
 20
68.9035800718
 11
65.8291823146
 21
69.4189807811
  0
LINE
  5
32C
100
AcDbEntity
  8
0
100
AcDbLine
 62
7
  6
BYLAYER
 10
66.1466809927
 20
69.9689076756
 11
67.0393556842
 21
69.4535069664
  0
LINE
  5
32D
100
AcDbEntity
  8
0
100
AcDbLine
 62
7
  6
BYLAYER
 10
55.1654857209
 20
78.4455677875
 11
52.7228458863
 21
79.8557946499
  0
LINE
  5
32E
100
AcDbEntity
  8
0
100
AcDbLine
 62
7
  6
BYLAYER
 10
24.1426021715
 20
96.3562327624
 11
21.6999623369
 21
97.7664596248
  0
LINE
  5
32F
100
AcDbEntity
  8
0
100
AcDbLine
 62
7
  6
BYLAYER
 10
70.6691662527
 20
69.7250203442
 11
71.2129820688
 21
69.4110552392
  0
LINE
  5
330
100
AcDbEntity
  8
00_COMPONENTS_3
100
AcDbLine
 62
7
  6
BYLAYER
 10
51.0696335538
 20
29.9438365802
 11
52.2095885073
 21
30.6020086968
  0
LINE
  5
331
100
AcDbEntity
  8
00_COMPONENTS
100
AcDbLine
 62
7
  6
BYLAYER
 10
55.3421799981
 20
31.5902281572
 11
55.2835322211
 21
31.5563680495
  0
LINE
  5
332
100
AcDbEntity
  8
00_COMPONENTS
100
AcDbLine
 62
7
  6
BYLAYER
 10
55.3421799981
 20
31.1754449293
 11
55.2548307756
 21
31.1250141332
  0
LINE
  5
333
100
AcDbEntity
  8
0
100
AcDbLine
 62
7
  6
BYLAYER
 10
46.0504827988
 20
84.4027422422
 11
44.4879117282
 21
85.3048726615
  0
LINE
  5
334
100
AcDbEntity
  8
0
100
AcDbLine
 62
7
  6
BYLAYER
 10
33.5808856398
 20
91.6019046519
 11
32.0183145691
 21
92.5040350712
  0
LINE
  5
335
100
AcDbEntity
  8
0
100
AcDbLine
 62
7
  6
BYLAYER
 10
46.0953840421
 20
84.4079270293
 11
45.5206452575
 21
84.7397451146
  0
LINE
  5
336
100
AcDbEntity
  8
0
100
AcDbLine
 62
7
  6
BYLAYER
 10
32.0272946383
 20
92.5299584886
 11
32.6020334229
 21
92.1981404034
  0
LINE
  5
337
100
AcDbEntity
  8
0
100
AcDbLine
 62
7
  6
BYLAYER
 10
55.1654857209
 20
79.9180482466
 11
52.7228458863
 21
81.328275109
  0
LINE
  5
338
100
AcDbEntity
  8
0
100
AcDbLine
 62
7
  6
BYLAYER
 10
24.1426021715
 20
97.8287132215
 11
21.6999623369
 21
99.2389400839
  0
LINE
  5
339
100
AcDbEntity
  8
0
100
AcDbLine
 62
7
  6
BYLAYER
 10
68.0516641615
 20
73.2684536277
 11
68.9443502825
 21
72.753072715
  0
LINE
  5
33A
100
AcDbEntity
  8
0
100
AcDbLine
 62
7
  6
BYLAYER
 10
23.4960135611
 20
99.2389444011
 11
25.0406240447
 21
98.3471832969
  0
LINE
  5
33B
100
AcDbEntity
  8
0
100
AcDbLine
 62
7
  6
BYLAYER
 10
53.6208677596
 20
81.8467451844
 11
55.1654782432
 21
80.9549840802
  0
LINE
  5
33C
100
AcDbEntity
  8
0
100
AcDbLine
 62
7
  6
BYLAYER
 10
72.1412730244
 20
72.2747982212
 11
70.4345160437
 21
73.2602229977
  0
LINE
  5
33D
100
AcDbEntity
  8
0
100
AcDbLine
 62
7
  6
BYLAYER
 10
68.6438234991
 20
74.2941093801
 11
66.846780981
 21
75.3316620263
  0
LINE
  5
33E
100
AcDbEntity
  8
0
100
AcDbLine
 62
7
  6
BYLAYER
 10
56.6741223358
 20
81.825994954
 11
56.4047355667
 21
81.9815219591
  0
LINE
  5
33F
100
AcDbEntity
  8
0
100
AcDbLine
 62
7
  6
BYLAYER
 10
27.8244918518
 20
98.4819600716
 11
26.2798813682
 21
99.3737211758
  0
LINE
  5
340
100
AcDbEntity
  8
0
100
AcDbLine
 62
7
  6
BYLAYER
 10
49.4180649731
 20
86.3262663083
 11
48.8433261885
 21
86.6580843936
  0
LINE
  5
341
100
AcDbEntity
  8
0
100
AcDbLine
 62
7
  6
BYLAYER
 10
35.3499755694
 20
94.4482977677
 11
35.924714354
 21
94.1164796824
  0
LINE
  5
342
100
AcDbEntity
  8
0
100
AcDbLine
 62
7
  6
BYLAYER
 10
35.3769162256
 20
94.4431127085
 11
35.3948768126
 21
94.4327433934
  0
LINE
  5
343
100
AcDbEntity
  8
0
100
AcDbLine
 62
7
  6
BYLAYER
 10
35.3948768126
 20
94.4534825548
 11
36.9574478832
 21
93.5513521354
  0
LINE
  5
344
100
AcDbEntity
  8
0
100
AcDbLine
 62
7
  6
BYLAYER
 10
47.8644739717
 20
87.2543201451
 11
49.4270450423
 21
86.3521897258
  0
LINE
  5
345
100
AcDbEntity
  8
0
100
AcDbLine
 62
7
  6
BYLAYER
 10
71.2129820688
 20
69.4110552392
 11
71.2129820688
 21
67.3855304763
  0
LINE
  5
346
100
AcDbEntity
  8
0
100
AcDbLine
 62
7
  6
BYLAYER
 10
57.9493460503
 20
82.562241314
 11
56.4047355667
 21
83.4540024182
  0
LINE
  5
347
100
AcDbEntity
  8
0
100
AcDbLine
 62
7
  6
BYLAYER
 10
27.8244918518
 20
99.9544405307
 11
26.2798813682
 21
100.8462016349
  0
LINE
  5
348
100
AcDbEntity
  8
0
100
AcDbLine
 62
7
  6
BYLAYER
 10
26.2798738905
 20
101.8831374685
 11
28.7225137251
 21
100.4729106061
  0
LINE
  5
349
100
AcDbEntity
  8
0
100
AcDbLine
 62
7
  6
BYLAYER
 10
57.30275744
 20
83.9724724936
 11
59.7453972745
 21
82.5622456312
  0
LINE
  5
34A
100
AcDbEntity
  8
0
100
AcDbLine
 62
7
  6
BYLAYER
 10
68.5993736842
 20
78.3672584843
 11
62.8923363206
 21
81.6623122512
  0
LINE
  5
34B
100
AcDbEntity
  8
0
100
AcDbLine
 62
7
  6
BYLAYER
 10
68.6438234991
 20
74.2941093801
 11
67.4334896675
 21
75.9615481425
  0
LINE
  5
34C
100
AcDbEntity
  8
0
100
AcDbLine
 62
7
  6
BYLAYER
 10
69.2241822121
 20
74.92766176
 11
70.4345160437
 21
73.2602229977
  0
LINE
  5
34D
100
AcDbEntity
  8
0
100
AcDbLine
 62
7
  6
BYLAYER
 10
60.2253071637
 20
86.4685851642
 11
62.8923363206
 21
81.6623122512
  0
LINE
  5
34E
100
AcDbEntity
  8
00_COMPONENTS
100
AcDbLine
 62
7
  6
BYLAYER
 10
59.5328790946
 20
17.8374009921
 11
60.9147829347
 21
20.3511959877
  0
LINE
  5
34F
100
AcDbEntity
  8
0
100
AcDbLine
 62
7
  6
BYLAYER
 10
39.0807464746
 20
98.6761267985
 11
35.5963925929
 21
100.6877739404
  0
LINE
  5
350
100
AcDbEntity
  8
0
100
AcDbLine
 62
7
  6
BYLAYER
 10
56.7409532821
 20
88.4802323062
 11
64.5178892919
 21
83.9901908573
  0
LINE
  5
351
100
AcDbEntity
  8
0
100
AcDbLine
 62
7
  6
BYLAYER
 10
68.1188560938
 20
77.5349729836
 11
69.4849975693
 21
75.934265173
  0
LINE
  5
352
100
AcDbEntity
  8
0
100
AcDbLine
 62
7
  6
BYLAYER
 10
69.4849975693
 20
75.934265173
 11
72.1412730244
 21
72.2747982212
  0
LINE
  5
353
100
AcDbEntity
  8
0
100
AcDbLine
 62
7
  6
BYLAYER
 10
64.5178892919
 20
83.9901908573
 11
68.5993736842
 21
78.3672584843
  0
LINE
  5
354
100
AcDbEntity
  8
0
100
AcDbLine
 62
7
  6
BYLAYER
 10
27.2715424943
 20
102.2275219083
 11
35.5963925929
 21
100.6877739404
  0
LINE
  5
355
100
AcDbEntity
  8
0
100
AcDbLine
 62
7
  6
BYLAYER
 10
63.8313309943
 20
92.5738393515
 11
62.0352722924
 21
93.6107708679
  0
LINE
  5
356
100
AcDbEntity
  8
0
100
AcDbLine
 62
7
  6
BYLAYER
 10
46.1711241868
 20
102.7697338438
 11
47.9671828887
 21
101.7328023273
  0
LINE
  5
357
100
AcDbEntity
  8
0
100
AcDbLine
 62
7
  6
BYLAYER
 10
47.9851434757
 20
101.7224330121
 11
62.0173117054
 21
93.6211401831
  0
ARC
  5
358
100
AcDbEntity
  8
00_COMPONENTS_3
100
AcDbCircle
 62
7
  6
BYLAYER
 10
41.5659179972
 20
69.7164472469
 40
27.8257187627
100
AcDbArc
 50
282.3095720404
 51
284.5893136853
  0
ARC
  5
359
100
AcDbEntity
  8
00_COMPONENTS_3
100
AcDbCircle
 62
7
  6
BYLAYER
 10
40.1728306916
 20
69.4968040696
 40
27.5999273567
100
AcDbArc
 50
255.4016626809
 51
257.7000620857
  0
ARC
  5
35A
100
AcDbEntity
  8
00_COMPONENTS
100
AcDbCircle
 62
7
  6
BYLAYER
 10
36.0460073336
 20
31.4057589453
 40
19.4869094028
100
AcDbArc
 50
240.0007785943
 51
240.2830560023
  0
ARC
  5
35B
100
AcDbEntity
  8
00_COMPONENTS
100
AcDbCircle
 62
7
  6
BYLAYER
 10
36.0586742904
 20
33.8397430952
 40
19.1529741315
100
AcDbArc
 50
239.7764842916
 51
240.0006877896
  0
ARC
  5
35C
100
AcDbEntity
  8
00_COMPONENTS
100
AcDbCircle
 62
7
  6
BYLAYER
 10
40.3686610614
 20
36.6677387623
 40
18.474521326
100
AcDbArc
 50
254.5433806333
 51
257.9170661112
  0
ARC
  5
35D
100
AcDbEntity
  8
00_COMPONENTS
100
AcDbCircle
 62
7
  6
BYLAYER
 10
46.4599650599
 20
18.5116620634
 40
17.746967165
100
AcDbArc
 50
55.4209685111
 51
58.7039267798
  0
ARC
  5
35E
100
AcDbEntity
  8
00_COMPONENTS
100
AcDbCircle
 62
7
  6
BYLAYER
 10
35.0325766775
 20
18.9710063077
 40
17.1992327064
100
AcDbArc
 50
121.3896530812
 51
125.2741670481
  0
ARC
  5
35F
100
AcDbEntity
  8
00_COMPONENTS
100
AcDbCircle
 62
7
  6
BYLAYER
 10
47.4983698034
 20
20.0276499628
 40
15.9094495689
100
AcDbArc
 50
51.2961982686
 51
55.4014380732
  0
ARC
  5
360
100
AcDbEntity
  8
00_COMPONENTS_3
100
AcDbCircle
 62
7
  6
BYLAYER
 10
44.4605112692
 20
61.1629925086
 40
14.4232730748
100
AcDbArc
 50
299.5406125385
 51
299.9992743815
  0
ARC
  5
361
100
AcDbEntity
  8
00_COMPONENTS
100
AcDbCircle
 62
7
  6
BYLAYER
 10
46.8718898416
 20
20.2020138918
 40
14.1928587497
100
AcDbArc
 50
53.3589833063
 51
53.6467493429
  0
ARC
  5
362
100
AcDbEntity
  8
0
100
AcDbCircle
 62
7
  6
BYLAYER
 10
76.4333241492
 20
86.0002663347
 40
13.4823174433
100
AcDbArc
 50
227.3205712213
 51
228.1233822864
  0
ARC
  5
363
100
AcDbEntity
  8
00_COMPONENTS_3
100
AcDbCircle
 62
7
  6
BYLAYER
 10
49.9541162391
 20
56.0634839866
 40
11.5040039252
100
AcDbArc
 50
316.4717713488
 51
317.8610722592
  0
ARC
  5
364
100
AcDbEntity
  8
00_COMPONENTS
100
AcDbCircle
 62
7
  6
BYLAYER
 10
31.3259783824
 20
24.2156637262
 40
9.0143275976
100
AcDbArc
 50
141.2696632182
 51
146.0826479754
  0
ARC
  5
365
100
AcDbEntity
  8
00_COMPONENTS_3
100
AcDbCircle
 62
7
  6
BYLAYER
 10
54.0614541556
 20
54.8960228248
 40
6.6779203702
100
AcDbArc
 50
349.6984698561
 51
359.9789498765
  0
ARC
  5
366
100
AcDbEntity
  8
00_COMPONENTS
100
AcDbCircle
 62
7
  6
BYLAYER
 10
28.7876951078
 20
24.6949520176
 40
6.1802962545
100
AcDbArc
 50
171.8892183512
 51
174.6290062485
  0
ARC
  5
367
100
AcDbEntity
  8
00_COMPONENTS
100
AcDbCircle
 62
7
  6
BYLAYER
 10
53.0195848473
 20
24.6968315099
 40
6.1641836504
100
AcDbArc
 50
2.7437633488
 51
8.0754646328
  0
ARC
  5
368
100
AcDbEntity
  8
0
100
AcDbCircle
 62
7
  6
BYLAYER
 10
30.5733596799
 20
81.7574573356
 40
3.1235986076
100
AcDbArc
 50
60.0009127839
 51
60.353986264
  0
ARC
  5
369
100
AcDbEntity
  8
0
100
AcDbCircle
 62
7
  6
BYLAYER
 10
44.1579582941
 20
62.695814169
 40
2.4046272565
100
AcDbArc
 50
290.2384143993
 51
294.1264855057
  0
ARC
  5
36A
100
AcDbEntity
  8
0
100
AcDbCircle
 62
7
  6
BYLAYER
 10
44.9240199369
 20
62.2446887404
 40
2.3927455285
100
AcDbArc
 50
290.5907552269
 51
292.6591662264
  0
ARC
  5
36B
100
AcDbEntity
  8
0
100
AcDbCircle
 62
7
  6
BYLAYER
 10
45.2069110434
 20
62.7345357748
 40
2.3926690218
100
AcDbArc
 50
7.3393966954
 51
9.4138791636
  0
ARC
  5
36C
100
AcDbEntity
  8
0
100
AcDbCircle
 62
7
  6
BYLAYER
 10
47.4566841336
 20
61.1089860939
 40
2.1363811034
100
AcDbArc
 50
318.7775481226
 51
341.102245398
  0
ARC
  5
36D
100
AcDbEntity
  8
0
100
AcDbCircle
 62
7
  6
BYLAYER
 10
44.2225404136
 20
62.0178611393
 40
1.7100068541
100
AcDbArc
 50
240.0410250182
 51
251.2990360678
  0
ARC
  5
36E
100
AcDbEntity
  8
0
100
AcDbCircle
 62
7
  6
BYLAYER
 10
45.0572211344
 20
63.461949771
 40
1.7020358306
100
AcDbArc
 50
48.6892649723
 51
59.9864742212
  0
ARC
  5
36F
100
AcDbEntity
  8
0
100
AcDbCircle
 62
7
  6
BYLAYER
 10
17.9676428124
 20
80.7736974817
 40
1.5308499548
100
AcDbArc
 50
147.5657892575
 51
149.9983901968
  0
ARC
  5
370
100
AcDbEntity
  8
0
100
AcDbCircle
 62
7
  6
BYLAYER
 10
15.6816947566
 20
76.8143070633
 40
1.5308450864
100
AcDbArc
 50
150.0018816563
 51
152.4284429602
  0
ARC
  5
371
100
AcDbEntity
  8
0
100
AcDbCircle
 62
7
  6
BYLAYER
 10
52.0181287774
 20
94.1900330887
 40
1.2380337874
100
AcDbArc
 50
57.0237754724
 51
60.0101751731
  0
ARC
  5
372
100
AcDbEntity
  8
0
100
AcDbCircle
 62
7
  6
BYLAYER
 10
30.1293051258
 20
81.5676136815
 40
1.2380337874
100
AcDbArc
 50
57.0237754724
 51
60.0101751731
  0
ARC
  5
373
100
AcDbEntity
  8
0
100
AcDbCircle
 62
7
  6
BYLAYER
 10
51.3069737619
 20
94.2045182651
 40
1.2209409726
100
AcDbArc
 50
120.1673543734
 51
123.0220386138
  0
ARC
  5
374
100
AcDbEntity
  8
0
100
AcDbCircle
 62
7
  6
BYLAYER
 10
29.4181501103
 20
81.5820988578
 40
1.2209409726
100
AcDbArc
 50
120.1673543734
 51
123.0220386138
  0
SPLINE
  5
375
100
AcDbEntity
  8
00_COMPONENTS
100
AcDbSpline
 62
7
  6
BYLAYER
 70
0
 71
3
 72
23
 73
19
 74
0
 42
0.0000001
 43
0.0000001
 44
0.0000000001
 40
0.0
 40
0.0
 40
0.0
 40
0.0
 40
0.0588140059
 40
0.1208591536
 40
0.1856872294
 40
0.2527636804
 40
0.3214649474
 40
0.3911190423
 40
0.461021954
 40
0.5304626776
 40
0.5987444014
 40
0.6652072369
 40
0.7292514909
 40
0.7903634658
 40
0.8481447414
 40
0.902346079
 40
0.9529069793
 40
1.0
 40
1.0
 40
1.0
 40
1.0
 10
27.9641224293
 20
18.108141607
 30
0.0
 10
28.5131213674
 20
17.7911840928
 30
0.0
 10
29.6776647341
 20
17.2015184996
 30
0.0
 10
31.5431738205
 20
16.4696401788
 30
0.0
 10
33.5500231819
 20
15.8756284445
 30
0.0
 10
35.6676645532
 20
15.428367563
 30
0.0
 10
37.8643578905
 20
15.1345971864
 30
0.0
 10
40.1068733262
 20
14.9987121625
 30
0.0
 10
42.3613255898
 20
15.0227874451
 30
0.0
 10
44.5936081592
 20
15.2064560953
 30
0.0
 10
46.7699805038
 20
15.5469454556
 30
0.0
 10
48.8575962389
 20
16.0391262243
 30
0.0
 10
50.8250226792
 20
16.675624971
 30
0.0
 10
52.6427444852
 20
17.4470164944
 30
0.0
 10
54.2835548701
 20
18.3419781857
 30
0.0
 10
55.7230579741
 20
19.3478840952
 30
0.0
 10
56.9392639872
 20
20.4501809572
 30
0.0
 10
57.6111243377
 20
21.2671873142
 30
0.0
 10
57.89830273
 20
21.685729474
 30
0.0
  0
SPLINE
  5
376
100
AcDbEntity
  8
00_COMPONENTS
100
AcDbSpline
 62
7
  6
BYLAYER
 70
0
 71
3
 72
11
 73
7
 74
0
 42
0.0000001
 43
0.0000001
 44
0.0000000001
 40
0.0
 40
0.0
 40
0.0
 40
0.0
 40
0.2634720776
 40
0.5157176885
 40
0.7599499964
 40
1.0
 40
1.0
 40
1.0
 40
1.0
 10
57.89830273
 20
21.685729474
 30
0.0
 10
58.1047477027
 20
21.9866083949
 30
0.0
 10
58.4724665705
 20
22.6018586384
 30
0.0
 10
58.8809694118
 20
23.5758948672
 30
0.0
 10
59.1282707795
 20
24.5697092943
 30
0.0
 10
59.1836110821
 20
25.2416549247
 30
0.0
 10
59.1836119213
 20
25.5741106959
 30
0.0
  0
SPLINE
  5
377
100
AcDbEntity
  8
00_COMPONENTS
100
AcDbSpline
 62
7
  6
BYLAYER
 70
0
 71
3
 72
27
 73
23
 74
0
 42
0.0000001
 43
0.0000001
 44
0.0000000001
 40
0.0
 40
0.0
 40
0.0
 40
0.0
 40
0.0623238421
 40
0.1285012874
 40
0.1978634673
 40
0.2695613199
 40
0.3426314646
 40
0.4160445093
 40
0.4887555154
 40
0.5597520838
 40
0.6281043517
 40
0.693018766
 40
0.7538984858
 40
0.7827271817
 40
0.8104505997
 40
0.8626161253
 40
0.8872166194
 40
0.9109357466
 40
0.9339036723
 40
0.9562790656
 40
0.97824549
 40
1.0
 40
1.0
 40
1.0
 40
1.0
 10
26.3553884932
 20
14.4131902771
 30
0.0
 10
27.096670827
 20
13.9852204041
 30
0.0
 10
28.6839842705
 20
13.2024855235
 30
0.0
 10
31.2432058877
 20
12.2753266577
 30
0.0
 10
34.0062296626
 20
11.5742792272
 30
0.0
 10
36.9147092502
 20
11.1138542237
 30
0.0
 10
39.9074756877
 20
10.9034054147
 30
0.0
 10
42.9211649175
 20
10.9473403191
 30
0.0
 10
45.8919610127
 20
11.244734554
 30
0.0
 10
48.7570343398
 20
11.7894194561
 30
0.0
 10
51.4562281457
 20
12.5702950848
 30
0.0
 10
53.932866554
 20
13.571573401
 30
0.0
 10
55.8022219459
 20
14.5918300815
 30
0.0
 10
57.1330330185
 20
15.5053201709
 30
0.0
 10
58.3001862737
 20
16.4378105773
 30
0.0
 10
59.316654468
 20
17.4628167621
 30
0.0
 10
60.140711618
 20
18.5722151846
 30
0.0
 10
60.643121112
 20
19.4147017994
 30
0.0
 10
61.0381229251
 20
20.2792280997
 30
0.0
 10
61.3228861321
 20
21.1610573266
 30
0.0
 10
61.4946851119
 20
22.0546887701
 30
0.0
 10
61.5331374043
 20
22.6558307243
 30
0.0
 10
61.5331374043
 20
22.9546066842
 30
0.0
  0
SPLINE
  5
378
100
AcDbEntity
  8
00_COMPONENTS
100
AcDbSpline
 62
7
  6
BYLAYER
 70
0
 71
3
 72
15
 73
11
 74
0
 42
0.0000001
 43
0.0000001
 44
0.0000000001
 40
0.0
 40
0.0
 40
0.0
 40
0.0
 40
0.1091247449
 40
0.2201162913
 40
0.3346854598
 40
0.4542890955
 40
0.5800422747
 40
0.7126880108
 40
0.8526673291
 40
1.0
 40
1.0
 40
1.0
 40
1.0
 10
20.2581374043
 20
22.9546066842
 30
0.0
 10
20.2581374043
 20
22.5550753558
 30
0.0
 10
20.3273418216
 20
21.7475626893
 30
0.0
 10
20.6357503557
 20
20.5562667759
 30
0.0
 10
21.143615358
 20
19.3936582166
 30
0.0
 10
21.8432110043
 20
18.2719688709
 30
0.0
 10
22.7255807935
 20
17.2011595863
 30
0.0
 10
23.7809139105
 20
16.1899934121
 30
0.0
 10
24.9984371515
 20
15.247008632
 30
0.0
 10
25.8882348421
 20
14.6828954618
 30
0.0
 10
26.3553884932
 20
14.4131902771
 30
0.0
  0
SPLINE
  5
379
100
AcDbEntity
  8
00_COMPONENTS
100
AcDbSpline
 62
7
  6
BYLAYER
 70
0
 71
3
 72
16
 73
12
 74
0
 42
0.0000001
 43
0.0000001
 44
0.0000000001
 40
0.0
 40
0.0
 40
0.0
 40
0.0
 40
0.1097063536
 40
0.2211933629
 40
0.3360985186
 40
0.4558293876
 40
0.517891412
 40
0.5815406645
 40
0.713861372
 40
0.8533104052
 40
1.0
 40
1.0
 40
1.0
 40
1.0
 10
61.5331374043
 20
25.366719079
 30
0.0
 10
61.5331374043
 20
25.7556003043
 30
0.0
 10
61.4676327224
 20
26.5411634099
 30
0.0
 10
61.1755511598
 20
27.7011725844
 30
0.0
 10
60.694277405
 20
28.8347068991
 30
0.0
 10
60.1476781803
 20
29.7372726492
 30
0.0
 10
59.6274575566
 20
30.4351952737
 30
0.0
 10
59.0365330088
 20
31.1340204725
 30
0.0
 10
58.1898373648
 20
31.9725657281
 30
0.0
 10
57.0314177665
 20
32.9025737315
 30
0.0
 10
56.1833886672
 20
33.4618845196
 30
0.0
 10
55.7379109168
 20
33.730074968
 30
0.0
  0
SPLINE
  5
37A
100
AcDbEntity
  8
00_COMPONENTS
100
AcDbSpline
 62
7
  6
BYLAYER
 70
0
 71
3
 72
15
 73
11
 74
0
 42
0.0000001
 43
0.0000001
 44
0.0000000001
 40
0.0
 40
0.0
 40
0.0
 40
0.0
 40
0.1080116426
 40
0.2180599213
 40
0.3319965368
 40
0.4513553121
 40
0.5772747045
 40
0.7104901567
 40
0.8514140575
 40
1.0
 40
1.0
 40
1.0
 40
1.0
 10
22.6076628873
 20
25.57411069
 30
0.0
 10
22.6076620135
 20
25.227894642
 30
0.0
 10
22.6677790606
 20
24.5275287583
 30
0.0
 10
22.9361330851
 20
23.4930631286
 30
0.0
 10
23.3791223895
 20
22.4808875497
 30
0.0
 10
23.9911016883
 20
21.5012487821
 30
0.0
 10
24.7651644248
 20
20.5630192984
 30
0.0
 10
25.6934345145
 20
19.6744947303
 30
0.0
 10
26.7666456837
 20
18.8438385164
 30
0.0
 10
27.5516571129
 20
18.3462731812
 30
0.0
 10
27.9641224293
 20
18.108141607
 30
0.0
  0
SPLINE
  5
37B
100
AcDbEntity
  8
00_COMPONENTS
100
AcDbSpline
 62
7
  6
BYLAYER
 70
0
 71
3
 72
39
 73
35
 74
0
 42
0.0000001
 43
0.0000001
 44
0.0000000001
 40
0.0
 40
0.0
 40
0.0
 40
0.0
 40
0.0283376932
 40
0.0551946887
 40
0.0806809691
 40
0.1049722065
 40
0.1283180669
 40
0.1510333211
 40
0.1734812937
 40
0.1960476986
 40
0.2191082111
 40
0.2429990355
 40
0.2679961681
 40
0.2943048767
 40
0.322059747
 40
0.3513295943
 40
0.3821240239
 40
0.4144025569
 40
0.448082409
 40
0.4830445044
 40
0.5191404573
 40
0.5561982265
 40
0.5940263694
 40
0.6324191468
 40
0.6711607916
 40
0.7100290596
 40
0.7487997453
 40
0.7872502421
 40
0.825163208
 40
0.8623322447
 40
0.8985631255
 40
0.9336793147
 40
0.9675381609
 40
1.0
 40
1.0
 40
1.0
 40
1.0
 10
57.4464601408
 20
32.4432081147
 30
0.0
 10
57.8059333311
 20
32.1545044721
 30
0.0
 10
58.480523204
 20
31.5590528784
 30
0.0
 10
59.3685368978
 20
30.5887232245
 30
0.0
 10
60.0975764806
 20
29.5732115824
 30
0.0
 10
60.6604516065
 20
28.5208034617
 30
0.0
 10
61.0512815609
 20
27.4404204763
 30
0.0
 10
61.2655719184
 20
26.3418239594
 30
0.0
 10
61.3005302436
 20
25.2355705051
 30
0.0
 10
61.1556369854
 20
24.1327083494
 30
0.0
 10
60.8328862848
 20
23.0440523901
 30
0.0
 10
60.3361770573
 20
21.9796773674
 30
0.0
 10
59.6708798978
 20
20.9488318316
 30
0.0
 10
58.8436310796
 20
19.9599784884
 30
0.0
 10
57.8620227051
 20
19.0210965597
 30
0.0
 10
56.7346645062
 20
18.1398190661
 30
0.0
 10
55.4713299732
 20
17.3232951901
 30
0.0
 10
54.0828397165
 20
16.5782605505
 30
0.0
 10
52.5810378114
 20
15.9109913046
 30
0.0
 10
50.9787891347
 20
15.3270857215
 30
0.0
 10
49.2898271371
 20
14.8314811945
 30
0.0
 10
47.5286315446
 20
14.4284539409
 30
0.0
 10
45.710340987
 20
14.1214422159
 30
0.0
 10
43.8505984898
 20
13.9130508538
 30
0.0
 10
41.9654061699
 20
13.8051076717
 30
0.0
 10
40.0709982671
 20
13.7985471595
 30
0.0
 10
38.1836908517
 20
13.8933873319
 30
0.0
 10
36.3197401557
 20
14.088835998
 30
0.0
 10
34.4951874986
 20
14.3832279277
 30
0.0
 10
32.7257272103
 20
14.774011738
 30
0.0
 10
31.0265967004
 20
15.2578196854
 30
0.0
 10
29.4122360769
 20
15.8305789447
 30
0.0
 10
27.89678993
 20
16.4873840526
 30
0.0
 10
26.9397835221
 20
16.9885935695
 30
0.0
 10
26.4823863384
 20
17.2526659825
 30
0.0
  0
SPLINE
  5
37C
100
AcDbEntity
  8
00_COMPONENTS
100
AcDbSpline
 62
7
  6
BYLAYER
 70
0
 71
3
 72
24
 73
20
 74
0
 42
0.0000001
 43
0.0000001
 44
0.0000000001
 40
0.0
 40
0.0
 40
0.0
 40
0.0
 40
0.0752681876
 40
0.1469150693
 40
0.2149091446
 40
0.2475950665
 40
0.2794400189
 40
0.3407484828
 40
0.3993158488
 40
0.4557648792
 40
0.5108632522
 40
0.5654816191
 40
0.6205296617
 40
0.6768819935
 40
0.7353132926
 40
0.7964548894
 40
0.8607730728
 40
0.9285707019
 40
1.0
 40
1.0
 40
1.0
 40
1.0
 10
26.4175531085
 20
17.2902657489
 30
0.0
 10
25.9899780265
 20
17.5393566452
 30
0.0
 10
25.1737797715
 20
18.0582831856
 30
0.0
 10
24.0506327023
 20
18.9185049552
 30
0.0
 10
23.220415595
 20
19.6926455469
 30
0.0
 10
22.6336452697
 20
20.3372724523
 30
0.0
 10
22.1121235621
 20
20.9799659848
 30
0.0
 10
21.5530710373
 20
21.8094301357
 30
0.0
 10
21.0358619707
 20
22.8509360487
 30
0.0
 10
20.6860375639
 20
23.9175914842
 30
0.0
 10
20.5075875403
 20
24.9998864635
 30
0.0
 10
20.5027050179
 20
26.0877085663
 30
0.0
 10
20.6715442464
 20
27.170587091
 30
0.0
 10
21.011920996
 20
28.2383473392
 30
0.0
 10
21.5199107495
 20
29.2815501942
 30
0.0
 10
22.1903163314
 20
30.2914771006
 30
0.0
 10
23.0167851977
 20
31.2601300736
 30
0.0
 10
23.9918936139
 20
32.1798836832
 30
0.0
 10
24.7169046709
 20
32.7411118086
 30
0.0
 10
25.1001987707
 20
33.0124262789
 30
0.0
  0
SPLINE
  5
37D
100
AcDbEntity
  8
00_COMPONENTS
100
AcDbSpline
 62
7
  6
BYLAYER
 70
0
 71
3
 72
9
 73
5
 74
0
 42
0.0000001
 43
0.0000001
 44
0.0000000001
 40
0.0
 40
0.0
 40
0.0
 40
0.0
 40
0.2634882448
 40
1.0
 40
1.0
 40
1.0
 40
1.0
 10
26.4705625487
 20
32.0642062245
 30
0.0
 10
26.2470502329
 20
31.8986230878
 30
0.0
 10
25.4177292244
 20
31.2456664964
 30
0.0
 10
24.6669354279
 20
30.48799892
 30
0.0
 10
24.1917805741
 20
29.8725402245
 30
0.0
  0
SPLINE
  5
37E
100
AcDbEntity
  8
00_COMPONENTS
100
AcDbSpline
 62
7
  6
BYLAYER
 70
0
 71
3
 72
12
 73
8
 74
0
 42
0.0000001
 43
0.0000001
 44
0.0000000001
 40
0.0
 40
0.0
 40
0.0
 40
0.0
 40
0.2660729417
 40
0.5187852304
 40
0.7618205138
 40
0.8812343982
 40
1.0
 40
1.0
 40
1.0
 40
1.0
 10
24.1917805741
 20
29.8725402245
 30
0.0
 10
23.9390995656
 20
29.5452475059
 30
0.0
 10
23.4878374018
 20
28.8731944588
 30
0.0
 10
22.9828939682
 20
27.79714027
 30
0.0
 10
22.7259543879
 20
26.8707786095
 30
0.0
 10
22.6245110193
 20
26.1290521755
 30
0.0
 10
22.6076633532
 20
25.7586749697
 30
0.0
 10
22.6076628873
 20
25.57411069
 30
0.0
  0
SPLINE
  5
37F
100
AcDbEntity
  8
00_COMPONENTS
100
AcDbSpline
 62
7
  6
BYLAYER
 70
0
 71
3
 72
15
 73
11
 74
0
 42
0.0000001
 43
0.0000001
 44
0.0000000001
 40
0.0
 40
0.0
 40
0.0
 40
0.0
 40
0.1485902349
 40
0.2895077288
 40
0.4227229736
 40
0.5486439913
 40
0.6680022941
 40
0.7819391996
 40
0.8919879831
 40
1.0
 40
1.0
 40
1.0
 40
1.0
 10
26.3027819638
 20
16.9415803535
 30
0.0
 10
25.8373126031
 20
17.2103131346
 30
0.0
 10
24.9514479103
 20
17.7717872673
 30
0.0
 10
23.7403742806
 20
18.7091687683
 30
0.0
 10
22.692867185
 20
19.7118373676
 30
0.0
 10
21.8193280632
 20
20.7705833091
 30
0.0
 10
21.1287330763
 20
21.8760930211
 30
0.0
 10
20.6288541132
 20
23.0183129514
 30
0.0
 10
20.3259775983
 20
24.1856734871
 30
0.0
 10
20.2581611492
 20
24.9760223124
 30
0.0
 10
20.2581477901
 20
25.3667190792
 30
0.0
  0
SPLINE
  5
380
100
AcDbEntity
  8
00_COMPONENTS
100
AcDbSpline
 62
7
  6
BYLAYER
 70
0
 71
3
 72
11
 73
7
 74
0
 42
0.0000001
 43
0.0000001
 44
0.0000000001
 40
0.0
 40
0.0
 40
0.0
 40
0.0
 40
0.2550986272
 40
0.5058693231
 40
0.7536855055
 40
1.0
 40
1.0
 40
1.0
 40
1.0
 10
61.028690776
 20
20.3363818366
 30
0.0
 10
61.1115547467
 20
20.5487595392
 30
0.0
 10
61.257726779
 20
20.9772965079
 30
0.0
 10
61.4163835676
 20
21.6328419402
 30
0.0
 10
61.5118781847
 20
22.2926126258
 30
0.0
 10
61.5331345451
 20
22.7344858043
 30
0.0
 10
61.5331270185
 20
22.9546066841
 30
0.0
  0
SPLINE
  5
381
100
AcDbEntity
  8
00_COMPONENTS
100
AcDbSpline
 62
7
  6
BYLAYER
 70
0
 71
3
 72
9
 73
5
 74
0
 42
0.0000001
 43
0.0000001
 44
0.0000000001
 40
0.0
 40
0.0
 40
0.0
 40
0.0
 40
0.4844285275
 40
1.0
 40
1.0
 40
1.0
 40
1.0
 10
31.9782802028
 20
19.5528638836
 30
0.0
 10
32.4389428219
 20
19.2869062133
 30
0.0
 10
33.4270682321
 20
18.8009968238
 30
0.0
 10
34.4625023647
 20
18.4289601852
 30
0.0
 10
35.0039850344
 20
18.2637657779
 30
0.0
  0
SPLINE
  5
382
100
AcDbEntity
  8
00_COMPONENTS
100
AcDbSpline
 62
7
  6
BYLAYER
 70
0
 71
3
 72
11
 73
7
 74
0
 42
0.0000001
 43
0.0000001
 44
0.0000000001
 40
0.0
 40
0.0
 40
0.0
 40
0.0
 40
0.2264114327
 40
0.4678463057
 40
0.7256353413
 40
1.0
 40
1.0
 40
1.0
 40
1.0
 10
21.3696999367
 20
19.0970424201
 30
0.0
 10
21.6310119649
 20
18.6561370765
 30
0.0
 10
22.2483823332
 20
17.789499749
 30
0.0
 10
23.3867406619
 20
16.5989010112
 30
0.0
 10
24.7494232927
 20
15.4926726484
 30
0.0
 10
25.7649115627
 20
14.8400005543
 30
0.0
 10
26.3027819638
 20
14.5294679587
 30
0.0
  0
SPLINE
  5
383
100
AcDbEntity
  8
00_COMPONENTS
100
AcDbSpline
 62
7
  6
BYLAYER
 70
0
 71
3
 72
18
 73
14
 74
0
 42
0.0000001
 43
0.0000001
 44
0.0000000001
 40
0.0
 40
0.0
 40
0.0
 40
0.0
 40
0.1349248944
 40
0.2727139289
 40
0.4102705349
 40
0.5444919078
 40
0.6094730945
 40
0.6725828458
 40
0.7335412926
 40
0.7921150114
 40
0.8481256704
 40
0.9014661832
 40
1.0
 40
1.0
 40
1.0
 40
1.0
 10
36.5014391855
 20
17.8766381623
 30
0.0
 10
37.2432734769
 20
17.7174269907
 30
0.0
 10
38.7627335035
 20
17.4836111184
 30
0.0
 10
41.0716266644
 20
17.3800881336
 30
0.0
 10
43.3747499015
 20
17.520614702
 30
0.0
 10
45.2456864698
 20
17.8407792537
 30
0.0
 10
46.6726197371
 20
18.2175837134
 30
0.0
 10
47.6824058464
 20
18.5523317811
 30
0.0
 10
48.6346120953
 20
18.939391936
 30
0.0
 10
49.5211105418
 20
19.375532307
 30
0.0
 10
50.3347403604
 20
19.8572541012
 30
0.0
 10
51.2869840667
 20
20.5363312826
 30
0.0
 10
51.9140905574
 20
21.1280856062
 30
0.0
 10
52.2680089792
 20
21.5544130583
 30
0.0
  0
SPLINE
  5
384
100
AcDbEntity
  8
00_COMPONENTS
100
AcDbSpline
 62
7
  6
BYLAYER
 70
0
 71
3
 72
9
 73
5
 74
0
 42
0.0000001
 43
0.0000001
 44
0.0000000001
 40
0.0
 40
0.0
 40
0.0
 40
0.0
 40
0.254803714
 40
1.0
 40
1.0
 40
1.0
 40
1.0
 10
52.2680089792
 20
22.2802837072
 30
0.0
 10
52.3090911332
 20
22.329770959
 30
0.0
 10
52.4675427218
 20
22.5262700501
 30
0.0
 10
52.6145871823
 20
22.7320328379
 30
0.0
 10
52.7164184793
 20
22.8901871253
 30
0.0
  0
SPLINE
  5
385
100
AcDbEntity
  8
00_COMPONENTS
100
AcDbSpline
 62
7
  6
BYLAYER
 70
0
 71
3
 72
29
 73
25
 74
0
 42
0.0000001
 43
0.0000001
 44
0.0000000001
 40
0.0
 40
0.0
 40
0.0
 40
0.0
 40
0.0213280228
 40
0.0428844552
 40
0.0648857531
 40
0.0875262288
 40
0.1109715595
 40
0.1353538529
 40
0.1607725556
 40
0.1872931844
 40
0.2149523864
 40
0.2437579576
 40
0.2736946358
 40
0.3047246262
 40
0.3698010224
 40
0.438386449
 40
0.5096606687
 40
0.582672411
 40
0.6563912597
 40
0.7297557861
 40
0.8017197522
 40
0.8713007879
 40
0.9376266059
 40
1.0
 40
1.0
 40
1.0
 40
1.0
 10
61.5331270185
 20
25.3667190789
 30
0.0
 10
61.533137029
 20
25.0739547478
 30
0.0
 10
61.4953295118
 20
24.4846147058
 30
0.0
 10
61.326034304
 20
23.6079359096
 30
0.0
 10
61.0451413529
 20
22.7414350942
 30
0.0
 10
60.6546526753
 20
21.8901232656
 30
0.0
 10
60.1569070555
 20
21.0586319541
 30
0.0
 10
59.5550248462
 20
20.2512781127
 30
0.0
 10
58.8523161377
 20
19.4723734453
 30
0.0
 10
58.0528201968
 20
18.7258329193
 30
0.0
 10
57.1607958478
 20
18.015654996
 30
0.0
 10
56.1811619616
 20
17.3454373064
 30
0.0
 10
55.1191098273
 20
16.7187683641
 30
0.0
 10
53.5764883407
 20
15.9332908441
 30
0.0
 10
51.4749141831
 20
15.0867060531
 30
0.0
 10
48.7677414542
 20
14.3065025078
 30
0.0
 10
45.8927124393
 20
13.7623583299
 30
0.0
 10
42.9112286498
 20
13.465865466
 30
0.0
 10
39.8867307616
 20
13.4232979481
 30
0.0
 10
36.8837545532
 20
13.6355843338
 30
0.0
 10
33.9663507108
 20
14.0981626715
 30
0.0
 10
31.1964459284
 20
14.8013522505
 30
0.0
 10
28.6332218592
 20
15.730051535
 30
0.0
 10
27.0442629741
 20
16.5134957772
 30
0.0
 10
26.3027819638
 20
16.9415803535
 30
0.0
  0
SPLINE
  5
386
100
AcDbEntity
  8
00_COMPONENTS
100
AcDbSpline
 62
7
  6
BYLAYER
 70
0
 71
3
 72
11
 73
7
 74
0
 42
0.0000001
 43
0.0000001
 44
0.0000000001
 40
0.0
 40
0.0
 40
0.0
 40
0.0
 40
0.2404415769
 40
0.48594703
 40
0.7386061848
 40
1.0
 40
1.0
 40
1.0
 40
1.0
 10
22.6692195777
 20
25.5669147349
 30
0.0
 10
22.7054331619
 20
25.8211411196
 30
0.0
 10
22.8106863462
 20
26.3308951231
 30
0.0
 10
23.0617034591
 20
27.080533276
 30
0.0
 10
23.4055193492
 20
27.8170481827
 30
0.0
 10
23.6898066086
 20
28.2880325241
 30
0.0
 10
23.8454987155
 20
28.5197558992
 30
0.0
  0
SPLINE
  5
387
100
AcDbEntity
  8
00_COMPONENTS
100
AcDbSpline
 62
7
  6
BYLAYER
 70
0
 71
3
 72
14
 73
10
 74
0
 42
0.0000001
 43
0.0000001
 44
0.0000000001
 40
0.0
 40
0.0
 40
0.0
 40
0.0
 40
0.2792280019
 40
0.4104747786
 40
0.536455828
 40
0.6576732929
 40
0.7747708404
 40
0.8885606601
 40
1.0
 40
1.0
 40
1.0
 40
1.0
 10
55.3421799981
 20
31.1754449293
 30
0.0
 10
55.8606673254
 20
30.7898031457
 30
0.0
 10
56.5864790665
 20
30.1690470539
 30
0.0
 10
57.4196411794
 20
29.2469729099
 30
0.0
 10
57.9457883409
 20
28.545123622
 30
0.0
 10
58.3829819623
 20
27.8225856118
 30
0.0
 10
58.7287286881
 20
27.0828835424
 30
0.0
 10
58.9809512431
 20
26.3300959051
 30
0.0
 10
59.0864377868
 20
25.8180941679
 30
0.0
 10
59.1226438613
 20
25.5627591897
 30
0.0
  0
SPLINE
  5
388
100
AcDbEntity
  8
00_COMPONENTS
100
AcDbSpline
 62
7
  6
BYLAYER
 70
0
 71
3
 72
11
 73
7
 74
0
 42
0.0000001
 43
0.0000001
 44
0.0000000001
 40
0.0
 40
0.0
 40
0.0
 40
0.0
 40
0.2439366016
 40
0.4903710741
 40
0.7416754172
 40
1.0
 40
1.0
 40
1.0
 40
1.0
 10
28.284561351
 20
24.7012717341
 30
0.0
 10
28.2845611307
 20
24.5263100939
 30
0.0
 10
28.3066003045
 20
24.1742073087
 30
0.0
 10
28.4055789652
 20
23.6502376932
 30
0.0
 10
28.5696685903
 20
23.1321037519
 30
0.0
 10
28.7195327913
 20
22.7977479699
 30
0.0
 10
28.8041274453
 20
22.6329059007
 30
0.0
  0
SPLINE
  5
389
100
AcDbEntity
  8
00_COMPONENTS
100
AcDbSpline
 62
7
  6
BYLAYER
 70
0
 71
3
 72
11
 73
7
 74
0
 42
0.0000001
 43
0.0000001
 44
0.0000000001
 40
0.0
 40
0.0
 40
0.0
 40
0.0
 40
0.2245163611
 40
0.4650038669
 40
0.723348436
 40
1.0
 40
1.0
 40
1.0
 40
1.0
 10
28.8041274453
 20
22.6329059007
 30
0.0
 10
28.9571724262
 20
22.334680775
 30
0.0
 10
29.3339216668
 20
21.7465319587
 30
0.0
 10
30.0588300295
 20
20.9408449806
 30
0.0
 10
30.9487570172
 20
20.195115177
 30
0.0
 10
31.620574384
 20
19.7593807624
 30
0.0
 10
31.9782802028
 20
19.5528638836
 30
0.0
  0
SPLINE
  5
38A
100
AcDbEntity
  8
00_COMPONENTS
100
AcDbSpline
 62
7
  6
BYLAYER
 70
0
 71
3
 72
11
 73
7
 74
0
 42
0.0000001
 43
0.0000001
 44
0.0000000001
 40
0.0
 40
0.0
 40
0.0
 40
0.0
 40
0.2571087821
 40
0.5081904539
 40
0.7551390407
 40
1.0
 40
1.0
 40
1.0
 40
1.0
 10
53.0716621218
 20
22.8053667857
 30
0.0
 10
53.1427609106
 20
22.9575507481
 30
0.0
 10
53.2684917262
 20
23.2655799914
 30
0.0
 10
53.4056807439
 20
23.7404469732
 30
0.0
 10
53.4883144574
 20
24.2196975618
 30
0.0
 10
53.506713262
 20
24.5413002312
 30
0.0
 10
53.5067171246
 20
24.7012717371
 30
0.0
  0
SPLINE
  5
38B
100
AcDbEntity
  8
00_COMPONENTS_3
100
AcDbSpline
 62
7
  6
BYLAYER
 70
0
 71
3
 72
14
 73
10
 74
0
 42
0.0000001
 43
0.0000001
 44
0.0000000001
 40
0.0
 40
0.0
 40
0.0
 40
0.0
 40
0.1170318337
 40
0.2349046454
 40
0.3544262518
 40
0.4763518954
 40
0.601355795
 40
0.7300262384
 40
1.0
 40
1.0
 40
1.0
 40
1.0
 10
21.0519003624
 20
53.6492196983
 30
0.0
 10
21.0518946375
 20
53.4193987743
 30
0.0
 10
21.0760202561
 20
52.9577471435
 30
0.0
 10
21.184343047
 20
52.2690475773
 30
0.0
 10
21.3642620922
 20
51.5855227159
 30
0.0
 10
21.6151538849
 20
50.9098981652
 30
0.0
 10
21.9358662303
 20
50.2444975128
 30
0.0
 10
22.4631789167
 20
49.3605184393
 30
0.0
 10
22.9487366363
 20
48.7410164634
 30
0.0
 10
23.3043004454
 20
48.3477681878
 30
0.0
  0
SPLINE
  5
38C
100
AcDbEntity
  8
00_COMPONENTS_3
100
AcDbSpline
 62
7
  6
BYLAYER
 70
0
 71
3
 72
18
 73
14
 74
0
 42
0.0000001
 43
0.0000001
 44
0.0000000001
 40
0.0
 40
0.0
 40
0.0
 40
0.0
 40
0.0529724413
 40
0.1082845108
 40
0.1658129004
 40
0.2253846945
 40
0.3497244124
 40
0.4792935686
 40
0.6116783548
 40
0.7442925138
 40
0.8745318323
 40
0.938022423
 40
1.0
 40
1.0
 40
1.0
 40
1.0
 10
25.6500994895
 20
46.3156714686
 30
0.0
 10
26.0230212923
 20
46.0572492033
 30
0.0
 10
26.807731541
 20
45.5607462131
 30
0.0
 10
28.0621515533
 20
44.8924917053
 30
0.0
 10
29.4111348701
 20
44.288945418
 30
0.0
 10
31.3499045662
 20
43.5662376958
 30
0.0
 10
33.9464901099
 20
42.8582838526
 30
0.0
 10
37.219016906
 20
42.3339421805
 30
0.0
 10
40.5985049997
 20
42.137835496
 30
0.0
 10
43.9862393668
 20
42.2757200634
 30
0.0
 10
46.759161457
 20
42.6688880073
 30
0.0
 10
48.8967479511
 20
43.149754983
 30
0.0
 10
49.9311523678
 20
43.4436968683
 30
0.0
 10
50.4372319728
 20
43.6039267515
 30
0.0
  0
SPLINE
  5
38D
100
AcDbEntity
  8
00_COMPONENTS_3
100
AcDbSpline
 62
7
  6
BYLAYER
 70
0
 71
3
 72
26
 73
22
 74
0
 42
0.0000001
 43
0.0000001
 44
0.0000000001
 40
0.0
 40
0.0
 40
0.0
 40
0.0
 40
0.0623804816
 40
0.1287165193
 40
0.19830595
 40
0.2702791044
 40
0.3436531226
 40
0.4173816621
 40
0.4904027864
 40
0.5616860115
 40
0.6302800916
 40
0.6953647374
 40
0.7563096044
 40
0.8127443351
 40
0.839268375
 40
0.8646902412
 40
0.9124626408
 40
0.9351059829
 40
0.9571100924
 40
0.9786692059
 40
1.0
 40
1.0
 40
1.0
 40
1.0
 10
30.7219017699
 20
25.542738143
 30
0.0
 10
31.2388342175
 20
25.2442938069
 30
0.0
 10
32.346621719
 20
24.6981010298
 30
0.0
 10
34.1336271409
 20
24.0506201342
 30
0.0
 10
36.0647424103
 20
23.5603868611
 30
0.0
 10
38.0986689811
 20
23.2378824754
 30
0.0
 10
40.1922647266
 20
23.0898866285
 30
0.0
 10
42.3008612931
 20
23.1195626597
 30
0.0
 10
44.379479697
 20
23.3262745773
 30
0.0
 10
46.3838327619
 20
23.7056303531
 30
0.0
 10
48.2713157136
 20
24.24959839
 30
0.0
 10
50.002117193
 20
24.9468935284
 30
0.0
 10
51.539569358
 20
25.7830828404
 30
0.0
 10
52.6556918322
 20
26.5986111123
 30
0.0
 10
53.414579399
 20
27.3072062649
 30
0.0
 10
54.0542794323
 20
28.0161605263
 30
0.0
 10
54.5739365666
 20
28.780889755
 30
0.0
 10
54.9432888214
 20
29.5862085321
 30
0.0
 10
55.1391344183
 20
30.1903467907
 30
0.0
 10
55.2571724527
 20
30.8015310456
 30
0.0
 10
55.2835071731
 20
31.2124045785
 30
0.0
 10
55.2835166225
 20
31.4165120988
 30
0.0
  0
SPLINE
  5
38E
100
AcDbEntity
  8
00_COMPONENTS_3
100
AcDbSpline
 62
7
  6
BYLAYER
 70
0
 71
3
 72
15
 73
11
 74
0
 42
0.0000001
 43
0.0000001
 44
0.0000000001
 40
0.0
 40
0.0
 40
0.0
 40
0.0
 40
0.1114211779
 40
0.224385214
 40
0.340329281
 40
0.460507262
 40
0.5859357871
 40
0.7173599691
 40
0.8552810906
 40
1.0
 40
1.0
 40
1.0
 40
1.0
 10
24.8956542155
 20
37.1337478988
 30
0.0
 10
24.8956542171
 20
36.8751215892
 30
0.0
 10
24.9337833792
 20
36.3535126659
 30
0.0
 10
25.1045417983
 20
35.5796614688
 30
0.0
 10
25.3872250839
 20
34.8176612793
 30
0.0
 10
25.7793453673
 20
34.0732399816
 30
0.0
 10
26.2777010825
 20
33.3515382331
 30
0.0
 10
26.8783452344
 20
32.6573247896
 30
0.0
 10
27.5769679885
 20
31.9952889057
 30
0.0
 10
28.092458233
 20
31.5879719824
 30
0.0
 10
28.3641335021
 20
31.3904071256
 30
0.0
  0
SPLINE
  5
38F
100
AcDbEntity
  8
00_COMPONENTS_3
100
AcDbSpline
 62
7
  6
BYLAYER
 70
0
 71
3
 72
9
 73
5
 74
0
 42
0.0000001
 43
0.0000001
 44
0.0000000001
 40
0.0
 40
0.0
 40
0.0
 40
0.0
 40
0.2444737363
 40
1.0
 40
1.0
 40
1.0
 40
1.0
 10
28.3641335021
 20
31.3904071256
 30
0.0
 10
28.4597798512
 20
31.3208521847
 30
0.0
 10
28.8550091191
 20
31.0418606178
 30
0.0
 10
29.2654575969
 20
30.78457929
 30
0.0
 10
29.581976006
 20
30.6018414353
 30
0.0
  0
SPLINE
  5
390
100
AcDbEntity
  8
00_COMPONENTS_3
100
AcDbSpline
 62
7
  6
BYLAYER
 70
0
 71
3
 72
9
 73
5
 74
0
 42
0.0000001
 43
0.0000001
 44
0.0000000001
 40
0.0
 40
0.0
 40
0.0
 40
0.0
 40
0.2555420668
 40
1.0
 40
1.0
 40
1.0
 40
1.0
 10
52.2095885073
 20
30.6020086969
 30
0.0
 10
52.3166179352
 20
30.6638039399
 30
0.0
 10
52.7324421834
 20
30.9107753336
 30
0.0
 10
53.1359543225
 20
31.1786531281
 30
0.0
 10
53.4271421972
 20
31.3904077796
 30
0.0
  0
SPLINE
  5
391
100
AcDbEntity
  8
00_COMPONENTS_3
100
AcDbSpline
 62
7
  6
BYLAYER
 70
0
 71
3
 72
15
 73
11
 74
0
 42
0.0000001
 43
0.0000001
 44
0.0000000001
 40
0.0
 40
0.0
 40
0.0
 40
0.0
 40
0.1447189103
 40
0.2826400296
 40
0.4140642082
 40
0.5394927327
 40
0.6596707138
 40
0.775614782
 40
0.8885788199
 40
1.0
 40
1.0
 40
1.0
 40
1.0
 10
53.4271421972
 20
31.3904077796
 30
0.0
 10
53.6988174067
 20
31.5879726313
 30
0.0
 10
54.2143075371
 20
31.9952895254
 30
0.0
 10
54.9129301158
 20
32.6573253576
 30
0.0
 10
55.513574102
 20
33.3515387318
 30
0.0
 10
56.0119296901
 20
34.0732403885
 30
0.0
 10
56.4040498549
 20
34.8176615989
 30
0.0
 10
56.6867330756
 20
35.5796616825
 30
0.0
 10
56.8574914329
 20
36.3535127762
 30
0.0
 10
56.8956205946
 20
36.875121625
 30
0.0
 10
56.8956205931
 20
37.1337478988
 30
0.0
  0
SPLINE
  5
392
100
AcDbEntity
  8
00_COMPONENTS_3
100
AcDbSpline
 62
7
  6
BYLAYER
 70
0
 71
3
 72
15
 73
11
 74
0
 42
0.0000001
 43
0.0000001
 44
0.0000000001
 40
0.0
 40
0.0
 40
0.0
 40
0.0
 40
0.1366058121
 40
0.2704719432
 40
0.4011452954
 40
0.5282658757
 40
0.6516265974
 40
0.7712170419
 40
0.8872301418
 40
1.0
 40
1.0
 40
1.0
 40
1.0
 10
23.4331675192
 20
43.976165899
 30
0.0
 10
23.8491824401
 20
43.6298500107
 30
0.0
 10
24.6837156983
 20
42.9570195166
 30
0.0
 10
25.95767913
 20
42.0057420554
 30
0.0
 10
27.2403978131
 20
41.1311810456
 30
0.0
 10
28.5284273892
 20
40.3412573853
 30
0.0
 10
29.8174585056
 20
39.6406867673
 30
0.0
 10
31.1030259379
 20
39.0303083575
 30
0.0
 10
32.3810377682
 20
38.5068487549
 30
0.0
 10
33.237191014
 20
38.2074307478
 30
0.0
 10
33.6625057747
 20
38.0703883101
 30
0.0
  0
SPLINE
  5
393
100
AcDbEntity
  8
00_COMPONENTS_3
100
AcDbSpline
 62
7
  6
BYLAYER
 70
0
 71
3
 72
13
 73
9
 74
0
 42
0.0000001
 43
0.0000001
 44
0.0000000001
 40
0.0
 40
0.0
 40
0.0
 40
0.0
 40
0.2494608786
 40
0.3746573513
 40
0.4999998888
 40
0.625342441
 40
0.7505389573
 40
1.0
 40
1.0
 40
1.0
 40
1.0
 10
33.6625057747
 20
38.0703883101
 30
0.0
 10
34.8529032035
 20
37.8556434878
 30
0.0
 10
36.6541804018
 20
37.5991759227
 30
0.0
 10
39.0728898471
 20
37.4221641357
 30
0.0
 10
40.8957102154
 20
37.3771568777
 30
0.0
 10
42.718530578
 20
37.4221729091
 30
0.0
 10
45.1372402512
 20
37.5991963542
 30
0.0
 10
46.9385172285
 20
37.8556725771
 30
0.0
 10
48.1289144405
 20
38.070423083
 30
0.0
  0
SPLINE
  5
394
100
AcDbEntity
  8
00_COMPONENTS_3
100
AcDbSpline
 62
7
  6
BYLAYER
 70
0
 71
3
 72
11
 73
7
 74
0
 42
0.0000001
 43
0.0000001
 44
0.0000000001
 40
0.0
 40
0.0
 40
0.0
 40
0.0
 40
0.2390498922
 40
0.4849780948
 40
0.738497266
 40
1.0
 40
1.0
 40
1.0
 40
1.0
 10
48.1289144405
 20
38.070423083
 30
0.0
 10
48.5542188989
 20
38.2074653869
 30
0.0
 10
49.4103899486
 20
38.5067865362
 30
0.0
 10
50.6883687783
 20
39.0303464266
 30
0.0
 10
51.9738824607
 20
39.6407578799
 30
0.0
 10
52.8202204197
 20
40.1006843648
 30
0.0
 10
53.2435409797
 20
40.3450871451
 30
0.0
  0
SPLINE
  5
395
100
AcDbEntity
  8
00_COMPONENTS_3
100
AcDbSpline
 62
7
  6
BYLAYER
 70
0
 71
3
 72
10
 73
6
 74
0
 42
0.0000001
 43
0.0000001
 44
0.0000000001
 40
0.0
 40
0.0
 40
0.0
 40
0.0
 40
0.4879261527
 40
0.741370173
 40
1.0
 40
1.0
 40
1.0
 40
1.0
 10
53.2435409797
 20
40.3450871451
 30
0.0
 10
54.127928908
 20
40.8556857058
 30
0.0
 10
55.4305505713
 20
41.7045287715
 30
0.0
 10
57.1075430432
 20
42.9571036406
 30
0.0
 10
57.9421550716
 20
43.6299311357
 30
0.0
 10
58.3581675188
 20
43.9762498484
 30
0.0
  0
SPLINE
  5
396
100
AcDbEntity
  8
00_COMPONENTS_3
100
AcDbSpline
 62
7
  6
BYLAYER
 70
0
 71
3
 72
15
 73
11
 74
0
 42
0.0000001
 43
0.0000001
 44
0.0000000001
 40
0.0
 40
0.0
 40
0.0
 40
0.0
 40
0.1080117539
 40
0.2180592712
 40
0.3319959697
 40
0.4513561832
 40
0.5772733251
 40
0.7104893381
 40
0.8514196408
 40
1.0
 40
1.0
 40
1.0
 40
1.0
 10
26.5077581861
 20
31.4165120783
 30
0.0
 10
26.507745576
 20
31.1441299971
 30
0.0
 10
26.5550901824
 20
30.5931295415
 30
0.0
 10
26.7661731855
 20
29.7792698328
 30
0.0
 10
27.1146955026
 20
28.9829471556
 30
0.0
 10
27.5961827341
 20
28.2122428849
 30
0.0
 10
28.2051459822
 20
27.4740840876
 30
0.0
 10
28.9354666336
 20
26.7750418724
 30
0.0
 10
29.7798159376
 20
26.1215427361
 30
0.0
 10
30.3974112539
 20
25.7300785916
 30
0.0
 10
30.7219017699
 20
25.542738143
 30
0.0
  0
SPLINE
  5
397
100
AcDbEntity
  8
00_COMPONENTS_3
100
AcDbSpline
 62
7
  6
BYLAYER
 70
0
 71
3
 72
13
 73
9
 74
0
 42
0.0000001
 43
0.0000001
 44
0.0000000001
 40
0.0
 40
0.0
 40
0.0
 40
0.0
 40
0.2700804619
 40
0.5235649566
 40
0.64550982
 40
0.7650554618
 40
0.8829487319
 40
1.0
 40
1.0
 40
1.0
 40
1.0
 10
58.4845671895
 20
48.345096014
 30
0.0
 10
58.8404976886
 20
48.7385536024
 30
0.0
 10
59.4783325532
 20
49.551326452
 30
0.0
 10
60.0876546994
 20
50.6716431586
 30
0.0
 10
60.4266269269
 20
51.5844448088
 30
0.0
 10
60.6068206449
 20
52.2683126831
 30
0.0
 10
60.7152245431
 20
52.9573810588
 30
0.0
 10
60.7393687183
 20
53.4192775543
 30
0.0
 10
60.7393744462
 20
53.6492197118
 30
0.0
  0
SPLINE
  5
398
100
AcDbEntity
  8
00_COMPONENTS_3
100
AcDbSpline
 62
7
  6
BYLAYER
 70
0
 71
3
 72
9
 73
5
 74
0
 42
0.0000001
 43
0.0000001
 44
0.0000000001
 40
0.0
 40
0.0
 40
0.0
 40
0.0
 40
0.504397587
 40
1.0
 40
1.0
 40
1.0
 40
1.0
 10
60.3810179721
 20
57.0610291596
 30
0.0
 10
60.4983344169
 20
56.7095113987
 30
0.0
 10
60.6781708112
 20
55.9936112195
 30
0.0
 10
60.7393829503
 20
55.2576854085
 30
0.0
 10
60.7393740751
 20
54.8935693972
 30
0.0
  0
SPLINE
  5
399
100
AcDbEntity
  8
00_COMPONENTS_3
100
AcDbSpline
 62
7
  6
BYLAYER
 70
0
 71
3
 72
9
 73
5
 74
0
 42
0.0000001
 43
0.0000001
 44
0.0000000001
 40
0.0
 40
0.0
 40
0.0
 40
0.0
 40
0.4915250254
 40
1.0
 40
1.0
 40
1.0
 40
1.0
 10
30.0445062286
 20
43.8415164232
 30
0.0
 10
30.5510659063
 20
43.632617855
 30
0.0
 10
31.5977215798
 20
43.2458329152
 30
0.0
 10
32.6679830924
 20
42.9308123425
 30
0.0
 10
33.2165097848
 20
42.7878993834
 30
0.0
  0
SPLINE
  5
39A
100
AcDbEntity
  8
00_COMPONENTS_3
100
AcDbSpline
 62
7
  6
BYLAYER
 70
0
 71
3
 72
9
 73
5
 74
0
 42
0.0000001
 43
0.0000001
 44
0.0000000001
 40
0.0
 40
0.0
 40
0.0
 40
0.0
 40
0.5084751053
 40
1.0
 40
1.0
 40
1.0
 40
1.0
 10
48.5749067167
 20
42.7879363005
 30
0.0
 10
49.1234312015
 20
42.9308518584
 30
0.0
 10
50.1936879008
 20
43.2458774764
 30
0.0
 10
51.2403382838
 20
43.632667533
 30
0.0
 10
51.7468950769
 20
43.8415685893
 30
0.0
  0
SPLINE
  5
39B
100
AcDbEntity
  8
00_COMPONENTS_3
100
AcDbSpline
 62
7
  6
BYLAYER
 70
0
 71
3
 72
9
 73
5
 74
0
 42
0.0000001
 43
0.0000001
 44
0.0000000001
 40
0.0
 40
0.0
 40
0.0
 40
0.0
 40
0.2578804251
 40
1.0
 40
1.0
 40
1.0
 40
1.0
 10
56.0872309089
 20
46.3474476922
 30
0.0
 10
56.2158008532
 20
46.4513681227
 30
0.0
 10
56.7068846356
 20
46.8634367052
 30
0.0
 10
57.1670530935
 20
47.3129493387
 30
0.0
 10
57.4841801658
 20
47.6675790999
 30
0.0
  0
SPLINE
  5
39C
100
AcDbEntity
  8
00_COMPONENTS_3
100
AcDbSpline
 62
7
  6
BYLAYER
 70
0
 71
3
 72
11
 73
7
 74
0
 42
0.0000001
 43
0.0000001
 44
0.0000000001
 40
0.0
 40
0.0
 40
0.0
 40
0.0
 40
0.2472827907
 40
0.5000002494
 40
0.7527175812
 40
1.0
 40
1.0
 40
1.0
 40
1.0
 10
34.2932367264
 20
42.5304108199
 30
0.0
 10
35.3640774659
 20
42.2966601721
 30
0.0
 10
37.5580759053
 20
41.9485379318
 30
0.0
 10
40.8957147059
 20
41.7759027513
 30
0.0
 10
44.2333510392
 20
41.9485538038
 30
0.0
 10
46.4273455862
 20
42.2966866482
 30
0.0
 10
47.4981834888
 20
42.5304425607
 30
0.0
  0
SPLINE
  5
39D
100
AcDbEntity
  8
00_COMPONENTS_3
100
AcDbSpline
 62
7
  6
BYLAYER
 70
0
 71
3
 72
19
 73
15
 74
0
 42
0.0000001
 43
0.0000001
 44
0.0000000001
 40
0.0
 40
0.0
 40
0.0
 40
0.0
 40
0.0553709849
 40
0.1131055347
 40
0.1729651315
 40
0.2347139496
 40
0.362629729
 40
0.4942531722
 40
0.62666527
 40
0.7568917545
 40
0.8203193787
 40
0.882166631
 40
0.9421394962
 40
1.0
 40
1.0
 40
1.0
 40
1.0
 10
29.581976006
 20
30.6018414353
 30
0.0
 10
29.9370004213
 20
30.3968726305
 30
0.0
 10
30.6794967496
 20
30.0075874625
 30
0.0
 10
31.8547309243
 20
29.4965623342
 30
0.0
 10
33.106207117
 20
29.0499834479
 30
0.0
 10
34.8827353471
 20
28.5396511875
 30
0.0
 10
37.2242790471
 20
28.089750935
 30
0.0
 10
40.1220306316
 20
27.8554315306
 30
0.0
 10
43.0453840244
 20
27.9279944303
 30
0.0
 10
45.4439353319
 20
28.2449874026
 30
0.0
 10
47.2921007828
 20
28.6523883728
 30
0.0
 10
48.6124326609
 20
29.0268062503
 30
0.0
 10
49.8677828263
 20
29.4695825642
 30
0.0
 10
50.6699617047
 20
29.8146298624
 30
0.0
 10
51.0569477544
 20
29.9983355076
 30
0.0
  0
SPLINE
  5
39E
100
AcDbEntity
  8
00_COMPONENTS_3
100
AcDbSpline
 62
7
  6
BYLAYER
 70
0
 71
3
 72
9
 73
5
 74
0
 42
0.0000001
 43
0.0000001
 44
0.0000000001
 40
0.0
 40
0.0
 40
0.0
 40
0.0
 40
0.2544185733
 40
1.0
 40
1.0
 40
1.0
 40
1.0
 10
51.0569477544
 20
29.9983355076
 30
0.0
 10
51.156629605
 20
30.0456553495
 30
0.0
 10
51.5466436844
 20
30.2353805357
 30
0.0
 10
51.9293508453
 20
30.4402143711
 30
0.0
 10
52.2093930095
 20
30.6018958249
 30
0.0
  0
SPLINE
  5
39F
100
AcDbEntity
  8
00_COMPONENTS_3
100
AcDbSpline
 62
7
  6
BYLAYER
 70
0
 71
3
 72
11
 73
7
 74
0
 42
0.0000001
 43
0.0000001
 44
0.0000000001
 40
0.0
 40
0.0
 40
0.0
 40
0.0
 40
0.2469659903
 40
0.4999997857
 40
0.7530336904
 40
1.0
 40
1.0
 40
1.0
 40
1.0
 10
46.855152924
 20
37.8405922739
 30
0.0
 10
45.8918257049
 20
37.6173540783
 30
0.0
 10
43.9121478374
 20
37.2851923384
 30
0.0
 10
40.8956913151
 20
37.1206059325
 30
0.0
 10
37.8792328794
 20
37.2851806719
 30
0.0
 10
35.8995519892
 20
37.617334617
 30
0.0
 10
34.9362225615
 20
37.8405689461
 30
0.0
  0
SPLINE
  5
3A0
100
AcDbEntity
  8
00_COMPONENTS_3
100
AcDbSpline
 62
7
  6
BYLAYER
 70
0
 71
3
 72
20
 73
16
 74
0
 42
0.0000001
 43
0.0000001
 44
0.0000000001
 40
0.0
 40
0.0
 40
0.0
 40
0.0
 40
0.055846757
 40
0.1141969611
 40
0.1748105409
 40
0.2373908119
 40
0.3015968939
 40
0.367051653
 40
0.5000274992
 40
0.6330035933
 40
0.7626069759
 40
0.8251873205
 40
0.8857979846
 40
0.9441609925
 40
1.0
 40
1.0
 40
1.0
 40
1.0
 10
51.0696202082
 20
29.9438442849
 30
0.0
 10
50.7287653942
 20
29.7470460462
 30
0.0
 10
50.0140538854
 20
29.3747320262
 30
0.0
 10
48.8798104242
 20
28.8910958663
 30
0.0
 10
47.6692311621
 20
28.4738028474
 30
0.0
 10
46.393971056
 20
28.1268135762
 30
0.0
 10
45.0660905608
 20
27.8534426349
 30
0.0
 10
43.2331663161
 20
27.5892911645
 30
0.0
 10
40.8956298071
 20
27.458100241
 30
0.0
 10
38.1067561254
 20
27.614623603
 30
0.0
 10
35.8425650068
 20
28.0057689315
 30
0.0
 10
34.1224026404
 20
28.4736651555
 30
0.0
 10
32.9117219648
 20
28.8909764809
 30
0.0
 10
31.7774913055
 20
29.374657042
 30
0.0
 10
31.0627136465
 20
29.7469227939
 30
0.0
 10
30.7219017699
 20
29.9436861714
 30
0.0
  0
SPLINE
  5
3A1
100
AcDbEntity
  8
00_COMPONENTS_3
100
AcDbSpline
 62
7
  6
BYLAYER
 70
0
 71
3
 72
26
 73
22
 74
0
 42
0.0000001
 43
0.0000001
 44
0.0000000001
 40
0.0
 40
0.0
 40
0.0
 40
0.0
 40
0.0694712527
 40
0.1412081107
 40
0.2144611812
 40
0.2884330224
 40
0.3622998416
 40
0.4352414893
 40
0.5064689529
 40
0.575254708
 40
0.6409637347
 40
0.7030891104
 40
0.7612931371
 40
0.8154558553
 40
0.8657304759
 40
0.8895706084
 40
0.9126495875
 40
0.9350849598
 40
0.9570148595
 40
0.9785964644
 40
1.0
 40
1.0
 40
1.0
 40
1.0
 10
50.4372319728
 20
44.8482764352
 30
0.0
 10
49.6712649145
 20
44.6057635755
 30
0.0
 10
48.0915420151
 20
44.1825846667
 30
0.0
 10
45.649032805
 20
43.7376937843
 30
0.0
 10
43.127613451
 20
43.4776020587
 30
0.0
 10
40.5692918713
 20
43.4066462682
 30
0.0
 10
38.016351514
 20
43.5260094801
 30
0.0
 10
35.5111002051
 20
43.8337045952
 30
0.0
 10
33.0949820895
 20
44.324659441
 30
0.0
 10
30.8078835841
 20
44.9908001913
 30
0.0
 10
28.6874154465
 20
45.8212944696
 30
0.0
 10
26.7683276013
 20
46.8027786626
 30
0.0
 10
25.0818804386
 20
47.9199930237
 30
0.0
 10
23.6560046069
 20
49.1555079564
 30
0.0
 10
22.6878194149
 20
50.2891721648
 30
0.0
 10
22.0766828832
 20
51.2342274236
 30
0.0
 10
21.7052602207
 20
51.9465685844
 30
0.0
 10
21.4144167184
 20
52.6717605485
 30
0.0
 10
21.2056519481
 20
53.4068472605
 30
0.0
 10
21.0799201538
 20
54.148462627
 30
0.0
 10
21.0518947
 20
54.6460355431
 30
0.0
 10
21.0519007335
 20
54.8935693802
 30
0.0
  0
SPLINE
  5
3A2
100
AcDbEntity
  8
00_COMPONENTS_3
100
AcDbSpline
 62
7
  6
BYLAYER
 70
0
 71
3
 72
11
 73
7
 74
0
 42
0.0000001
 43
0.0000001
 44
0.0000000001
 40
0.0
 40
0.0
 40
0.0
 40
0.0
 40
0.234023226
 40
0.4766503632
 40
0.7312148384
 40
1.0
 40
1.0
 40
1.0
 40
1.0
 10
60.6317282022
 20
53.7018204038
 30
0.0
 10
60.5625436
 20
53.3199881875
 30
0.0
 10
60.3545896012
 20
52.5530692426
 30
0.0
 10
59.8530684219
 20
51.4442141182
 30
0.0
 10
59.1643495491
 20
50.372263277
 30
0.0
 10
58.601865016
 20
49.7080410024
 30
0.0
 10
58.2949233639
 20
49.3848895951
 30
0.0
  0
SPLINE
  5
3A3
100
AcDbEntity
  8
0
100
AcDbSpline
 62
7
  6
BYLAYER
 70
0
 71
3
 72
9
 73
5
 74
0
 42
0.0000001
 43
0.0000001
 44
0.0000000001
 40
0.0
 40
0.0
 40
0.0
 40
0.0
 40
0.2532689644
 40
1.0
 40
1.0
 40
1.0
 40
1.0
 10
16.2385877393
 20
81.0772568316
 30
0.0
 10
16.2708435466
 20
81.0917001186
 30
0.0
 10
16.399421612
 20
81.1459487661
 30
0.0
 10
16.5328021802
 20
81.1889267911
 30
0.0
 10
16.6339965634
 20
81.2137767397
 30
0.0
  0
SPLINE
  5
3A4
100
AcDbEntity
  8
0
100
AcDbSpline
 62
7
  6
BYLAYER
 70
0
 71
3
 72
13
 73
9
 74
0
 42
0.0000001
 43
0.0000001
 44
0.0000000001
 40
0.0
 40
0.0
 40
0.0
 40
0.0
 40
0.1168131512
 40
0.2372041214
 40
0.4865672167
 40
0.6147004142
 40
0.7437198984
 40
1.0
 40
1.0
 40
1.0
 40
1.0
 10
14.6338309953
 20
77.7491496458
 30
0.0
 10
14.6010063287
 20
77.8620348208
 30
0.0
 10
14.5526794002
 20
78.096994973
 30
0.0
 10
14.5259464179
 20
78.5872624974
 30
0.0
 10
14.6053668731
 20
79.089282113
 30
0.0
 10
14.7794410502
 20
79.5694844759
 30
0.0
 10
15.0152728513
 20
80.0303547026
 30
0.0
 10
15.2562698966
 20
80.3410582928
 30
0.0
 10
15.4394369255
 20
80.5226420774
 30
0.0
  0
SPLINE
  5
3A5
100
AcDbEntity
  8
0
100
AcDbSpline
 62
7
  6
BYLAYER
 70
0
 71
3
 72
9
 73
5
 74
0
 42
0.0000001
 43
0.0000001
 44
0.0000000001
 40
0.0
 40
0.0
 40
0.0
 40
0.0
 40
0.2536608796
 40
1.0
 40
1.0
 40
1.0
 40
1.0
 10
15.896635022
 20
80.2586710862
 30
0.0
 10
15.9369862697
 20
80.2986735491
 30
0.0
 10
16.1005601436
 20
80.4517456937
 30
0.0
 10
16.2820984514
 20
80.5858225977
 30
0.0
 10
16.4254005502
 20
80.6719202993
 30
0.0
  0
SPLINE
  5
3A6
100
AcDbEntity
  8
0
100
AcDbSpline
 62
7
  6
BYLAYER
 70
0
 71
3
 72
12
 73
8
 74
0
 42
0.0000001
 43
0.0000001
 44
0.0000000001
 40
0.0
 40
0.0
 40
0.0
 40
0.0
 40
0.1081620034
 40
0.2183717769
 40
0.4513384358
 40
0.7104781591
 40
1.0
 40
1.0
 40
1.0
 40
1.0
 10
27.9571378796
 20
95.7496388376
 30
0.0
 10
27.9571318537
 20
95.7152579773
 30
0.0
 10
27.963120318
 20
95.6457004168
 30
0.0
 10
27.9992717643
 20
95.5062770999
 30
0.0
 10
28.0919845087
 20
95.3352591396
 30
0.0
 10
28.264773924
 20
95.1538513626
 30
0.0
 10
28.4093561997
 20
95.0542402027
 30
0.0
 10
28.489055855
 20
95.0082266262
 30
0.0
  0
SPLINE
  5
3A7
100
AcDbEntity
  8
0
100
AcDbSpline
 62
7
  6
BYLAYER
 70
0
 71
3
 72
15
 73
11
 74
0
 42
0.0000001
 43
0.0000001
 44
0.0000000001
 40
0.0
 40
0.0
 40
0.0
 40
0.0
 40
0.1139977135
 40
0.2370741808
 40
0.366688155
 40
0.49973363
 40
0.6328237806
 40
0.7625300249
 40
0.8858279087
 40
1.0
 40
1.0
 40
1.0
 40
1.0
 10
50.6934174401
 20
95.2600965419
 30
0.0
 10
50.7597339335
 20
95.2986865853
 30
0.0
 10
50.9048983319
 20
95.3667783847
 30
0.0
 10
51.1415049117
 20
95.439233822
 30
0.0
 10
51.3978849188
 20
95.4839776454
 30
0.0
 10
51.6643765076
 20
95.4992889087
 30
0.0
 10
51.9309608079
 20
95.4845729369
 30
0.0
 10
52.1876927862
 20
95.4404445826
 30
0.0
 10
52.4247873132
 20
95.3684691668
 30
0.0
 10
52.5704055002
 20
95.3007333632
 30
0.0
 10
52.6369552546
 20
95.2623117138
 30
0.0
  0
SPLINE
  5
3A8
100
AcDbEntity
  8
0
100
AcDbSpline
 62
7
  6
BYLAYER
 70
0
 71
3
 72
11
 73
7
 74
0
 42
0.0000001
 43
0.0000001
 44
0.0000000001
 40
0.0
 40
0.0
 40
0.0
 40
0.0
 40
0.2177822878
 40
0.4509146108
 40
0.7103059136
 40
1.0
 40
1.0
 40
1.0
 40
1.0
 10
50.295497937
 20
95.7393221178
 30
0.0
 10
50.2955050712
 20
95.6870798368
 30
0.0
 10
50.3148000199
 20
95.5781890555
 30
0.0
 10
50.3973552159
 20
95.4264687906
 30
0.0
 10
50.5278553162
 20
95.2893253177
 30
0.0
 10
50.6370452212
 20
95.214120183
 30
0.0
 10
50.6972280084
 20
95.1793744207
 30
0.0
  0
SPLINE
  5
3A9
100
AcDbEntity
  8
0
100
AcDbSpline
 62
7
  6
BYLAYER
 70
0
 71
3
 72
20
 73
16
 74
0
 42
0.0000001
 43
0.0000001
 44
0.0000000001
 40
0.0
 40
0.0
 40
0.0
 40
0.0
 40
0.0623921369
 40
0.1288107638
 40
0.2703049945
 40
0.4173669803
 40
0.5616187136
 40
0.6302551767
 40
0.6953819904
 40
0.7563644167
 40
0.812833572
 40
0.8647660381
 40
0.912567381
 40
0.9571680124
 40
1.0
 40
1.0
 40
1.0
 40
1.0
 10
28.489055855
 20
95.0082266262
 30
0.0
 10
28.5542756717
 20
94.9705727994
 30
0.0
 10
28.6941403725
 20
94.9016511018
 30
0.0
 10
29.0013356767
 20
94.7903046757
 30
0.0
 10
29.424160453
 20
94.7057568428
 30
0.0
 10
29.9485389307
 20
94.6912816582
 30
0.0
 10
30.3813051093
 20
94.7519652123
 30
0.0
 10
30.7042034028
 20
94.8450135429
 30
0.0
 10
30.9226795222
 20
94.9330144613
 30
0.0
 10
31.1167568234
 20
95.0385840283
 30
0.0
 10
31.282395129
 20
95.1596275895
 30
0.0
 10
31.4160931984
 20
95.2938498298
 30
0.0
 10
31.514690047
 20
95.4389386454
 30
0.0
 10
31.5755050932
 20
95.5919538805
 30
0.0
 10
31.5893073265
 20
95.6979395086
 30
0.0
 10
31.5893163879
 20
95.7496388306
 30
0.0
  0
SPLINE
  5
3AA
100
AcDbEntity
  8
0
100
AcDbSpline
 62
7
  6
BYLAYER
 70
0
 71
3
 72
18
 73
14
 74
0
 42
0.0000001
 43
0.0000001
 44
0.0000000001
 40
0.0
 40
0.0
 40
0.0
 40
0.0
 40
0.1286589586
 40
0.2702085684
 40
0.4173284212
 40
0.5616320941
 40
0.6952663345
 40
0.7562718603
 40
0.8127631831
 40
0.8647118098
 40
0.9125345827
 40
0.9571501866
 40
1.0
 40
1.0
 40
1.0
 40
1.0
 10
50.6972280084
 20
95.1793744207
 30
0.0
 10
50.7987621638
 20
95.1207549749
 30
0.0
 10
51.0286478594
 20
95.0259041646
 30
0.0
 10
51.4032994999
 20
94.9509548575
 30
0.0
 10
51.7996316936
 20
94.9400013289
 30
0.0
 10
52.184952888
 20
94.9941111574
 30
0.0
 10
52.4802468466
 20
95.0927425394
 30
0.0
 10
52.6817811638
 20
95.2022914044
 30
0.0
 10
52.8068850318
 20
95.2937136177
 30
0.0
 10
52.9078312158
 20
95.3951034079
 30
0.0
 10
52.9823445206
 20
95.5046513183
 30
0.0
 10
53.0282181718
 20
95.6202369923
 30
0.0
 10
53.0386906582
 20
95.7002750596
 30
0.0
 10
53.038685326
 20
95.7393220865
 30
0.0
  0
SPLINE
  5
3AB
100
AcDbEntity
  8
0
100
AcDbSpline
 62
7
  6
BYLAYER
 70
0
 71
3
 72
20
 73
16
 74
0
 42
0.0000001
 43
0.0000001
 44
0.0000000001
 40
0.0
 40
0.0
 40
0.0
 40
0.0
 40
0.0623999611
 40
0.1288084649
 40
0.2703021167
 40
0.4173611603
 40
0.5616145129
 40
0.6302539381
 40
0.6953795538
 40
0.7563638308
 40
0.8128354907
 40
0.8647654621
 40
0.9125686741
 40
0.9571693266
 40
1.0
 40
1.0
 40
1.0
 40
1.0
 10
33.5808856398
 20
91.6019046519
 30
0.0
 10
33.6666400857
 20
91.5523954195
 30
0.0
 10
33.8505082705
 20
91.4617712738
 30
0.0
 10
34.2543824502
 20
91.3154198451
 30
0.0
 10
34.8102336501
 20
91.2042432295
 30
0.0
 10
35.4996305683
 20
91.1852030428
 30
0.0
 10
36.0685753051
 20
91.2650188206
 30
0.0
 10
36.4931065222
 20
91.3873007266
 30
0.0
 10
36.7803234982
 20
91.5030387825
 30
0.0
 10
37.0354876382
 20
91.6418090021
 30
0.0
 10
37.2532686944
 20
91.8009323522
 30
0.0
 10
37.4289982695
 20
91.9774322112
 30
0.0
 10
37.5586741947
 20
92.1681434858
 30
0.0
 10
37.6385895192
 20
92.3693284697
 30
0.0
 10
37.6567475134
 20
92.5086620141
 30
0.0
 10
37.6567491961
 20
92.5766283943
 30
0.0
  0
SPLINE
  5
3AC
100
AcDbEntity
  8
0
100
AcDbSpline
 62
7
  6
BYLAYER
 70
0
 71
3
 72
16
 73
12
 74
0
 42
0.0000001
 43
0.0000001
 44
0.0000000001
 40
0.0
 40
0.0
 40
0.0
 40
0.0
 40
0.046256488
 40
0.0932590972
 40
0.1916054302
 40
0.2992543235
 40
0.4183524301
 40
0.5493235232
 40
0.6912582257
 40
0.8423428303
 40
1.0
 40
1.0
 40
1.0
 40
1.0
 10
12.8264463889
 20
77.3922903626
 30
0.0
 10
12.8718524415
 20
77.3660762243
 30
0.0
 10
12.9675883596
 20
77.3201428965
 30
0.0
 10
13.1757698505
 20
77.2559573948
 30
0.0
 10
13.4654095333
 20
77.2325616043
 30
0.0
 10
13.8317104796
 20
77.2934243554
 30
0.0
 10
14.2128507074
 20
77.4379832516
 30
0.0
 10
14.59877045
 20
77.6613886268
 30
0.0
 10
14.9793182635
 20
77.9569645737
 30
0.0
 10
15.3438096594
 20
78.3163012298
 30
0.0
 10
15.5660393248
 20
78.5875619845
 30
0.0
 10
15.672349401
 20
78.7311974922
 30
0.0
  0
SPLINE
  5
3AD
100
AcDbEntity
  8
0
100
AcDbSpline
 62
7
  6
BYLAYER
 70
0
 71
3
 72
16
 73
12
 74
0
 42
0.0000001
 43
0.0000001
 44
0.0000000001
 40
0.0
 40
0.0
 40
0.0
 40
0.0
 40
0.157657989
 40
0.3087429361
 40
0.4506775583
 40
0.5816482489
 40
0.7007457888
 40
0.808394181
 40
0.9067403747
 40
0.953743151
 40
1.0
 40
1.0
 40
1.0
 40
1.0
 10
16.3029990637
 20
79.8235208134
 30
0.0
 10
16.374234826
 20
79.9874053659
 30
0.0
 10
16.4980361347
 20
80.3154908975
 30
0.0
 10
16.6269807733
 20
80.8108151403
 30
0.0
 10
16.6926782089
 20
81.2881628628
 30
0.0
 10
16.6931876455
 20
81.7340762594
 30
0.0
 10
16.6278033711
 20
82.1364261526
 30
0.0
 10
16.4973553505
 20
82.4840758503
 30
0.0
 10
16.3322688291
 20
82.7232055914
 30
0.0
 10
16.1725880712
 20
82.8713967219
 30
0.0
 10
16.0849389613
 20
82.9313364564
 30
0.0
 10
16.0395330115
 20
82.9575505354
 30
0.0
  0
SPLINE
  5
3AE
100
AcDbEntity
  8
0
100
AcDbSpline
 62
7
  6
BYLAYER
 70
0
 71
3
 72
12
 73
8
 74
0
 42
0.0000001
 43
0.0000001
 44
0.0000000001
 40
0.0
 40
0.0
 40
0.0
 40
0.0
 40
0.1081620034
 40
0.2183717769
 40
0.4513384358
 40
0.7104781591
 40
1.0
 40
1.0
 40
1.0
 40
1.0
 10
31.5893163879
 20
95.7496388306
 30
0.0
 10
31.5893224138
 20
95.7840196908
 30
0.0
 10
31.5833339495
 20
95.8535772514
 30
0.0
 10
31.5471825033
 20
95.9930005682
 30
0.0
 10
31.4544697588
 20
96.1640185286
 30
0.0
 10
31.2816803436
 20
96.3454263056
 30
0.0
 10
31.1370980678
 20
96.4450374655
 30
0.0
 10
31.0573984125
 20
96.4910510419
 30
0.0
  0
SPLINE
  5
3AF
100
AcDbEntity
  8
0
100
AcDbSpline
 62
7
  6
BYLAYER
 70
0
 71
3
 72
18
 73
14
 74
0
 42
0.0000001
 43
0.0000001
 44
0.0000000001
 40
0.0
 40
0.0
 40
0.0
 40
0.0
 40
0.1286589586
 40
0.2702085684
 40
0.4173284212
 40
0.5616320941
 40
0.6952663345
 40
0.7562718603
 40
0.8127631831
 40
0.8647118098
 40
0.9125345827
 40
0.9571501866
 40
1.0
 40
1.0
 40
1.0
 40
1.0
 10
52.6369552546
 20
96.2992697836
 30
0.0
 10
52.5354210992
 20
96.3578892294
 30
0.0
 10
52.3055354036
 20
96.4527400396
 30
0.0
 10
51.9308837632
 20
96.5276893467
 30
0.0
 10
51.5345515694
 20
96.5386428754
 30
0.0
 10
51.149230375
 20
96.4845330469
 30
0.0
 10
50.8539364164
 20
96.3859016648
 30
0.0
 10
50.6524020993
 20
96.2763527999
 30
0.0
 10
50.5272982312
 20
96.1849305865
 30
0.0
 10
50.4263520472
 20
96.0835407963
 30
0.0
 10
50.3518387424
 20
95.9739928859
 30
0.0
 10
50.3059650912
 20
95.8584072119
 30
0.0
 10
50.2954926048
 20
95.7783691447
 30
0.0
 10
50.295497937
 20
95.7393221178
 30
0.0
  0
SPLINE
  5
3B0
100
AcDbEntity
  8
0
100
AcDbSpline
 62
7
  6
BYLAYER
 70
0
 71
3
 72
11
 73
7
 74
0
 42
0.0000001
 43
0.0000001
 44
0.0000000001
 40
0.0
 40
0.0
 40
0.0
 40
0.0
 40
0.228292634
 40
0.4746531979
 40
0.733971344
 40
1.0
 40
1.0
 40
1.0
 40
1.0
 10
54.0019679439
 20
94.3913111307
 30
0.0
 10
53.8416602219
 20
94.2987579767
 30
0.0
 10
53.4910463372
 20
94.1355955964
 30
0.0
 10
52.9200291366
 20
93.9624050634
 30
0.0
 10
52.3019198519
 20
93.8561196072
 30
0.0
 10
51.8755193698
 20
93.8326714158
 30
0.0
 10
51.6598148075
 20
93.8329466646
 30
0.0
  0
SPLINE
  5
3B1
100
AcDbEntity
  8
0
100
AcDbSpline
 62
7
  6
BYLAYER
 70
0
 71
3
 72
11
 73
7
 74
0
 42
0.0000001
 43
0.0000001
 44
0.0000000001
 40
0.0
 40
0.0
 40
0.0
 40
0.0
 40
0.2660666877
 40
0.5253467792
 40
0.7716732795
 40
1.0
 40
1.0
 40
1.0
 40
1.0
 10
51.6598148075
 20
93.8329466646
 30
0.0
 10
51.445369739
 20
93.8332203062
 30
0.0
 10
51.0215833766
 20
93.8574664955
 30
0.0
 10
50.4073894141
 20
93.9641440768
 30
0.0
 10
49.8400276198
 20
94.1369370251
 30
0.0
 10
49.4916081254
 20
94.2992877328
 30
0.0
 10
49.332234761
 20
94.391299906
 30
0.0
  0
SPLINE
  5
3B2
100
AcDbEntity
  8
0
100
AcDbSpline
 62
7
  6
BYLAYER
 70
0
 71
3
 72
13
 73
9
 74
0
 42
0.0000001
 43
0.0000001
 44
0.0000000001
 40
0.0
 40
0.0
 40
0.0
 40
0.0
 40
0.1080919153
 40
0.2182309334
 40
0.3322553269
 40
0.4516850958
 40
0.7106253444
 40
1.0
 40
1.0
 40
1.0
 40
1.0
 10
37.6567491961
 20
92.5766283943
 30
0.0
 10
37.6567503152
 20
92.6218272649
 30
0.0
 10
37.6489261051
 20
92.7132685858
 30
0.0
 10
37.6138449014
 20
92.8483114149
 30
0.0
 10
37.5560393004
 20
92.9804637421
 30
0.0
 10
37.4466251414
 20
93.1556255358
 30
0.0
 10
37.252277341
 20
93.3600741289
 30
0.0
 10
37.0622398402
 20
93.4908518395
 30
0.0
 10
36.9574478832
 20
93.5513521354
 30
0.0
  0
SPLINE
  5
3B3
100
AcDbEntity
  8
0
100
AcDbSpline
 62
7
  6
BYLAYER
 70
0
 71
3
 72
11
 73
7
 74
0
 42
0.0000001
 43
0.0000001
 44
0.0000000001
 40
0.0
 40
0.0
 40
0.0
 40
0.0
 40
0.2286810123
 40
0.4751064384
 40
0.7342576791
 40
1.0
 40
1.0
 40
1.0
 40
1.0
 10
32.1184164669
 20
84.4721705408
 30
0.0
 10
31.9580239375
 20
84.5634579349
 30
0.0
 10
31.6080297404
 20
84.7243753784
 30
0.0
 10
31.0390299923
 20
84.8952328013
 30
0.0
 10
30.4240179104
 20
85.0001091708
 30
0.0
 10
30.0000001761
 20
85.0233155065
 30
0.0
 10
29.7855396764
 20
85.0231004996
 30
0.0
  0
SPLINE
  5
3B4
100
AcDbEntity
  8
0
100
AcDbSpline
 62
7
  6
BYLAYER
 70
0
 71
3
 72
11
 73
7
 74
0
 42
0.0000001
 43
0.0000001
 44
0.0000000001
 40
0.0
 40
0.0
 40
0.0
 40
0.0
 40
0.2660629847
 40
0.525347332
 40
0.7716773691
 40
1.0
 40
1.0
 40
1.0
 40
1.0
 10
29.7855396764
 20
85.0231004996
 30
0.0
 10
29.5701321547
 20
85.0228845433
 30
0.0
 10
29.144430583
 20
84.9986299865
 30
0.0
 10
28.5274478553
 20
84.8915817714
 30
0.0
 10
27.9575068105
 20
84.7180780396
 30
0.0
 10
27.6075094869
 20
84.5550125845
 30
0.0
 10
27.4474221929
 20
84.462586694
 30
0.0
  0
SPLINE
  5
3B5
100
AcDbEntity
  8
0
100
AcDbSpline
 62
7
  6
BYLAYER
 70
0
 71
3
 72
11
 73
7
 74
0
 42
0.0000001
 43
0.0000001
 44
0.0000000001
 40
0.0
 40
0.0
 40
0.0
 40
0.0
 40
0.2177822878
 40
0.4509146108
 40
0.7103059136
 40
1.0
 40
1.0
 40
1.0
 40
1.0
 10
53.038685326
 20
95.7393220865
 30
0.0
 10
53.0386781919
 20
95.7915643675
 30
0.0
 10
53.0193832432
 20
95.9004551487
 30
0.0
 10
52.9368280471
 20
96.0521754137
 30
0.0
 10
52.8063279468
 20
96.1893188866
 30
0.0
 10
52.6971380418
 20
96.2645240212
 30
0.0
 10
52.6369552546
 20
96.2992697836
 30
0.0
  0
SPLINE
  5
3B6
100
AcDbEntity
  8
0
100
AcDbSpline
 62
7
  6
BYLAYER
 70
0
 71
3
 72
20
 73
16
 74
0
 42
0.0000001
 43
0.0000001
 44
0.0000000001
 40
0.0
 40
0.0
 40
0.0
 40
0.0
 40
0.0623921369
 40
0.1288107638
 40
0.2703049945
 40
0.4173669803
 40
0.5616187136
 40
0.6302551767
 40
0.6953819904
 40
0.7563644167
 40
0.812833572
 40
0.8647660381
 40
0.912567381
 40
0.9571680124
 40
1.0
 40
1.0
 40
1.0
 40
1.0
 10
31.0573984125
 20
96.4910510419
 30
0.0
 10
30.9921785959
 20
96.5287048688
 30
0.0
 10
30.852313895
 20
96.5976265664
 30
0.0
 10
30.5451185908
 20
96.7089729925
 30
0.0
 10
30.1222938145
 20
96.7935208253
 30
0.0
 10
29.5979153369
 20
96.80799601
 30
0.0
 10
29.1651491582
 20
96.7473124558
 30
0.0
 10
28.8422508647
 20
96.6542641253
 30
0.0
 10
28.6237747453
 20
96.5662632069
 30
0.0
 10
28.4296974442
 20
96.4606936398
 30
0.0
 10
28.2640591385
 20
96.3396500787
 30
0.0
 10
28.1303610691
 20
96.2054278384
 30
0.0
 10
28.0317642205
 20
96.0603390228
 30
0.0
 10
27.9709491743
 20
95.9073237877
 30
0.0
 10
27.9571469411
 20
95.8013381596
 30
0.0
 10
27.9571378796
 20
95.7496388376
 30
0.0
  0
SPLINE
  5
3B7
100
AcDbEntity
  8
0
100
AcDbSpline
 62
7
  6
BYLAYER
 70
0
 71
3
 72
15
 73
11
 74
0
 42
0.0000001
 43
0.0000001
 44
0.0000000001
 40
0.0
 40
0.0
 40
0.0
 40
0.0
 40
0.1543750047
 40
0.3002350984
 40
0.436789102
 40
0.5640059305
 40
0.6823778779
 40
0.793075983
 40
0.8981085522
 40
1.0
 40
1.0
 40
1.0
 40
1.0
 10
12.2211773993
 20
79.3841579379
 30
0.0
 10
12.2032755322
 20
79.2720212822
 30
0.0
 10
12.1778111354
 20
79.0522753018
 30
0.0
 10
12.1719945992
 20
78.7304792158
 30
0.0
 10
12.1998685177
 20
78.4297429774
 30
0.0
 10
12.2611852281
 20
78.1545267593
 30
0.0
 10
12.3552324223
 20
77.9087506458
 30
0.0
 10
12.481240075
 20
77.6961568403
 30
0.0
 10
12.6376692208
 20
77.5205773475
 30
0.0
 10
12.7615368941
 20
77.429764364
 30
0.0
 10
12.8264463889
 20
77.3922903626
 30
0.0
  0
SPLINE
  5
3B8
100
AcDbEntity
  8
0
100
AcDbSpline
 62
7
  6
BYLAYER
 70
0
 71
3
 72
15
 73
11
 74
0
 42
0.0000001
 43
0.0000001
 44
0.0000000001
 40
0.0
 40
0.0
 40
0.0
 40
0.0
 40
0.1018905671
 40
0.2069228244
 40
0.3176210334
 40
0.4359933199
 40
0.5632105531
 40
0.6997648856
 40
0.8456251214
 40
1.0
 40
1.0
 40
1.0
 40
1.0
 10
16.0395330115
 20
82.9575505354
 30
0.0
 10
15.9746233083
 20
82.9950246571
 30
0.0
 10
15.8340400976
 20
83.0568861271
 30
0.0
 10
15.6037657937
 20
83.1045609019
 30
0.0
 10
15.3566472985
 20
83.1073829484
 30
0.0
 10
15.0967726652
 20
83.0659355784
 30
0.0
 10
14.8277677497
 20
82.9814230784
 30
0.0
 10
14.5533836342
 20
82.85518867
 30
0.0
 10
14.2776068116
 20
82.6892480235
 30
0.0
 10
14.1000325563
 20
82.5573189757
 30
0.0
 10
14.0118699439
 20
82.4857456232
 30
0.0
  0
SPLINE
  5
3B9
100
AcDbEntity
  8
0
100
AcDbSpline
 62
7
  6
BYLAYER
 70
0
 71
3
 72
12
 73
8
 74
0
 42
0.0000001
 43
0.0000001
 44
0.0000000001
 40
0.0
 40
0.0
 40
0.0
 40
0.0
 40
0.1081620034
 40
0.2183717769
 40
0.4513384358
 40
0.7104781591
 40
1.0
 40
1.0
 40
1.0
 40
1.0
 10
49.8560432236
 20
83.1065859664
 30
0.0
 10
49.8560371976
 20
83.0722051061
 30
0.0
 10
49.8620256619
 20
83.0026475456
 30
0.0
 10
49.8981771082
 20
82.8632242287
 30
0.0
 10
49.9908898526
 20
82.6922062684
 30
0.0
 10
50.1636792679
 20
82.5107984914
 30
0.0
 10
50.3082615437
 20
82.4111873315
 30
0.0
 10
50.3879611989
 20
82.365173755
 30
0.0
  0
SPLINE
  5
3BA
100
AcDbEntity
  8
0
100
AcDbSpline
 62
7
  6
BYLAYER
 70
0
 71
3
 72
15
 73
11
 74
0
 42
0.0000001
 43
0.0000001
 44
0.0000000001
 40
0.0
 40
0.0
 40
0.0
 40
0.0
 40
0.1139977135
 40
0.2370741808
 40
0.366688155
 40
0.49973363
 40
0.6328237806
 40
0.7625300249
 40
0.8858279087
 40
1.0
 40
1.0
 40
1.0
 40
1.0
 10
28.8045937885
 20
82.6376771346
 30
0.0
 10
28.8709102819
 20
82.6762671781
 30
0.0
 10
29.0160746803
 20
82.7443589775
 30
0.0
 10
29.2526812601
 20
82.8168144147
 30
0.0
 10
29.5090612672
 20
82.8615582382
 30
0.0
 10
29.775552856
 20
82.8768695014
 30
0.0
 10
30.0421371563
 20
82.8621535297
 30
0.0
 10
30.2988691346
 20
82.8180251754
 30
0.0
 10
30.5359636616
 20
82.7460497595
 30
0.0
 10
30.6815818486
 20
82.678313956
 30
0.0
 10
30.748131603
 20
82.6398923065
 30
0.0
  0
SPLINE
  5
3BB
100
AcDbEntity
  8
0
100
AcDbSpline
 62
7
  6
BYLAYER
 70
0
 71
3
 72
11
 73
7
 74
0
 42
0.0000001
 43
0.0000001
 44
0.0000000001
 40
0.0
 40
0.0
 40
0.0
 40
0.0
 40
0.2177822878
 40
0.4509146108
 40
0.7103059136
 40
1.0
 40
1.0
 40
1.0
 40
1.0
 10
28.4066742854
 20
83.1169027105
 30
0.0
 10
28.4066814196
 20
83.0646604295
 30
0.0
 10
28.4259763683
 20
82.9557696482
 30
0.0
 10
28.5085315643
 20
82.8040493833
 30
0.0
 10
28.6390316646
 20
82.6669059104
 30
0.0
 10
28.7482215696
 20
82.5917007757
 30
0.0
 10
28.8084043568
 20
82.5569550134
 30
0.0
  0
SPLINE
  5
3BC
100
AcDbEntity
  8
0
100
AcDbSpline
 62
7
  6
BYLAYER
 70
0
 71
3
 72
13
 73
9
 74
0
 42
0.0000001
 43
0.0000001
 44
0.0000000001
 40
0.0
 40
0.0
 40
0.0
 40
0.0
 40
0.1080919153
 40
0.2182309334
 40
0.3322553269
 40
0.4516850958
 40
0.7106253444
 40
1.0
 40
1.0
 40
1.0
 40
1.0
 10
43.7886104153
 20
86.2795964027
 30
0.0
 10
43.7886092963
 20
86.2343975321
 30
0.0
 10
43.7964335064
 20
86.1429562111
 30
0.0
 10
43.83151471
 20
86.0079133821
 30
0.0
 10
43.889320311
 20
85.8757610549
 30
0.0
 10
43.99873447
 20
85.7005992612
 30
0.0
 10
44.1930822704
 20
85.4961506681
 30
0.0
 10
44.3831197712
 20
85.3653729574
 30
0.0
 10
44.4879117282
 20
85.3048726615
 30
0.0
  0
SPLINE
  5
3BD
100
AcDbEntity
  8
0
100
AcDbSpline
 62
7
  6
BYLAYER
 70
0
 71
3
 72
11
 73
7
 74
0
 42
0.0000001
 43
0.0000001
 44
0.0000000001
 40
0.0
 40
0.0
 40
0.0
 40
0.0
 40
0.2640073859
 40
0.517009801
 40
0.7610372442
 40
1.0
 40
1.0
 40
1.0
 40
1.0
 10
44.1363291475
 20
64.9708526953
 30
0.0
 10
44.2838642179
 20
65.0369149504
 30
0.0
 10
44.5867079421
 20
65.1380932606
 30
0.0
 10
45.0542672081
 20
65.1859570464
 30
0.0
 10
45.5050940616
 20
65.1236922869
 30
0.0
 10
45.781873246
 20
65.0089116595
 30
0.0
 10
45.9085869937
 20
64.9357550982
 30
0.0
  0
SPLINE
  5
3BE
100
AcDbEntity
  8
0
100
AcDbSpline
 62
7
  6
BYLAYER
 70
0
 71
3
 72
9
 73
5
 74
0
 42
0.0000001
 43
0.0000001
 44
0.0000000001
 40
0.0
 40
0.0
 40
0.0
 40
0.0
 40
0.2536608796
 40
1.0
 40
1.0
 40
1.0
 40
1.0
 10
43.7943764301
 20
64.1522669499
 30
0.0
 10
43.8347276779
 20
64.1922694128
 30
0.0
 10
43.9983015518
 20
64.3453415575
 30
0.0
 10
44.1798398596
 20
64.4794184615
 30
0.0
 10
44.3231419583
 20
64.5655161631
 30
0.0
  0
SPLINE
  5
3BF
100
AcDbEntity
  8
0
100
AcDbSpline
 62
7
  6
BYLAYER
 70
0
 71
3
 72
15
 73
11
 74
0
 42
0.0000001
 43
0.0000001
 44
0.0000000001
 40
0.0
 40
0.0
 40
0.0
 40
0.0
 40
0.1107327021
 40
0.224353097
 40
0.342967013
 40
0.4673836085
 40
0.5971259132
 40
0.7306661219
 40
0.865777108
 40
1.0
 40
1.0
 40
1.0
 40
1.0
 10
43.3685975688
 20
60.5363399418
 30
0.0
 10
43.2267627802
 20
60.6182264426
 30
0.0
 10
42.9623440728
 20
60.8276608081
 30
0.0
 10
42.6659173352
 20
61.2468045531
 30
0.0
 10
42.4817577929
 20
61.7470940051
 30
0.0
 10
42.4184529259
 20
62.2995478307
 30
0.0
 10
42.4775713318
 20
62.8740777756
 30
0.0
 10
42.6551273967
 20
63.4399565923
 30
0.0
 10
42.9408801735
 20
63.9667849715
 30
0.0
 10
43.1961967742
 20
64.2764749866
 30
0.0
 10
43.3371783336
 20
64.4162379412
 30
0.0
  0
SPLINE
  5
3C0
100
AcDbEntity
  8
0
100
AcDbSpline
 62
7
  6
BYLAYER
 70
0
 71
3
 72
20
 73
16
 74
0
 42
0.0000001
 43
0.0000001
 44
0.0000000001
 40
0.0
 40
0.0
 40
0.0
 40
0.0
 40
0.0623921369
 40
0.1288107638
 40
0.2703049945
 40
0.4173669803
 40
0.5616187136
 40
0.6302551767
 40
0.6953819904
 40
0.7563644167
 40
0.812833572
 40
0.8647660381
 40
0.912567381
 40
0.9571680124
 40
1.0
 40
1.0
 40
1.0
 40
1.0
 10
50.3879611989
 20
82.365173755
 30
0.0
 10
50.4531810156
 20
82.3275199282
 30
0.0
 10
50.5930457164
 20
82.2585982306
 30
0.0
 10
50.9002410206
 20
82.1472518045
 30
0.0
 10
51.3230657969
 20
82.0627039716
 30
0.0
 10
51.8474442746
 20
82.048228787
 30
0.0
 10
52.2802104532
 20
82.1089123411
 30
0.0
 10
52.6031087467
 20
82.2019606717
 30
0.0
 10
52.8215848661
 20
82.2899615901
 30
0.0
 10
53.0156621673
 20
82.3955311571
 30
0.0
 10
53.1813004729
 20
82.5165747183
 30
0.0
 10
53.3149985423
 20
82.6507969586
 30
0.0
 10
53.4135953909
 20
82.7958857742
 30
0.0
 10
53.4744104371
 20
82.9489010093
 30
0.0
 10
53.4882126704
 20
83.0548866374
 30
0.0
 10
53.4882217318
 20
83.1065859594
 30
0.0
  0
SPLINE
  5
3C1
100
AcDbEntity
  8
0
100
AcDbSpline
 62
7
  6
BYLAYER
 70
0
 71
3
 72
11
 73
7
 74
0
 42
0.0000001
 43
0.0000001
 44
0.0000000001
 40
0.0
 40
0.0
 40
0.0
 40
0.0
 40
0.2528358797
 40
0.5034586427
 40
0.7522415715
 40
1.0
 40
1.0
 40
1.0
 40
1.0
 10
46.3731037531
 20
63.8024012458
 30
0.0
 10
46.3599524577
 20
64.0598175244
 30
0.0
 10
46.2716247931
 20
64.5714862156
 30
0.0
 10
45.9577945382
 20
65.2795596053
 30
0.0
 10
45.4820704998
 20
65.8843726968
 30
0.0
 10
45.074119058
 20
66.1948023658
 30
0.0
 10
44.855381309
 20
66.321089131
 30
0.0
  0
SPLINE
  5
3C2
100
AcDbEntity
  8
0
100
AcDbSpline
 62
7
  6
BYLAYER
 70
0
 71
3
 72
11
 73
7
 74
0
 42
0.0000001
 43
0.0000001
 44
0.0000000001
 40
0.0
 40
0.0
 40
0.0
 40
0.0
 40
0.2477580966
 40
0.4965410023
 40
0.7471639304
 40
1.0
 40
1.0
 40
1.0
 40
1.0
 10
41.6422946864
 20
60.7558289581
 30
0.0
 10
41.8610325922
 20
60.6295421025
 30
0.0
 10
42.333851011
 20
60.4314653785
 30
0.0
 10
43.0954989179
 20
60.3218901443
 30
0.0
 10
43.865624719
 20
60.404148676
 30
0.0
 10
44.3529066416
 20
60.5834929576
 30
0.0
 10
44.5824112085
 20
60.7008135606
 30
0.0
  0
SPLINE
  5
3C3
100
AcDbEntity
  8
0
100
AcDbSpline
 62
7
  6
BYLAYER
 70
0
 71
3
 72
18
 73
14
 74
0
 42
0.0000001
 43
0.0000001
 44
0.0000000001
 40
0.0
 40
0.0
 40
0.0
 40
0.0
 40
0.1286589586
 40
0.2702085684
 40
0.4173284212
 40
0.5616320941
 40
0.6952663345
 40
0.7562718603
 40
0.8127631831
 40
0.8647118098
 40
0.9125345827
 40
0.9571501866
 40
1.0
 40
1.0
 40
1.0
 40
1.0
 10
28.8084043568
 20
82.5569550134
 30
0.0
 10
28.9099385122
 20
82.4983355676
 30
0.0
 10
29.1398242078
 20
82.4034847574
 30
0.0
 10
29.5144758483
 20
82.3285354503
 30
0.0
 10
29.910808042
 20
82.3175819216
 30
0.0
 10
30.2961292364
 20
82.3716917501
 30
0.0
 10
30.591423195
 20
82.4703231322
 30
0.0
 10
30.7929575122
 20
82.5798719971
 30
0.0
 10
30.9180613802
 20
82.6712942104
 30
0.0
 10
31.0190075642
 20
82.7726840006
 30
0.0
 10
31.093520869
 20
82.8822319111
 30
0.0
 10
31.1393945202
 20
82.9978175851
 30
0.0
 10
31.1498670066
 20
83.0778556523
 30
0.0
 10
31.1498616744
 20
83.1169026792
 30
0.0
  0
SPLINE
  5
3C4
100
AcDbEntity
  8
0
100
AcDbSpline
 62
7
  6
BYLAYER
 70
0
 71
3
 72
15
 73
11
 74
0
 42
0.0000001
 43
0.0000001
 44
0.0000000001
 40
0.0
 40
0.0
 40
0.0
 40
0.0
 40
0.1141545727
 40
0.2373261359
 40
0.366975604
 40
0.4999994966
 40
0.6330234588
 40
0.7626731321
 40
0.8858450149
 40
1.0
 40
1.0
 40
1.0
 40
1.0
 10
27.4433916675
 20
84.4649136663
 30
0.0
 10
27.6032315448
 20
84.5571967116
 30
0.0
 10
27.9527503177
 20
84.7199543189
 30
0.0
 10
28.5219215084
 20
84.8929482825
 30
0.0
 10
29.1381384606
 20
84.9994327179
 30
0.0
 10
29.7782544043
 20
85.03536023
 30
0.0
 10
30.4183708482
 20
84.9994357403
 30
0.0
 10
31.0345892706
 20
84.8929542168
 30
0.0
 10
31.603762858
 20
84.719962967
 30
0.0
 10
31.9532837301
 20
84.5572071171
 30
0.0
 10
32.1131248504
 20
84.4649248909
 30
0.0
  0
SPLINE
  5
3C5
100
AcDbEntity
  8
0
100
AcDbSpline
 62
7
  6
BYLAYER
 70
0
 71
3
 72
15
 73
11
 74
0
 42
0.0000001
 43
0.0000001
 44
0.0000000001
 40
0.0
 40
0.0
 40
0.0
 40
0.0
 40
0.1141549974
 40
0.2373268943
 40
0.3669765742
 40
0.5000005394
 40
0.633024429
 40
0.7626738905
 40
0.8858454396
 40
1.0
 40
1.0
 40
1.0
 40
1.0
 10
49.3102437234
 20
94.3936268352
 30
0.0
 10
49.4706996345
 20
94.3009896674
 30
0.0
 10
49.8215648599
 20
94.1376078218
 30
0.0
 10
50.3929276302
 20
93.9639512128
 30
0.0
 10
51.0115161654
 20
93.857060159
 30
0.0
 10
51.654094607
 20
93.820997514
 30
0.0
 10
52.2966725237
 20
93.8570632247
 30
0.0
 10
52.9152594993
 20
93.9639572296
 30
0.0
 10
53.4866197562
 20
94.1376165464
 30
0.0
 10
53.8374827897
 20
94.3010001328
 30
0.0
 10
53.9979374185
 20
94.393638103
 30
0.0
  0
SPLINE
  5
3C6
100
AcDbEntity
  8
0
100
AcDbSpline
 62
7
  6
BYLAYER
 70
0
 71
3
 72
9
 73
5
 74
0
 42
0.0000001
 43
0.0000001
 44
0.0000000001
 40
0.0
 40
0.0
 40
0.0
 40
0.0
 40
0.5078894714
 40
1.0
 40
1.0
 40
1.0
 40
1.0
 10
46.3972043254
 20
60.7918861075
 30
0.0
 10
46.2797789278
 20
60.675475702
 30
0.0
 10
46.028878747
 20
60.4651898071
 30
0.0
 10
45.7442753732
 20
60.3027455886
 30
0.0
 10
45.5980535115
 20
60.2372713533
 30
0.0
  0
SPLINE
  5
3C7
100
AcDbEntity
  8
0
100
AcDbSpline
 62
7
  6
BYLAYER
 70
0
 71
3
 72
15
 73
11
 74
0
 42
0.0000001
 43
0.0000001
 44
0.0000000001
 40
0.0
 40
0.0
 40
0.0
 40
0.0
 40
0.1203702916
 40
0.2445520503
 40
0.3715361089
 40
0.4999981498
 40
0.6284596118
 40
0.7554428804
 40
0.8796258459
 40
1.0
 40
1.0
 40
1.0
 40
1.0
 10
46.4697951134
 20
60.2971202765
 30
0.0
 10
46.5644171673
 20
60.3366279244
 30
0.0
 10
46.7495905074
 20
60.4348121057
 30
0.0
 10
47.0013369841
 20
60.6288300034
 30
0.0
 10
47.2237305065
 20
60.8654658187
 30
0.0
 10
47.4090826143
 20
61.1364520353
 30
0.0
 10
47.5510947686
 20
61.4324606338
 30
0.0
 10
47.6448391683
 20
61.7433738668
 30
0.0
 10
47.6870051342
 20
62.0584037545
 30
0.0
 10
47.6794498387
 20
62.2678650657
 30
0.0
 10
47.6663568196
 20
62.3695677448
 30
0.0
  0
SPLINE
  5
3C8
100
AcDbEntity
  8
0
100
AcDbSpline
 62
7
  6
BYLAYER
 70
0
 71
3
 72
12
 73
8
 74
0
 42
0.0000001
 43
0.0000001
 44
0.0000000001
 40
0.0
 40
0.0
 40
0.0
 40
0.0
 40
0.1081620034
 40
0.2183717769
 40
0.4513384358
 40
0.7104781591
 40
1.0
 40
1.0
 40
1.0
 40
1.0
 10
53.4882217318
 20
83.1065859594
 30
0.0
 10
53.4882277578
 20
83.1409668196
 30
0.0
 10
53.4822392934
 20
83.2105243802
 30
0.0
 10
53.4460878472
 20
83.349947697
 30
0.0
 10
53.3533751027
 20
83.5209656574
 30
0.0
 10
53.1805856875
 20
83.7023734344
 30
0.0
 10
53.0360034117
 20
83.8019845943
 30
0.0
 10
52.9563037564
 20
83.8479981707
 30
0.0
  0
SPLINE
  5
3C9
100
AcDbEntity
  8
0
100
AcDbSpline
 62
7
  6
BYLAYER
 70
0
 71
3
 72
11
 73
7
 74
0
 42
0.0000001
 43
0.0000001
 44
0.0000000001
 40
0.0
 40
0.0
 40
0.0
 40
0.0
 40
0.2177822878
 40
0.4509146108
 40
0.7103059136
 40
1.0
 40
1.0
 40
1.0
 40
1.0
 10
31.1498616744
 20
83.1169026792
 30
0.0
 10
31.1498545403
 20
83.1691449602
 30
0.0
 10
31.1305595916
 20
83.2780357415
 30
0.0
 10
31.0480043955
 20
83.4297560064
 30
0.0
 10
30.9175042952
 20
83.5668994793
 30
0.0
 10
30.8083143902
 20
83.642104614
 30
0.0
 10
30.748131603
 20
83.6768503763
 30
0.0
  0
SPLINE
  5
3CA
100
AcDbEntity
  8
0
100
AcDbSpline
 62
7
  6
BYLAYER
 70
0
 71
3
 72
15
 73
11
 74
0
 42
0.0000001
 43
0.0000001
 44
0.0000000001
 40
0.0
 40
0.0
 40
0.0
 40
0.0
 40
0.1272019417
 40
0.2539154337
 40
0.3799335946
 40
0.5052012148
 40
0.6297124965
 40
0.7535514907
 40
0.8769180345
 40
1.0
 40
1.0
 40
1.0
 40
1.0
 10
40.3012639718
 20
64.512008716
 30
0.0
 10
40.2414363266
 20
64.3389454392
 30
0.0
 10
40.1505125396
 20
63.9828526894
 30
0.0
 10
40.1049756014
 20
63.435358508
 30
0.0
 10
40.1517751894
 20
62.8905752044
 30
0.0
 10
40.2895478045
 20
62.3646878667
 30
0.0
 10
40.5144347961
 20
61.8731417976
 30
0.0
 10
40.8198561457
 20
61.4303655585
 30
0.0
 10
41.1967805264
 20
61.0496890459
 30
0.0
 10
41.4888503038
 20
60.8444190383
 30
0.0
 10
41.6422946864
 20
60.7558289581
 30
0.0
  0
SPLINE
  5
3CB
100
AcDbEntity
  8
0
100
AcDbSpline
 62
7
  6
BYLAYER
 70
0
 71
3
 72
18
 73
14
 74
0
 42
0.0000001
 43
0.0000001
 44
0.0000000001
 40
0.0
 40
0.0
 40
0.0
 40
0.0
 40
0.1286589586
 40
0.2702085684
 40
0.4173284212
 40
0.5616320941
 40
0.6952663345
 40
0.7562718603
 40
0.8127631831
 40
0.8647118098
 40
0.9125345827
 40
0.9571501866
 40
1.0
 40
1.0
 40
1.0
 40
1.0
 10
30.748131603
 20
83.6768503763
 30
0.0
 10
30.6465974476
 20
83.7354698221
 30
0.0
 10
30.416711752
 20
83.8303206323
 30
0.0
 10
30.0420601116
 20
83.9052699395
 30
0.0
 10
29.6457279178
 20
83.9162234681
 30
0.0
 10
29.2604067234
 20
83.8621136396
 30
0.0
 10
28.9651127648
 20
83.7634822576
 30
0.0
 10
28.7635784477
 20
83.6539333926
 30
0.0
 10
28.6384745796
 20
83.5625111793
 30
0.0
 10
28.5375283957
 20
83.4611213891
 30
0.0
 10
28.4630150908
 20
83.3515734786
 30
0.0
 10
28.4171414396
 20
83.2359878046
 30
0.0
 10
28.4066689532
 20
83.1559497374
 30
0.0
 10
28.4066742854
 20
83.1169027105
 30
0.0
  0
SPLINE
  5
3CC
100
AcDbEntity
  8
0
100
AcDbSpline
 62
7
  6
BYLAYER
 70
0
 71
3
 72
9
 73
5
 74
0
 42
0.0000001
 43
0.0000001
 44
0.0000000001
 40
0.0
 40
0.0
 40
0.0
 40
0.0
 40
0.4811832268
 40
1.0
 40
1.0
 40
1.0
 40
1.0
 10
68.6189132225
 20
76.3306939623
 30
0.0
 10
68.5157729213
 20
76.4727871036
 30
0.0
 10
68.2935060487
 20
76.7623672684
 30
0.0
 10
68.059317735
 20
77.0423234623
 30
0.0
 10
67.9351867316
 20
77.1852592932
 30
0.0
  0
SPLINE
  5
3CD
100
AcDbEntity
  8
0
100
AcDbSpline
 62
7
  6
BYLAYER
 70
0
 71
3
 72
18
 73
14
 74
0
 42
0.0000001
 43
0.0000001
 44
0.0000000001
 40
0.0
 40
0.0
 40
0.0
 40
0.0
 40
0.0248458209
 40
0.0520019619
 40
0.0830691171
 40
0.1190978986
 40
0.1607010144
 40
0.2082089261
 40
0.321411587
 40
0.4586636249
 40
0.6188202429
 40
0.8001327576
 40
1.0
 40
1.0
 40
1.0
 40
1.0
 10
69.2241822121
 20
74.92766176
 30
0.0
 10
69.233500828
 20
74.9369163767
 30
0.0
 10
69.2499202749
 20
74.9595846575
 30
0.0
 10
69.2647404923
 20
75.0013854977
 30
0.0
 10
69.2707855441
 20
75.0511410856
 30
0.0
 10
69.2682972665
 20
75.1087290924
 30
0.0
 10
69.2574600953
 20
75.1741054306
 30
0.0
 10
69.2302879664
 20
75.2776550467
 30
0.0
 10
69.1735462913
 20
75.4250220643
 30
0.0
 10
69.0777609141
 20
75.6199589853
 30
0.0
 10
68.9515310485
 20
75.8394491614
 30
0.0
 10
68.7966924363
 20
76.0801833641
 30
0.0
 10
68.6809738802
 20
76.2451949508
 30
0.0
 10
68.6189132225
 20
76.3306939623
 30
0.0
  0
SPLINE
  5
3CE
100
AcDbEntity
  8
0
100
AcDbSpline
 62
7
  6
BYLAYER
 70
0
 71
3
 72
20
 73
16
 74
0
 42
0.0000001
 43
0.0000001
 44
0.0000000001
 40
0.0
 40
0.0
 40
0.0
 40
0.0
 40
0.0623999611
 40
0.1288084649
 40
0.2703021167
 40
0.4173611603
 40
0.5616145129
 40
0.6302539381
 40
0.6953795538
 40
0.7563638308
 40
0.8128354907
 40
0.8647654621
 40
0.9125686741
 40
0.9571693266
 40
1.0
 40
1.0
 40
1.0
 40
1.0
 10
47.8644739717
 20
87.2543201451
 30
0.0
 10
47.7787195258
 20
87.3038293775
 30
0.0
 10
47.5948513409
 20
87.3944535232
 30
0.0
 10
47.1909771613
 20
87.5408049519
 30
0.0
 10
46.6351259613
 20
87.6519815675
 30
0.0
 10
45.9457290431
 20
87.6710217541
 30
0.0
 10
45.3767843064
 20
87.5912059763
 30
0.0
 10
44.9522530892
 20
87.4689240704
 30
0.0
 10
44.6650361132
 20
87.3531860145
 30
0.0
 10
44.4098719732
 20
87.2144157949
 30
0.0
 10
44.192090917
 20
87.0552924448
 30
0.0
 10
44.016361342
 20
86.8787925858
 30
0.0
 10
43.8866854168
 20
86.6880813112
 30
0.0
 10
43.8067700923
 20
86.4868963273
 30
0.0
 10
43.788612098
 20
86.3475627829
 30
0.0
 10
43.7886104153
 20
86.2795964027
 30
0.0
  0
SPLINE
  5
3CF
100
AcDbEntity
  8
0
100
AcDbSpline
 62
7
  6
BYLAYER
 70
0
 71
3
 72
20
 73
16
 74
0
 42
0.0000001
 43
0.0000001
 44
0.0000000001
 40
0.0
 40
0.0
 40
0.0
 40
0.0
 40
0.0623921369
 40
0.1288107638
 40
0.2703049945
 40
0.4173669803
 40
0.5616187136
 40
0.6302551767
 40
0.6953819904
 40
0.7563644167
 40
0.812833572
 40
0.8647660381
 40
0.912567381
 40
0.9571680124
 40
1.0
 40
1.0
 40
1.0
 40
1.0
 10
52.9563037564
 20
83.8479981707
 30
0.0
 10
52.8910839398
 20
83.8856519976
 30
0.0
 10
52.7512192389
 20
83.9545736952
 30
0.0
 10
52.4440239347
 20
84.0659201213
 30
0.0
 10
52.0211991584
 20
84.1504679541
 30
0.0
 10
51.4968206808
 20
84.1649431388
 30
0.0
 10
51.0640545022
 20
84.1042595847
 30
0.0
 10
50.7411562086
 20
84.0112112541
 30
0.0
 10
50.5226800892
 20
83.9232103357
 30
0.0
 10
50.3286027881
 20
83.8176407687
 30
0.0
 10
50.1629644824
 20
83.6965972075
 30
0.0
 10
50.0292664131
 20
83.5623749672
 30
0.0
 10
49.9306695644
 20
83.4172861516
 30
0.0
 10
49.8698545182
 20
83.2642709165
 30
0.0
 10
49.856052285
 20
83.1582852884
 30
0.0
 10
49.8560432236
 20
83.1065859664
 30
0.0
  0
SPLINE
  5
3D0
100
AcDbEntity
  8
0
100
AcDbSpline
 62
7
  6
BYLAYER
 70
0
 71
3
 72
11
 73
7
 74
0
 42
0.0000001
 43
0.0000001
 44
0.0000000001
 40
0.0
 40
0.0
 40
0.0
 40
0.0
 40
0.239647193
 40
0.4898316145
 40
0.7454061854
 40
1.0
 40
1.0
 40
1.0
 40
1.0
 10
46.8032622924
 20
63.5782901252
 30
0.0
 10
46.8405212584
 20
63.3609564069
 30
0.0
 10
46.8541599772
 20
62.9044029838
 30
0.0
 10
46.7054794331
 20
62.2286253822
 30
0.0
 10
46.4015169192
 20
61.5920721267
 30
0.0
 10
46.1063684208
 20
61.2207813027
 30
0.0
 10
45.9400062289
 20
61.0558570987
 30
0.0
  0
SPLINE
  5
3D1
100
AcDbEntity
  8
0
100
AcDbSpline
 62
7
  6
BYLAYER
 70
0
 71
3
 72
15
 73
11
 74
0
 42
0.0000001
 43
0.0000001
 44
0.0000000001
 40
0.0
 40
0.0
 40
0.0
 40
0.0
 40
0.1230817799
 40
0.2464482541
 40
0.3702872727
 40
0.4947986392
 40
0.6200663646
 40
0.7460846094
 40
0.8727981253
 40
1.0
 40
1.0
 40
1.0
 40
1.0
 10
44.855381309
 20
66.321089131
 30
0.0
 10
44.7019368488
 20
66.4096792559
 30
0.0
 10
44.3781310192
 20
66.5599808257
 30
0.0
 10
43.859991207
 20
66.6960635606
 30
0.0
 10
43.3238235391
 20
66.739173074
 30
0.0
 10
42.7856877384
 20
66.6881531162
 30
0.0
 10
42.2613693248
 20
66.5445196472
 30
0.0
 10
41.7661736417
 20
66.3126537504
 30
0.0
 10
41.3147991172
 20
65.9994672482
 30
0.0
 10
41.0518764908
 20
65.742676743
 30
0.0
 10
40.9319136344
 20
65.6043320372
 30
0.0
  0
SPLINE
  5
3D2
100
AcDbEntity
  8
0
100
AcDbSpline
 62
7
  6
BYLAYER
 70
0
 71
3
 72
15
 73
11
 74
0
 42
0.0000001
 43
0.0000001
 44
0.0000000001
 40
0.0
 40
0.0
 40
0.0
 40
0.0
 40
0.1203746173
 40
0.2445551855
 40
0.3715370605
 40
0.5000000002
 40
0.6284629396
 40
0.7554448138
 40
0.8796253819
 40
1.0
 40
1.0
 40
1.0
 40
1.0
 10
45.8458214823
 20
60.0366323383
 30
0.0
 10
45.9829668485
 20
60.0938764508
 30
0.0
 10
46.251323314
 20
60.2362095569
 30
0.0
 10
46.6161748103
 20
60.5173903238
 30
0.0
 10
46.9384980377
 20
60.8603266616
 30
0.0
 10
47.2071380747
 20
61.2530545147
 30
0.0
 10
47.412940968
 20
61.6820624444
 30
0.0
 10
47.5487820952
 20
62.1326673508
 30
0.0
 10
47.60987734
 20
62.5892268844
 30
0.0
 10
47.5989707262
 20
62.8927972268
 30
0.0
 10
47.5799765408
 20
63.0401911244
 30
0.0
  0
SPLINE
  5
3D3
100
AcDbEntity
  8
0
100
AcDbSpline
 62
7
  6
BYLAYER
 70
0
 71
3
 72
23
 73
19
 74
0
 42
0.0000001
 43
0.0000001
 44
0.0000000001
 40
0.0
 40
0.0
 40
0.0
 40
0.0
 40
0.0464750933
 40
0.0964050281
 40
0.1500341308
 40
0.2073498027
 40
0.2681302609
 40
0.3319884017
 40
0.3984095455
 40
0.4667834902
 40
0.5364325402
 40
0.6066370582
 40
0.6766595384
 40
0.7457676359
 40
0.8132611367
 40
0.8784878311
 40
0.9408916185
 40
1.0
 40
1.0
 40
1.0
 40
1.0
 10
26.7898956684
 20
51.9720007838
 30
0.0
 10
27.0091202953
 20
51.6191875608
 30
0.0
 10
27.5316934826
 20
50.928164276
 30
0.0
 10
28.4981131177
 20
49.9925047198
 30
0.0
 10
29.6574132929
 20
49.1356584065
 30
0.0
 10
30.9912146705
 20
48.3703346952
 30
0.0
 10
32.4790330312
 20
47.7075975912
 30
0.0
 10
34.0978812749
 20
47.1574417254
 30
0.0
 10
35.822695231
 20
46.7282541754
 30
0.0
 10
37.6266663601
 20
46.4266636741
 30
0.0
 10
39.4816839846
 20
46.2573566124
 30
0.0
 10
41.3587929532
 20
46.2229784127
 30
0.0
 10
43.2286615687
 20
46.3240762876
 30
0.0
 10
45.0621066646
 20
46.5590471411
 30
0.0
 10
46.830469542
 20
46.9242662317
 30
0.0
 10
48.5063935317
 20
47.4140287579
 30
0.0
 10
50.063494228
 20
48.0207998922
 30
0.0
 10
51.0348736262
 20
48.5115314278
 30
0.0
 10
51.4923837453
 20
48.7756734415
 30
0.0
  0
SPLINE
  5
3D4
100
AcDbEntity
  8
0
100
AcDbSpline
 62
7
  6
BYLAYER
 70
0
 71
3
 72
11
 73
7
 74
0
 42
0.0000001
 43
0.0000001
 44
0.0000000001
 40
0.0
 40
0.0
 40
0.0
 40
0.0
 40
0.257201538
 40
0.511032429
 40
0.7593157065
 40
1.0
 40
1.0
 40
1.0
 40
1.0
 10
42.1015526607
 20
50.5218934289
 30
0.0
 10
42.9566640531
 20
50.5487262421
 30
0.0
 10
44.6544677156
 20
50.6587589803
 30
0.0
 10
47.1598992265
 20
50.9933542751
 30
0.0
 10
49.581828776
 20
51.4924322626
 30
0.0
 10
51.1479017311
 20
51.9385468822
 30
0.0
 10
51.9083117677
 20
52.1889908851
 30
0.0
  0
SPLINE
  5
3D5
100
AcDbEntity
  8
0
100
AcDbSpline
 62
7
  6
BYLAYER
 70
0
 71
3
 72
23
 73
19
 74
0
 42
0.0000001
 43
0.0000001
 44
0.0000000001
 40
0.0
 40
0.0
 40
0.0
 40
0.0
 40
0.0496494857
 40
0.1026534436
 40
0.158975625
 40
0.2184227219
 40
0.2806751171
 40
0.3453135088
 40
0.4118421675
 40
0.4797091994
 40
0.5483248051
 40
0.6170786109
 40
0.6853564889
 40
0.7525567652
 40
0.8181097229
 40
0.8814885314
 40
0.9422452508
 40
1.0
 40
1.0
 40
1.0
 40
1.0
 10
23.495674411
 20
54.5704240558
 30
0.0
 10
23.8766204656
 20
54.1692981359
 30
0.0
 10
24.7235978397
 20
53.3950509509
 30
0.0
 10
26.167100672
 20
52.3626161205
 30
0.0
 10
27.8058226811
 20
51.4338383442
 30
0.0
 10
29.6178940997
 20
50.6208048806
 30
0.0
 10
31.5795526079
 20
49.9338631098
 30
0.0
 10
33.6648766377
 20
49.3819947598
 30
0.0
 10
35.8462697811
 20
48.9724478611
 30
0.0
 10
38.0947909475
 20
48.7106413329
 30
0.0
 10
40.3805649249
 20
48.6000513551
 30
0.0
 10
42.673194173
 20
48.6421534916
 30
0.0
 10
44.9421749592
 20
48.8363930553
 30
0.0
 10
47.1573637491
 20
49.1801680684
 30
0.0
 10
49.2892897607
 20
49.6689540671
 30
0.0
 10
51.3098662232
 20
50.2962704323
 30
0.0
 10
53.1920087838
 20
51.0538735892
 30
0.0
 10
54.3700569991
 20
51.6555832236
 30
0.0
 10
54.9273460127
 20
51.977332265
 30
0.0
  0
SPLINE
  5
3D6
100
AcDbEntity
  8
0
100
AcDbSpline
 62
7
  6
BYLAYER
 70
0
 71
3
 72
13
 73
9
 74
0
 42
0.0000001
 43
0.0000001
 44
0.0000000001
 40
0.0
 40
0.0
 40
0.0
 40
0.0
 40
0.1165488106
 40
0.2344409575
 40
0.3542882207
 40
0.476652277
 40
0.7307232355
 40
1.0
 40
1.0
 40
1.0
 40
1.0
 10
18.7045438122
 20
62.6260951187
 30
0.0
 10
18.7267476559
 20
62.3941984613
 30
0.0
 10
18.7932845633
 20
61.9295433026
 30
0.0
 10
18.9577590966
 20
61.2398196454
 30
0.0
 10
19.1866319289
 20
60.55640007
 30
0.0
 10
19.5815349327
 20
59.6452797465
 30
0.0
 10
20.2408451431
 20
58.529189575
 30
0.0
 10
20.9015397639
 20
57.713388469
 30
0.0
 10
21.2658716315
 20
57.3172156247
 30
0.0
  0
ELLIPSE
  5
3D7
100
AcDbEntity
  8
0
100
AcDbEllipse
 62
7
  6
BYLAYER
 10
16.6563332038
 20
78.891258117
 30
0.0
 11
1.6066066926
 21
2.7825934927
 31
0.0
 40
0.868896216
 41
-4.1212175638
 42
-3.730386412
  0
ELLIPSE
  5
3D8
100
AcDbEntity
  8
0
100
AcDbEllipse
 62
7
  6
BYLAYER
 10
13.6168767459
 20
80.6461087546
 30
0.0
 11
1.6066066926
 21
2.7825934927
 31
0.0
 40
0.868896216
 41
-1.7683280305
 42
-1.3732121943
  0
ELLIPSE
  5
3D9
100
AcDbEntity
  8
0
100
AcDbEllipse
 62
7
  6
BYLAYER
 10
16.6563332038
 20
78.891258117
 30
0.0
 11
1.6066066926
 21
2.7825934927
 31
0.0
 40
0.868896216
 41
0.5888278944
 42
0.979677339
  0
ELLIPSE
  5
3DA
100
AcDbEntity
  8
0
100
AcDbEllipse
 62
7
  6
BYLAYER
 10
43.961113123
 20
63.1271927113
 30
0.0
 11
1.6066066926
 21
2.7825934927
 31
0.0
 40
0.868896216
 41
0.1406258951
 42
0.979677339
  0
ELLIPSE
  5
3DB
100
AcDbEntity
  8
0
100
AcDbEllipse
 62
7
  6
BYLAYER
 10
43.2955276926
 20
63.5115005016
 30
0.0
 11
1.6066066926
 21
2.7825934927
 31
0.0
 40
0.868896216
 41
0.979677339
 42
2.1619677434
  0
ELLIPSE
  5
3DC
100
AcDbEntity
  8
0
100
AcDbEllipse
 62
7
  6
BYLAYER
 10
43.961113123
 20
63.1271927113
 30
0.0
 11
1.6066066926
 21
2.7825934927
 31
0.0
 40
0.868896216
 41
2.1619677434
 42
3.0009546347
  0
ELLIPSE
  5
3DD
100
AcDbEntity
  8
0
100
AcDbEllipse
 62
7
  6
BYLAYER
 10
42.9873862896
 20
63.6894207748
 30
0.0
 11
1.6066066926
 21
2.7825934927
 31
0.0
 40
0.868896216
 41
1.3732646231
 42
1.7683804593
  0
ENDSEC
  0
SECTION
  2
OBJECTS
  0
DICTIONARY
  5
C
100
AcDbDictionary
280
0
281
1
  3
ACAD_GROUP
350
D
  3
ACAD_MLINESTYLE
350
17
  3
ACAD_LAYOUT
350
1A
  3
ACAD_PLOTSETTINGS
350
19
  3
ACAD_PLOTSTYLENAME
350
E
  0
DICTIONARY
  5
D
102
{ACAD_REACTORS
330
C
102
}
100
AcDbDictionary
280
0
281
1
  0
ACDBDICTIONARYWDFLT
  5
E
102
{ACAD_REACTORS
330
C
102
}
100
AcDbDictionary
281
1
  3
Normal
350
F
100
AcDbDictionaryWithDefault
340
F
  0
DICTIONARY
  5
17
102
{ACAD_REACTORS
330
C
102
}
100
AcDbDictionary
280
0
281
1
  3
Standard
350
18
  0
DICTIONARY
  5
19
102
{ACAD_REACTORS
330
C
102
}
100
AcDbDictionary
281
1
  0
DICTIONARY
  5
1A
102
{ACAD_REACTORS
330
C
102
}
100
AcDbDictionary
281
1
  3
Model
350
3DE
  3
Layout1
350
3DF
  0
ACDBPLACEHOLDER
  5
F
102
{ACAD_REACTORS
330
E
102
}
  0
MLINESTYLE
  5
18
102
{ACAD_REACTORS
330
17
102
}
100
AcDbMlineStyle
  2
STANDARD
 70
0
  3

 62
256
 51
90.0
 52
90.0
 71
2
 49
0.5
 62
256
  6
BYLAYER
 49
-0.5
 62
256
  6
BYLAYER
  0
LAYOUT
  5
3DE
102
{ACAD_REACTORS
330
1A
102
}
100
AcDbPlotSettings
  1

  2
none_device
  4

  6

 40
0.0
 41
0.0
 42
0.0
 43
0.0
 44
210.0
 45
297.0
 46
0.0
 47
0.0
 48
0.0
 49
0.0
140
0.0
141
0.0
142
1.0
143
1.0
 70
1024
 72
1
 73
0
 74
0
  7

 75
0
147
1.0
148
0.0
149
0.0
100
AcDbLayout
  1
Model
 70
0
 71
0
 10
0.0
 20
0.0
 11
210.0
 21
297.0
 12
0.0
 22
0.0
 32
0.0
 14
0.0
 24
0.0
 34
0.0
 15
0.0
 25
0.0
 35
0.0
146
0.0
 13
0.0
 23
0.0
 33
0.0
 16
1.0
 26
0.0
 36
0.0
 17
0.0
 27
1.0
 37
0.0
 76
0
330
21E
345
0
346
0
  0
LAYOUT
  5
3DF
102
{ACAD_REACTORS
330
1A
102
}
100
AcDbPlotSettings
  1

  2
none_device
  4

  6

 40
0.0
 41
0.0
 42
0.0
 43
0.0
 44
210.0
 45
297.0
 46
0.0
 47
0.0
 48
0.0
 49
0.0
140
0.0
141
0.0
142
1.0
143
1.0
 70
0
 72
1
 73
0
 74
0
  7

 75
0
147
1.0
148
0.0
149
0.0
100
AcDbLayout
  1
Layout1
 70
0
 71
1
 10
0.0
 20
0.0
 11
210.0
 21
297.0
 12
0.0
 22
0.0
 32
0.0
 14
0.0
 24
0.0
 34
0.0
 15
0.0
 25
0.0
 35
0.0
146
0.0
 13
0.0
 23
0.0
 33
0.0
 16
1.0
 26
0.0
 36
0.0
 17
0.0
 27
1.0
 37
0.0
 76
0
330
21F
345
0
346
0
  0
ENDSEC
  0
EOF
