999
DXF file: C:\Users\sesa63760\Dev\_Creo\CAD\MCADUE0001150_3D-CAD\drw0001_1.dxf
999
Pro/ENGINEER 2019471 by Parametric Technology Corporation
  0
SECTION
  2
HEADER
  9
$ACADVER
  1
AC1024
  9
$DWGCODEPAGE
  3
ANSI_1252
  9
$EXTMAX
 10
789.6282373152
 20
1116.7599356315
 30
0.0
  9
$EXTMIN
 10
0.0
 20
0.0
 30
0.0
  9
$LIMMIN
 10
0.0
 20
0.0
  9
$LIMMAX
 10
789.6282373152
 20
1116.7599356315
  9
$VIEWCTR
 10
394.8141186576
 20
558.3799678158
  9
$VIEWSIZE
 40
1116.7599356315
  9
$CLAYER
  8
0
  9
$LTSCALE
 40
72.7962032115
  9
$CELTYPE
  6
BYLAYER
  9
$DIMSCALE
 40
1.0
  9
$DIMASZ
 40
9.4003361585
  9
$DIMEXO
 40
1.0
  9
$DIMDLI
 40
50.2955585825
  9
$DIMEXE
 40
1.0
  9
$DIMCEN
 40
11.9121059801
  9
$DIMLFAC
 40
1.0
  9
$DIMBLK
  1
_FILLED
  9
$DIMALT
 70
0
  9
$DIMALTF
 40
0.0393700787
  9
$DIMTXT
 40
13.1604706219
  9
$DIMTOL
 70
1
  9
$DIMLIM
 70
0
  9
$DIMTFAC
 40
1.0
  9
$DIMTP
 40
0.01
  9
$DIMTM
 40
0.01
  9
$DIMGAP
 40
0.625
  9
$DIMDSEP
 70
46
  9
$AUNITS
 70
0
  9
$PDMODE
 70
3
  9
$PDSIZE
 40
0.3125
  9
$HANDSEED
  5
2EB
  9
$TILEMODE
 70
1
  9
$MEASUREMENT
 70
1
  9
$INSUNITS
 70
4
  0
ENDSEC
  0
SECTION
  2
CLASSES
  0
CLASS
  1
ACDBDICTIONARYWDFLT
  2
AcDbDictionaryWithDefault
  3
AutoCAD 2000
 90
0
 91
1
280
0
281
0
  0
CLASS
  1
ACDBPLACEHOLDER
  2
AcDbPlaceHolder
  3
AutoCAD 2000
 90
0
 91
1
280
0
281
0
  0
CLASS
  1
LAYOUT
  2
AcDbLayout
  3
AutoCAD 2000
 90
0
 91
0
280
0
281
0
  0
ENDSEC
  0
SECTION
  2
TABLES
  0
TABLE
  2
VPORT
  5
8
100
AcDbSymbolTable
 70
2
  0
VPORT
  5
1F4
100
AcDbSymbolTableRecord
100
AcDbViewportTableRecord
  2
*ACTIVE
 70
0
 10
0.0
 20
0.0
 11
1.0
 21
1.0
 12
394.8141186576
 22
558.3799678158
 13
0.0
 23
0.0
 14
1.0
 24
1.0
 15
0.0
 25
0.0
 16
0.0
 26
0.0
 36
1.0
 17
0.0
 27
0.0
 37
0.0
 40
1116.7599356315
 41
0.7070707071
 42
50.0
 43
0.0
 44
0.0
 50
0.0
 51
0.0
 71
0
 72
100
 73
1
 74
1
 75
0
 76
0
 77
0
 78
0
  0
ENDTAB
  0
TABLE
  2
LTYPE
  5
5
100
AcDbSymbolTable
 70
6
  0
LTYPE
  5
14
100
AcDbSymbolTableRecord
100
AcDbLinetypeTableRecord
  2
BYBLOCK
 70
0
  3

 72
65
 73
0
 40
0.0
  0
LTYPE
  5
15
100
AcDbSymbolTableRecord
100
AcDbLinetypeTableRecord
  2
BYLAYER
 70
0
  3

 72
65
 73
0
 40
0.0
  0
LTYPE
  5
16
100
AcDbSymbolTableRecord
100
AcDbLinetypeTableRecord
  2
CONTINUOUS
 70
64
  3
Solid line
 72
65
 73
0
 40
0.0
  0
LTYPE
  5
1F5
100
AcDbSymbolTableRecord
100
AcDbLinetypeTableRecord
  2
CENTER
 70
64
  3
____ _ ____ _ ____ _ ____ _ ____ _ ____ _ ____
 72
65
 73
4
 40
0.6
 49
0.375
 74
0
 49
-0.075
 74
0
 49
0.075
 74
0
 49
-0.075
 74
0
  0
LTYPE
  5
1F6
100
AcDbSymbolTableRecord
100
AcDbLinetypeTableRecord
  2
HIDDEN
 70
64
  3
- - - - - - - - - - - - - - - - - - - -
 72
65
 73
2
 40
0.2
 49
0.1
 74
0
 49
-0.1
 74
0
  0
LTYPE
  5
1F7
100
AcDbSymbolTableRecord
100
AcDbLinetypeTableRecord
  2
PHANTOM
 70
64
  3
_____ _ _ _____ _ _ _____ _ _ _____
 72
65
 73
6
 40
0.8
 49
0.45
 74
0
 49
-0.05
 74
0
 49
0.1
 74
0
 49
-0.05
 74
0
 49
0.1
 74
0
 49
-0.05
 74
0
  0
LTYPE
  5
1F8
100
AcDbSymbolTableRecord
100
AcDbLinetypeTableRecord
  2
DOT
 70
64
  3
. . . . . . . . . . . . . . . . . . . .
 72
65
 73
2
 40
0.2
 49
0.1
 74
0
 49
-0.1
 74
0
  0
LTYPE
  5
1F9
100
AcDbSymbolTableRecord
100
AcDbLinetypeTableRecord
  2
DASHED
 70
64
  3
- - - - - - - - - - - - - - - - - - - -
 72
65
 73
2
 40
0.2
 49
0.1
 74
0
 49
-0.1
 74
0
  0
ENDTAB
  0
TABLE
  2
LAYER
  5
2
100
AcDbSymbolTable
 70
36
  0
LAYER
  5
10
100
AcDbSymbolTableRecord
100
AcDbLayerTableRecord
  2
0
 70
0
 62
7
  6
CONTINUOUS
370
-3
390
F
  0
LAYER
  5
1FA
100
AcDbSymbolTableRecord
100
AcDbLayerTableRecord
  2
DEFAULT_1
 70
0
 62
7
  6
CENTER
370
-3
390
F
  0
LAYER
  5
1FB
100
AcDbSymbolTableRecord
100
AcDbLayerTableRecord
  2
DEFAULT_2
 70
0
 62
8
  6
HIDDEN
370
-3
390
F
  0
LAYER
  5
1FC
100
AcDbSymbolTableRecord
100
AcDbLayerTableRecord
  2
DEFAULT_3
 70
0
 62
7
  6
PHANTOM
370
-3
390
F
  0
LAYER
  5
1FD
100
AcDbSymbolTableRecord
100
AcDbLayerTableRecord
  2
00_COMPONENTS
 70
0
 62
7
  6
CONTINUOUS
370
-3
390
F
  0
LAYER
  5
1FE
100
AcDbSymbolTableRecord
100
AcDbLayerTableRecord
  2
01_1_DEFAULT_DATUMS
 70
0
 62
7
  6
CONTINUOUS
370
-3
390
F
  0
LAYER
  5
1FF
100
AcDbSymbolTableRecord
100
AcDbLayerTableRecord
  2
01_PLANES
 70
0
 62
7
  6
CONTINUOUS
370
-3
390
F
  0
LAYER
  5
200
100
AcDbSymbolTableRecord
100
AcDbLayerTableRecord
  2
02_COORD_SYS
 70
0
 62
7
  6
CONTINUOUS
370
-3
390
F
  0
LAYER
  5
201
100
AcDbSymbolTableRecord
100
AcDbLayerTableRecord
  2
03_AXES
 70
0
 62
7
  6
CONTINUOUS
370
-3
390
F
  0
LAYER
  5
202
100
AcDbSymbolTableRecord
100
AcDbLayerTableRecord
  2
04_POINTS
 70
0
 62
7
  6
CONTINUOUS
370
-3
390
F
  0
LAYER
  5
203
100
AcDbSymbolTableRecord
100
AcDbLayerTableRecord
  2
05_CURVES
 70
0
 62
7
  6
CONTINUOUS
370
-3
390
F
  0
LAYER
  5
204
100
AcDbSymbolTableRecord
100
AcDbLayerTableRecord
  2
06_SURFS
 70
0
 62
7
  6
CONTINUOUS
370
-3
390
F
  0
LAYER
  5
205
100
AcDbSymbolTableRecord
100
AcDbLayerTableRecord
  2
07_COSMETICS
 70
0
 62
7
  6
CONTINUOUS
370
-3
390
F
  0
LAYER
  5
206
100
AcDbSymbolTableRecord
100
AcDbLayerTableRecord
  2
10_NOTES
 70
0
 62
7
  6
CONTINUOUS
370
-3
390
F
  0
LAYER
  5
207
100
AcDbSymbolTableRecord
100
AcDbLayerTableRecord
  2
11_NOTES_PUB
 70
0
 62
7
  6
CONTINUOUS
370
-3
390
F
  0
LAYER
  5
208
100
AcDbSymbolTableRecord
100
AcDbLayerTableRecord
  2
13_REF_GTOL
 70
0
 62
7
  6
CONTINUOUS
370
-3
390
F
  0
LAYER
  5
209
100
AcDbSymbolTableRecord
100
AcDbLayerTableRecord
  2
16_MISC
 70
0
 62
7
  6
CONTINUOUS
370
-3
390
F
  0
LAYER
  5
20A
100
AcDbSymbolTableRecord
100
AcDbLayerTableRecord
  2
17_NO_PRINT
 70
0
 62
7
  6
CONTINUOUS
370
-3
390
F
  0
LAYER
  5
20B
100
AcDbSymbolTableRecord
100
AcDbLayerTableRecord
  2
18_DATUM_CAMS_JOINTS
 70
0
 62
7
  6
CONTINUOUS
370
-3
390
F
  0
LAYER
  5
20C
100
AcDbSymbolTableRecord
100
AcDbLayerTableRecord
  2
19_DATUM_FUNCTIONAL
 70
0
 62
7
  6
CONTINUOUS
370
-3
390
F
  0
LAYER
  5
20D
100
AcDbSymbolTableRecord
100
AcDbLayerTableRecord
  2
20_DATUM_KINEMATIC_SCHEME
 70
0
 62
7
  6
CONTINUOUS
370
-3
390
F
  0
ENDTAB
  0
TABLE
  2
STYLE
  5
3
100
AcDbSymbolTable
 70
1
  0
STYLE
  5
11
100
AcDbSymbolTableRecord
100
AcDbTextStyleTableRecord
  2
STANDARD
 70
0
 40
0.0
 41
0.8
 50
0.0
 71
0
 42
0.2
  3
txt
  4

  0
STYLE
  5
20E
100
AcDbSymbolTableRecord
100
AcDbTextStyleTableRecord
  2
TEXTSTYLE_1
 70
0
 40
0.0
 41
0.8
 50
0.0
 71
0
 42
0.2
  3
gdt
  4

  0
ENDTAB
  0
TABLE
  2
VIEW
  5
6
100
AcDbSymbolTable
 70
0
  0
ENDTAB
  0
TABLE
  2
UCS
  5
7
100
AcDbSymbolTable
 70
0
  0
ENDTAB
  0
TABLE
  2
APPID
  5
9
100
AcDbSymbolTable
 70
1
  0
APPID
  5
20F
100
AcDbSymbolTableRecord
100
AcDbRegAppTableRecord
  2
ACAD
 70
0
  0
ENDTAB
  0
TABLE
  2
BLOCK_RECORD
  5
1
100
AcDbSymbolTable
 70
0
  0
BLOCK_RECORD
  5
210
100
AcDbSymbolTableRecord
100
AcDbBlockTableRecord
  2
*Model_Space
  0
BLOCK_RECORD
  5
211
100
AcDbSymbolTableRecord
100
AcDbBlockTableRecord
  2
*Paper_Space
  0
BLOCK_RECORD
  5
212
100
AcDbSymbolTableRecord
100
AcDbBlockTableRecord
  2
_FILLED
  0
ENDTAB
  0
TABLE
  2
DIMSTYLE
  5
A
100
AcDbSymbolTable
 70
1
100
AcDbDimStyleTable
 71
0
  0
DIMSTYLE
105
213
100
AcDbSymbolTableRecord
100
AcDbDimStyleTableRecord
  2
STANDARD
 70
0
  3

  4

 40
1.0
 41
9.4003361585
 42
1.0
 43
0.38
 44
1.0
 45
0.0
 46
0.0
 47
0.01
 48
0.01
140
13.1604706219
141
0.09
142
0.0
143
25.4
144
1.0
145
0.0
146
1.0
147
0.625
 71
1
 72
0
 73
0
 74
0
 75
0
 76
0
 77
1
 78
8
 79
2
170
0
171
1
172
0
173
0
174
0
175
0
176
0
177
0
178
0
270
2
179
2
271
2
272
2
273
2
274
2
275
0
280
0
281
0
282
0
283
1
284
8
285
0
286
0
287
3
288
0
340
11
278
46
341
212
342
212
343
212
344
212
  0
ENDTAB
  0
ENDSEC
  0
SECTION
  2
BLOCKS
  0
BLOCK
  5
20
100
AcDbEntity
  8
0
100
AcDbBlockBegin
  2
*Model_Space
 70
0
 10
0.0
 20
0.0
 30
0.0
  3
*Model_Space
  1

  0
ENDBLK
  5
21
100
AcDbEntity
  8
0
100
AcDbBlockEnd
  0
BLOCK
  5
1C
100
AcDbEntity
  8
0
100
AcDbBlockBegin
  2
*Paper_Space
 70
0
 10
0.0
 20
0.0
 30
0.0
  3
*Paper_Space
  1

  0
ENDBLK
  5
1D
100
AcDbEntity
  8
0
100
AcDbBlockEnd
  0
BLOCK
  5
214
100
AcDbEntity
  8
0
100
AcDbBlockBegin
  2
_FILLED
 70
64
 10
0.0
 20
0.0
  3
_FILLED
  1

  0
SOLID
  5
215
100
AcDbEntity
  8
0
  6
BYBLOCK
 62
0
100
AcDbTrace
 10
0.0
 20
0.0
 11
-1.0
 21
0.25
 12
-1.0
 22
-0.25
 13
-1.0
 23
-0.25
  0
ENDBLK
  5
216
100
AcDbEntity
  8
0
  6
BYBLOCK
 62
0
100
AcDbBlockEnd
  0
ENDSEC
  0
SECTION
  2
ENTITIES
  0
LINE
  5
217
100
AcDbEntity
  8
0
100
AcDbLine
 62
7
  6
CONTINUOUS
 10
111.4782136701
 20
907.9098756369
 11
109.4880961098
 21
906.5945845332
  0
LINE
  5
218
100
AcDbEntity
  8
0
100
AcDbLine
 62
7
  6
CONTINUOUS
 10
106.613266084
 20
915.1499428947
 11
106.9467558654
 21
915.3424821605
  0
LINE
  5
219
100
AcDbEntity
  8
0
100
AcDbLine
 62
7
  6
CONTINUOUS
 10
106.9467558654
 20
915.3424821605
 11
133.4701271947
 21
930.4298513989
  0
LINE
  5
21A
100
AcDbEntity
  8
0
100
AcDbLine
 62
7
  6
CONTINUOUS
 10
317.5070422645
 20
1033.2925212844
 11
133.470127195
 21
930.429851399
  0
LINE
  5
21B
100
AcDbEntity
  8
0
100
AcDbLine
 62
7
  6
CONTINUOUS
 10
110.3326632382
 20
848.9071567812
 11
109.7174828999
 21
848.5519843674
  0
LINE
  5
21C
100
AcDbEntity
  8
0
100
AcDbLine
 62
7
  6
CONTINUOUS
 10
129.4239187134
 20
837.884248165
 11
128.8094454788
 21
837.5294839953
  0
LINE
  5
21D
100
AcDbEntity
  8
0
100
AcDbLine
 62
7
  6
CONTINUOUS
 10
370.5685125559
 20
1002.6581601699
 11
371.2940010929
 21
1003.0708420006
  0
LINE
  5
21E
100
AcDbEntity
  8
0
100
AcDbLine
 62
7
  6
CONTINUOUS
 10
106.613266084
 20
305.2222105532
 11
485.9917758198
 21
86.192880938
  0
LINE
  5
21F
100
AcDbEntity
  8
0
100
AcDbLine
 62
7
  6
CONTINUOUS
 10
107.2028339332
 20
840.7434574835
 11
108.7059920381
 21
847.1118129955
  0
LINE
  5
220
100
AcDbEntity
  8
0
100
AcDbLine
 62
7
  6
CONTINUOUS
 10
128.8094454788
 20
804.8693873101
 11
129.4239187134
 21
805.2241514799
  0
LINE
  5
221
100
AcDbEntity
  8
0
100
AcDbLine
 62
7
  6
CONTINUOUS
 10
106.613266084
 20
309.3194196824
 11
485.9917758198
 21
90.2900900672
  0
LINE
  5
222
100
AcDbEntity
  8
0
100
AcDbLine
 62
7
  6
CONTINUOUS
 10
486.686151788
 20
91.5074882434
 11
107.3076420521
 21
310.5368178586
  0
LINE
  5
223
100
AcDbEntity
  8
0
100
AcDbLine
 62
7
  6
CONTINUOUS
 10
484.4836628624
 20
96.4911679135
 11
108.9498337876
 21
313.30082033
  0
LINE
  5
224
100
AcDbEntity
  8
0
100
AcDbLine
 62
7
  6
CONTINUOUS
 10
483.1131316487
 20
97.9588515757
 11
109.4919102551
 21
313.6642844133
  0
LINE
  5
225
100
AcDbEntity
  8
0
100
AcDbLine
 62
7
  6
CONTINUOUS
 10
505.5896384538
 20
104.5868575041
 11
507.0038579041
 21
103.7703759951
  0
LINE
  5
226
100
AcDbEntity
  8
0
100
AcDbLine
 62
7
  6
CONTINUOUS
 10
504.1919140671
 20
106.3508132339
 11
504.7287847635
 21
106.0408578049
  0
LINE
  5
227
100
AcDbEntity
  8
0
100
AcDbLine
 62
7
  6
CONTINUOUS
 10
507.8114079108
 20
104.2611447635
 11
507.9233084348
 21
104.1965404273
  0
LINE
  5
228
100
AcDbEntity
  8
0
100
AcDbLine
 62
7
  6
CONTINUOUS
 10
508.6190986107
 20
105.4147550919
 11
508.5011902082
 21
105.4828279998
  0
LINE
  5
229
100
AcDbEntity
  8
0
100
AcDbLine
 62
7
  6
CONTINUOUS
 10
504.7111690737
 20
107.6725811831
 11
504.1919140671
 21
107.9723664189
  0
LINE
  5
22A
100
AcDbEntity
  8
0
100
AcDbLine
 62
7
  6
CONTINUOUS
 10
108.7059920381
 20
367.087767562
 11
107.2028339332
 21
371.7204359616
  0
LINE
  5
22B
100
AcDbEntity
  8
0
100
AcDbLine
 62
7
  6
CONTINUOUS
 10
106.613266084
 20
305.2222105532
 11
106.613266084
 21
309.3193812628
  0
LINE
  5
22C
100
AcDbEntity
  8
0
100
AcDbLine
 62
7
  6
CONTINUOUS
 10
106.613266084
 20
911.04725655
 11
106.613266084
 21
915.1499428947
  0
LINE
  5
22D
100
AcDbEntity
  8
0
100
AcDbLine
 62
7
  6
CONTINUOUS
 10
107.1506959708
 20
372.0697769237
 11
107.1506959708
 21
391.2575837262
  0
LINE
  5
22E
100
AcDbEntity
  8
0
100
AcDbLine
 62
7
  6
CONTINUOUS
 10
107.1506959708
 20
821.146106345
 11
107.1506959708
 21
840.3339131475
  0
LINE
  5
22F
100
AcDbEntity
  8
0
100
AcDbLine
 62
7
  6
CONTINUOUS
 10
127.7979546171
 20
836.0893126234
 11
126.2947965121
 21
829.7209571114
  0
LINE
  5
230
100
AcDbEntity
  8
0
100
AcDbLine
 62
7
  6
CONTINUOUS
 10
466.7159647123
 20
152.4358638081
 11
483.1484876091
 21
142.9495733987
  0
LINE
  5
231
100
AcDbEntity
  8
0
100
AcDbLine
 62
7
  6
CONTINUOUS
 10
469.014054244
 20
153.4768875903
 11
468.7665658402
 21
153.6197718544
  0
LINE
  5
232
100
AcDbEntity
  8
0
100
AcDbLine
 62
7
  6
CONTINUOUS
 10
108.9674956251
 20
366.7412664341
 11
128.0594582041
 21
355.718766062
  0
LINE
  5
233
100
AcDbEntity
  8
0
100
AcDbLine
 62
7
  6
CONTINUOUS
 10
127.797954617
 20
356.0652671901
 11
108.7059920381
 21
367.0877675622
  0
LINE
  5
234
100
AcDbEntity
  8
0
100
AcDbLine
 62
7
  6
CONTINUOUS
 10
107.1998608648
 20
371.72959883
 11
126.2918234438
 21
360.707098458
  0
LINE
  5
235
100
AcDbEntity
  8
0
100
AcDbLine
 62
7
  6
CONTINUOUS
 10
126.2426585497
 20
361.0472765516
 11
107.1506959708
 21
372.0697769237
  0
LINE
  5
236
100
AcDbEntity
  8
0
100
AcDbLine
 62
7
  6
CONTINUOUS
 10
107.1506959708
 20
391.2575837262
 11
126.2426585497
 21
380.2350833542
  0
LINE
  5
237
100
AcDbEntity
  8
0
100
AcDbLine
 62
7
  6
CONTINUOUS
 10
126.2918234438
 20
380.6320318385
 11
107.1998608648
 21
391.6545322106
  0
LINE
  5
238
100
AcDbEntity
  8
0
100
AcDbLine
 62
7
  6
CONTINUOUS
 10
126.2947965121
 20
360.6979355895
 11
127.7979546171
 21
356.0652671899
  0
LINE
  5
239
100
AcDbEntity
  8
0
100
AcDbLine
 62
7
  6
CONTINUOUS
 10
108.9501267809
 20
313.3005432046
 11
108.9501267809
 21
366.7413821042
  0
LINE
  5
23A
100
AcDbEntity
  8
0
100
AcDbLine
 62
7
  6
CONTINUOUS
 10
108.9501267809
 20
398.6435627857
 11
108.9501267809
 21
815.8177115254
  0
LINE
  5
23B
100
AcDbEntity
  8
0
100
AcDbLine
 62
7
  6
CONTINUOUS
 10
108.9501267809
 20
847.719892207
 11
108.9501267809
 21
905.3286830627
  0
LINE
  5
23C
100
AcDbEntity
  8
0
100
AcDbLine
 62
7
  6
CONTINUOUS
 10
109.4919102551
 20
313.6642844133
 11
109.4919102551
 21
366.4385023557
  0
LINE
  5
23D
100
AcDbEntity
  8
0
100
AcDbLine
 62
7
  6
CONTINUOUS
 10
109.4919102551
 20
399.4756549461
 11
109.4919102551
 21
815.514831777
  0
LINE
  5
23E
100
AcDbEntity
  8
0
100
AcDbLine
 62
7
  6
CONTINUOUS
 10
109.4919102551
 20
848.5519843674
 11
109.4919102551
 21
903.3843990027
  0
LINE
  5
23F
100
AcDbEntity
  8
0
100
AcDbLine
 62
7
  6
CONTINUOUS
 10
126.2426585497
 20
829.3114127754
 11
126.2426585497
 21
810.1236059729
  0
LINE
  5
240
100
AcDbEntity
  8
0
100
AcDbLine
 62
7
  6
CONTINUOUS
 10
126.2426585497
 20
380.2350833542
 11
126.2426585497
 21
361.0472765516
  0
LINE
  5
241
100
AcDbEntity
  8
0
100
AcDbLine
 62
7
  6
CONTINUOUS
 10
129.4239187134
 20
356.1478220586
 11
129.4239187134
 21
388.8079187438
  0
LINE
  5
242
100
AcDbEntity
  8
0
100
AcDbLine
 62
7
  6
CONTINUOUS
 10
129.4239187134
 20
805.2241514799
 11
129.4239187134
 21
837.884248165
  0
LINE
  5
243
100
AcDbEntity
  8
0
100
AcDbLine
 62
7
  6
CONTINUOUS
 10
108.7059920381
 20
398.035483574
 11
127.797954617
 21
387.0129832019
  0
LINE
  5
244
100
AcDbEntity
  8
0
100
AcDbLine
 62
7
  6
CONTINUOUS
 10
128.8094454788
 20
388.4531545741
 11
109.7174828999
 21
399.4756549461
  0
LINE
  5
245
100
AcDbEntity
  8
0
100
AcDbLine
 62
7
  6
CONTINUOUS
 10
466.7159647123
 20
197.3434967503
 11
483.1484876091
 21
187.8572063409
  0
LINE
  5
246
100
AcDbEntity
  8
0
100
AcDbLine
 62
7
  6
CONTINUOUS
 10
506.2995750462
 20
198.8738094613
 11
505.5896384538
 21
199.2836822715
  0
LINE
  5
247
100
AcDbEntity
  8
0
100
AcDbLine
 62
7
  6
CONTINUOUS
 10
504.7111690737
 20
201.5364927972
 11
504.1919140671
 21
201.836278033
  0
LINE
  5
248
100
AcDbEntity
  8
0
100
AcDbLine
 62
7
  6
CONTINUOUS
 10
129.4239187134
 20
388.8079187438
 11
110.3326632382
 21
399.83082736
  0
LINE
  5
249
100
AcDbEntity
  8
0
100
AcDbLine
 62
7
  6
CONTINUOUS
 10
107.2028339332
 20
391.6671280622
 11
108.7059920381
 21
398.0354835742
  0
LINE
  5
24A
100
AcDbEntity
  8
0
100
AcDbLine
 62
7
  6
CONTINUOUS
 10
127.7979546171
 20
387.0129832022
 11
126.2947965122
 21
380.6446276902
  0
LINE
  5
24B
100
AcDbEntity
  8
0
100
AcDbLine
 62
7
  6
CONTINUOUS
 10
108.7059920381
 20
816.1640969833
 11
107.2028339332
 21
820.7967653829
  0
LINE
  5
24C
100
AcDbEntity
  8
0
100
AcDbLine
 62
7
  6
CONTINUOUS
 10
126.2947965121
 20
809.7742650108
 11
127.7979546171
 21
805.1415966112
  0
LINE
  5
24D
100
AcDbEntity
  8
0
100
AcDbLine
 62
7
  6
CONTINUOUS
 10
647.7385481391
 20
843.4691190209
 11
647.0130596021
 21
843.0564371902
  0
LINE
  5
24E
100
AcDbEntity
  8
0
100
AcDbLine
 62
7
  6
CONTINUOUS
 10
510.2338279451
 20
709.913132109
 11
573.1273514776
 21
746.3130983115
  0
LINE
  5
24F
100
AcDbEntity
  8
0
100
AcDbLine
 62
7
  6
CONTINUOUS
 10
573.1273514776
 20
746.3130983115
 11
693.6998782438
 21
816.1023996617
  0
LINE
  5
250
100
AcDbEntity
  8
0
100
AcDbLine
 62
7
  6
CONTINUOUS
 10
486.3252656013
 20
696.3131525452
 11
485.9917758198
 21
696.1206132795
  0
LINE
  5
251
100
AcDbEntity
  8
0
100
AcDbLine
 62
7
  6
CONTINUOUS
 10
485.8466508707
 20
689.3087872917
 11
504.1919140671
 21
699.9003790649
  0
LINE
  5
252
100
AcDbEntity
  8
0
100
AcDbLine
 62
7
  6
CONTINUOUS
 10
510.2338279451
 20
709.913132109
 11
486.3252656013
 21
696.3131525452
  0
LINE
  5
253
100
AcDbEntity
  8
0
100
AcDbLine
 62
7
  6
CONTINUOUS
 10
486.686151788
 20
691.6253338043
 11
507.9247226425
 21
703.4464439047
  0
LINE
  5
254
100
AcDbEntity
  8
0
100
AcDbLine
 62
7
  6
CONTINUOUS
 10
485.9323671921
 20
642.6233400991
 11
506.2995750462
 21
653.6656558025
  0
LINE
  5
255
100
AcDbEntity
  8
0
100
AcDbLine
 62
7
  6
CONTINUOUS
 10
504.1919140671
 20
652.5432673843
 11
485.8459190743
 21
642.6660655989
  0
LINE
  5
256
100
AcDbEntity
  8
0
100
AcDbLine
 62
7
  6
CONTINUOUS
 10
468.7665658402
 20
608.4116181955
 11
466.7159647123
 21
607.2277101493
  0
LINE
  5
257
100
AcDbEntity
  8
0
100
AcDbLine
 62
7
  6
CONTINUOUS
 10
472.1437228296
 20
610.075638146
 11
469.014054244
 21
608.2687339314
  0
LINE
  5
258
100
AcDbEntity
  8
0
100
AcDbLine
 62
7
  6
CONTINUOUS
 10
110.3326632382
 20
399.83082736
 11
109.7174828999
 21
399.4756549461
  0
LINE
  5
259
100
AcDbEntity
  8
0
100
AcDbLine
 62
7
  6
CONTINUOUS
 10
472.3212234977
 20
149.200555832
 11
472.1437228296
 21
151.5393764254
  0
LINE
  5
25A
100
AcDbEntity
  8
0
100
AcDbLine
 62
7
  6
CONTINUOUS
 10
693.6998782438
 20
713.9211702569
 11
694.4012790388
 21
714.3331758271
  0
LINE
  5
25B
100
AcDbEntity
  8
0
100
AcDbLine
 62
7
  6
CONTINUOUS
 10
129.4239187134
 20
388.8079187438
 11
128.8094454788
 21
388.4531545741
  0
LINE
  5
25C
100
AcDbEntity
  8
0
100
AcDbLine
 62
7
  6
CONTINUOUS
 10
128.8094454788
 20
355.7930578889
 11
129.4239187134
 21
356.1478220586
  0
LINE
  5
25D
100
AcDbEntity
  8
0
100
AcDbLine
 62
7
  6
CONTINUOUS
 10
506.2995750462
 20
608.7580228604
 11
485.9323671921
 21
597.7157071569
  0
LINE
  5
25E
100
AcDbEntity
  8
0
100
AcDbLine
 62
7
  6
CONTINUOUS
 10
485.8459190743
 20
597.7584326567
 11
504.1919140671
 21
607.6356344421
  0
LINE
  5
25F
100
AcDbEntity
  8
0
100
AcDbLine
 62
7
  6
CONTINUOUS
 10
472.3212234977
 20
603.9924021731
 11
472.1437228296
 21
606.3312227666
  0
LINE
  5
260
100
AcDbEntity
  8
0
100
AcDbLine
 62
7
  6
CONTINUOUS
 10
466.7159647123
 20
652.1353430914
 11
466.7159647123
 21
607.2277101493
  0
LINE
  5
261
100
AcDbEntity
  8
0
100
AcDbLine
 62
7
  6
CONTINUOUS
 10
466.7159647123
 20
197.3434967503
 11
466.7159647123
 21
152.4358638081
  0
LINE
  5
262
100
AcDbEntity
  8
0
100
AcDbLine
 62
7
  6
CONTINUOUS
 10
468.7665658402
 20
153.6197718544
 11
468.7665658402
 21
196.1596084202
  0
LINE
  5
263
100
AcDbEntity
  8
0
100
AcDbLine
 62
7
  6
CONTINUOUS
 10
468.7665658402
 20
608.4116181955
 11
468.7665658402
 21
650.9514547614
  0
LINE
  5
264
100
AcDbEntity
  8
0
100
AcDbLine
 62
7
  6
CONTINUOUS
 10
472.1437228296
 20
649.0016963739
 11
472.1437228296
 21
606.3312227666
  0
LINE
  5
265
100
AcDbEntity
  8
0
100
AcDbLine
 62
7
  6
CONTINUOUS
 10
472.1437228296
 20
194.2098500327
 11
472.1437228296
 21
151.5393764254
  0
LINE
  5
266
100
AcDbEntity
  8
0
100
AcDbLine
 62
7
  6
CONTINUOUS
 10
472.3212234977
 20
648.9000351153
 11
472.3212234977
 21
603.9924021731
  0
LINE
  5
267
100
AcDbEntity
  8
0
100
AcDbLine
 62
7
  6
CONTINUOUS
 10
472.3212234977
 20
194.1081887741
 11
472.3212234977
 21
149.200555832
  0
LINE
  5
268
100
AcDbEntity
  8
0
100
AcDbLine
 62
7
  6
CONTINUOUS
 10
107.3076420521
 20
310.5368178586
 11
110.4673334484
 21
312.4247113125
  0
LINE
  5
269
100
AcDbEntity
  8
0
100
AcDbLine
 62
7
  6
CONTINUOUS
 10
466.7159647123
 20
607.2277101493
 11
483.1484876091
 21
597.7414197399
  0
LINE
  5
26A
100
AcDbEntity
  8
0
100
AcDbLine
 62
7
  6
CONTINUOUS
 10
108.9674956251
 20
815.8175958553
 11
128.0594582041
 21
804.7950954833
  0
LINE
  5
26B
100
AcDbEntity
  8
0
100
AcDbLine
 62
7
  6
CONTINUOUS
 10
127.797954617
 20
805.1415966114
 11
108.7059920381
 21
816.1640969834
  0
LINE
  5
26C
100
AcDbEntity
  8
0
100
AcDbLine
 62
7
  6
CONTINUOUS
 10
469.014054244
 20
608.2687339314
 11
468.7665658402
 21
608.4116181955
  0
LINE
  5
26D
100
AcDbEntity
  8
0
100
AcDbLine
 62
7
  6
CONTINUOUS
 10
107.1998608648
 20
820.8059282513
 11
126.2918234438
 21
809.7834278792
  0
LINE
  5
26E
100
AcDbEntity
  8
0
100
AcDbLine
 62
7
  6
CONTINUOUS
 10
483.1131316487
 20
687.6789661651
 11
483.1131316487
 21
642.668648512
  0
LINE
  5
26F
100
AcDbEntity
  8
0
100
AcDbLine
 62
7
  6
CONTINUOUS
 10
483.1131316487
 20
597.7610155699
 11
483.1131316487
 21
187.8768021708
  0
LINE
  5
270
100
AcDbEntity
  8
0
100
AcDbLine
 62
7
  6
CONTINUOUS
 10
483.1131316487
 20
142.9691692287
 11
483.1131316487
 21
97.9588515757
  0
LINE
  5
271
100
AcDbEntity
  8
0
100
AcDbLine
 62
7
  6
CONTINUOUS
 10
483.1484876091
 20
642.649052682
 11
483.1484876091
 21
597.7414197399
  0
LINE
  5
272
100
AcDbEntity
  8
0
100
AcDbLine
 62
7
  6
CONTINUOUS
 10
483.1484876091
 20
187.8572063409
 11
483.1484876091
 21
142.9495733987
  0
LINE
  5
273
100
AcDbEntity
  8
0
100
AcDbLine
 62
7
  6
CONTINUOUS
 10
485.8459190741
 20
96.3242871234
 11
485.8459190741
 21
142.9665863154
  0
LINE
  5
274
100
AcDbEntity
  8
0
100
AcDbLine
 62
7
  6
CONTINUOUS
 10
485.8459190741
 20
187.8742192576
 11
485.8459190741
 21
597.7584326566
  0
LINE
  5
275
100
AcDbEntity
  8
0
100
AcDbLine
 62
7
  6
CONTINUOUS
 10
485.8459190741
 20
642.6660655987
 11
485.8459190741
 21
689.3083647907
  0
LINE
  5
276
100
AcDbEntity
  8
0
100
AcDbLine
 62
7
  6
CONTINUOUS
 10
485.9323671921
 20
142.9238608157
 11
485.9323671921
 21
187.8314937579
  0
LINE
  5
277
100
AcDbEntity
  8
0
100
AcDbLine
 62
7
  6
CONTINUOUS
 10
485.9323671921
 20
597.7157071569
 11
485.9323671921
 21
642.623340099
  0
LINE
  5
278
100
AcDbEntity
  8
0
100
AcDbLine
 62
7
  6
CONTINUOUS
 10
485.9917758198
 20
86.192880938
 11
485.9917758198
 21
90.2900900672
  0
LINE
  5
279
100
AcDbEntity
  8
0
100
AcDbLine
 62
7
  6
CONTINUOUS
 10
485.9917758198
 20
692.0246104139
 11
485.9917758198
 21
696.1206132795
  0
LINE
  5
27A
100
AcDbEntity
  8
0
100
AcDbLine
 62
7
  6
CONTINUOUS
 10
504.1919140671
 20
699.9003790649
 11
504.1919140671
 21
652.5432673843
  0
LINE
  5
27B
100
AcDbEntity
  8
0
100
AcDbLine
 62
7
  6
CONTINUOUS
 10
504.1919140671
 20
607.6356344422
 11
504.1919140671
 21
197.7514210431
  0
LINE
  5
27C
100
AcDbEntity
  8
0
100
AcDbLine
 62
7
  6
CONTINUOUS
 10
504.1919140671
 20
152.843788101
 11
504.1919140671
 21
105.4866764203
  0
LINE
  5
27D
100
AcDbEntity
  8
0
100
AcDbLine
 62
7
  6
CONTINUOUS
 10
504.7111690737
 20
105.8238833601
 11
504.7111690737
 21
153.1050039746
  0
LINE
  5
27E
100
AcDbEntity
  8
0
100
AcDbLine
 62
7
  6
CONTINUOUS
 10
504.7111690737
 20
200.5081925017
 11
504.7111690737
 21
607.8968503158
  0
LINE
  5
27F
100
AcDbEntity
  8
0
100
AcDbLine
 62
7
  6
CONTINUOUS
 10
504.7111690737
 20
655.3000388429
 11
504.7111690737
 21
701.6578221179
  0
LINE
  5
280
100
AcDbEntity
  8
0
100
AcDbLine
 62
7
  6
CONTINUOUS
 10
505.5896384538
 20
104.5868575041
 11
505.5896384538
 21
153.5812762403
  0
LINE
  5
281
100
AcDbEntity
  8
0
100
AcDbLine
 62
7
  6
CONTINUOUS
 10
505.5896384538
 20
199.2836822715
 11
505.5896384538
 21
608.3731225815
  0
LINE
  5
282
100
AcDbEntity
  8
0
100
AcDbLine
 62
7
  6
CONTINUOUS
 10
505.5896384538
 20
654.0755286126
 11
505.5896384538
 21
702.1467666582
  0
LINE
  5
283
100
AcDbEntity
  8
0
100
AcDbLine
 62
7
  6
CONTINUOUS
 10
506.2995750462
 20
153.9661765192
 11
506.2995750462
 21
198.8738094613
  0
LINE
  5
284
100
AcDbEntity
  8
0
100
AcDbLine
 62
7
  6
CONTINUOUS
 10
506.2995750462
 20
608.7580228604
 11
506.2995750462
 21
653.6656558025
  0
LINE
  5
285
100
AcDbEntity
  8
0
100
AcDbLine
 62
7
  6
CONTINUOUS
 10
507.0038579041
 20
703.0528137804
 11
507.0038579041
 21
103.7703759951
  0
LINE
  5
286
100
AcDbEntity
  8
0
100
AcDbLine
 62
7
  6
CONTINUOUS
 10
508.6190986107
 20
105.4147550919
 11
508.6190986107
 21
703.0308372467
  0
LINE
  5
287
100
AcDbEntity
  8
0
100
AcDbLine
 62
7
  6
CONTINUOUS
 10
510.2338279451
 20
100.3921406641
 11
510.2338279451
 21
709.913132109
  0
LINE
  5
288
100
AcDbEntity
  8
0
100
AcDbLine
 62
7
  6
CONTINUOUS
 10
508.5011900996
 20
105.4822072577
 11
508.5011902082
 21
703.0989101546
  0
LINE
  5
289
100
AcDbEntity
  8
0
100
AcDbLine
 62
7
  6
CONTINUOUS
 10
126.2426585497
 20
810.1236059729
 11
107.1506959708
 21
821.146106345
  0
LINE
  5
28A
100
AcDbEntity
  8
0
100
AcDbLine
 62
7
  6
CONTINUOUS
 10
107.1506959708
 20
840.3339131475
 11
126.2426585497
 21
829.3114127754
  0
LINE
  5
28B
100
AcDbEntity
  8
0
100
AcDbLine
 62
7
  6
CONTINUOUS
 10
126.2918234438
 20
829.7083612598
 11
107.1998608648
 21
840.7308616319
  0
LINE
  5
28C
100
AcDbEntity
  8
0
100
AcDbLine
 62
7
  6
CONTINUOUS
 10
108.7059920381
 20
847.1118129953
 11
127.797954617
 21
836.0893126232
  0
LINE
  5
28D
100
AcDbEntity
  8
0
100
AcDbLine
 62
7
  6
CONTINUOUS
 10
128.8094454788
 20
837.5294839953
 11
109.7174828999
 21
848.5519843674
  0
LINE
  5
28E
100
AcDbEntity
  8
0
100
AcDbLine
 62
7
  6
CONTINUOUS
 10
466.7159647123
 20
652.1353430914
 11
483.1484876091
 21
642.649052682
  0
LINE
  5
28F
100
AcDbEntity
  8
0
100
AcDbLine
 62
7
  6
CONTINUOUS
 10
129.4239187134
 20
837.884248165
 11
110.3326632382
 21
848.9071567812
  0
LINE
  5
290
100
AcDbEntity
  8
0
100
AcDbLine
 62
7
  6
CONTINUOUS
 10
694.4012790388
 20
714.3331758271
 11
695.2795295995
 21
715.5572313255
  0
LINE
  5
291
100
AcDbEntity
  8
0
100
AcDbLine
 62
7
  6
CONTINUOUS
 10
506.2995750462
 20
653.6656558025
 11
505.5896384538
 21
654.0755286126
  0
LINE
  5
292
100
AcDbEntity
  8
0
100
AcDbLine
 62
7
  6
CONTINUOUS
 10
504.7111690737
 20
656.3283391384
 11
504.1919140671
 21
656.6281243741
  0
LINE
  5
293
100
AcDbEntity
  8
0
100
AcDbLine
 62
7
  6
CONTINUOUS
 10
109.4919102551
 20
903.3843990027
 11
483.1131316487
 21
687.6789661651
  0
LINE
  5
294
100
AcDbEntity
  8
0
100
AcDbLine
 62
7
  6
CONTINUOUS
 10
485.8466508707
 20
689.3087872917
 11
109.4880961098
 21
906.5945845332
  0
LINE
  5
295
100
AcDbEntity
  8
0
100
AcDbLine
 62
7
  6
CONTINUOUS
 10
486.1930632323
 20
691.5730505658
 11
106.8145534964
 21
910.602380181
  0
LINE
  5
296
100
AcDbEntity
  8
0
100
AcDbLine
 62
7
  6
CONTINUOUS
 10
106.613266084
 20
911.0539400292
 11
485.9917758198
 21
692.0246104139
  0
LINE
  5
297
100
AcDbEntity
  8
0
100
AcDbLine
 62
7
  6
CONTINUOUS
 10
485.9917758198
 20
696.1206132795
 11
106.613266084
 21
915.1499428947
  0
LINE
  5
298
100
AcDbEntity
  8
0
100
AcDbLine
 62
7
  6
CONTINUOUS
 10
106.9467558658
 20
915.3424821607
 11
486.3252656016
 21
696.3131525454
  0
LINE
  5
299
100
AcDbEntity
  8
0
100
AcDbLine
 62
7
  6
CONTINUOUS
 10
504.1919140671
 20
699.9003790649
 11
502.8969133468
 21
700.6480311652
  0
LINE
  5
29A
100
AcDbEntity
  8
0
100
AcDbLine
 62
7
  6
CONTINUOUS
 10
508.5011902082
 20
703.0989101546
 11
508.6190986107
 21
703.0308372467
  0
LINE
  5
29B
100
AcDbEntity
  8
0
100
AcDbLine
 62
7
  6
CONTINUOUS
 10
649.8406732444
 20
841.4239506245
 11
649.8406732444
 21
842.3277357271
  0
LINE
  5
29C
100
AcDbEntity
  8
0
100
AcDbLine
 62
7
  6
CONTINUOUS
 10
649.2270561195
 20
843.6190767186
 11
647.7385481391
 21
843.4691190209
  0
LINE
  5
29D
100
AcDbEntity
  8
0
100
AcDbLine
 62
7
  6
CONTINUOUS
 10
693.6998782438
 20
816.1023996617
 11
693.6998782438
 21
713.9211702569
  0
LINE
  5
29E
100
AcDbEntity
  8
0
100
AcDbLine
 62
7
  6
CONTINUOUS
 10
693.6998782438
 20
311.9113061686
 11
693.6998782438
 21
209.7080901077
  0
LINE
  5
29F
100
AcDbEntity
  8
0
100
AcDbLine
 62
7
  6
CONTINUOUS
 10
694.4182781313
 20
714.3431611604
 11
694.4182781313
 21
312.3332970722
  0
LINE
  5
2A0
100
AcDbEntity
  8
0
100
AcDbLine
 62
7
  6
CONTINUOUS
 10
695.2795947825
 20
313.547367236
 11
695.2795947825
 21
715.5572313242
  0
LINE
  5
2A1
100
AcDbEntity
  8
0
100
AcDbLine
 62
7
  6
CONTINUOUS
 10
694.3998757677
 20
716.7820015376
 11
693.6998782438
 21
717.1861366945
  0
LINE
  5
2A2
100
AcDbEntity
  8
0
100
AcDbLine
 62
7
  6
CONTINUOUS
 10
695.2795295995
 20
715.5572313255
 11
694.3998757677
 21
716.7820015376
  0
LINE
  5
2A3
100
AcDbEntity
  8
0
100
AcDbLine
 62
7
  6
CONTINUOUS
 10
694.4012790388
 20
312.3233117388
 11
693.6998782438
 21
311.9113061686
  0
LINE
  5
2A4
100
AcDbEntity
  8
0
100
AcDbLine
 62
7
  6
CONTINUOUS
 10
485.9323671921
 20
187.8314937579
 11
506.2995750462
 21
198.8738094613
  0
LINE
  5
2A5
100
AcDbEntity
  8
0
100
AcDbLine
 62
7
  6
CONTINUOUS
 10
504.1919140671
 20
197.7514210431
 11
485.8459190743
 21
187.8742192577
  0
LINE
  5
2A6
100
AcDbEntity
  8
0
100
AcDbLine
 62
7
  6
CONTINUOUS
 10
317.5070422645
 20
1033.2925212844
 11
370.5685125559
 21
1002.6581601699
  0
LINE
  5
2A7
100
AcDbEntity
  8
0
100
AcDbLine
 62
7
  6
CONTINUOUS
 10
647.0130596021
 20
843.0564371902
 11
693.6998782438
 21
816.1023996617
  0
LINE
  5
2A8
100
AcDbEntity
  8
0
100
AcDbLine
 62
7
  6
CONTINUOUS
 10
371.2940010929
 20
1003.0708420006
 11
647.7385481391
 21
843.4691190209
  0
LINE
  5
2A9
100
AcDbEntity
  8
0
100
AcDbLine
 62
7
  6
CONTINUOUS
 10
649.2270990087
 20
843.6191509001
 11
372.7825519625
 21
1003.2208738798
  0
LINE
  5
2AA
100
AcDbEntity
  8
0
100
AcDbLine
 62
7
  6
CONTINUOUS
 10
649.8406732444
 20
842.3277357271
 11
649.2270561195
 21
843.6190767186
  0
LINE
  5
2AB
100
AcDbEntity
  8
0
100
AcDbLine
 62
7
  6
CONTINUOUS
 10
695.2795295995
 20
313.5473672373
 11
694.4012790388
 21
312.3233117388
  0
LINE
  5
2AC
100
AcDbEntity
  8
0
100
AcDbLine
 62
7
  6
CONTINUOUS
 10
468.7665658402
 20
153.6197718544
 11
466.7159647123
 21
152.4358638081
  0
LINE
  5
2AD
100
AcDbEntity
  8
0
100
AcDbLine
 62
7
  6
CONTINUOUS
 10
472.1437228296
 20
155.2837918049
 11
469.014054244
 21
153.4768875903
  0
LINE
  5
2AE
100
AcDbEntity
  8
0
100
AcDbLine
 62
7
  6
CONTINUOUS
 10
506.2995750462
 20
153.9661765192
 11
485.9323671921
 21
142.9238608157
  0
LINE
  5
2AF
100
AcDbEntity
  8
0
100
AcDbLine
 62
7
  6
CONTINUOUS
 10
485.8459190743
 20
142.9665863156
 11
504.1919140671
 21
152.843788101
  0
LINE
  5
2B0
100
AcDbEntity
  8
0
100
AcDbLine
 62
7
  6
CONTINUOUS
 10
507.0038579041
 20
103.7703759951
 11
507.8114079108
 21
104.2611447635
  0
LINE
  5
2B1
100
AcDbEntity
  8
0
100
AcDbLine
 62
7
  6
CONTINUOUS
 10
507.9233084348
 20
104.1965404273
 11
486.686151788
 21
91.5074882434
  0
LINE
  5
2B2
100
AcDbEntity
  8
0
100
AcDbLine
 62
7
  6
CONTINUOUS
 10
693.6998782438
 20
209.7080901077
 11
573.1273514998
 21
137.8639197427
  0
LINE
  5
2B3
100
AcDbEntity
  8
0
100
AcDbLine
 62
7
  6
CONTINUOUS
 10
573.1273514998
 20
137.8639197427
 11
510.2338279451
 21
100.3921406641
  0
LINE
  5
2B4
100
AcDbEntity
  8
0
100
AcDbLine
 62
7
  6
CONTINUOUS
 10
371.2940010929
 20
1003.0708420006
 11
372.7825113461
 21
1003.22080362
  0
LINE
  5
2B5
100
AcDbEntity
  8
0
100
AcDbLine
 62
7
  6
CONTINUOUS
 10
485.9917758198
 20
86.192880938
 11
510.2338279451
 21
100.3921406641
  0
LINE
  5
2B6
100
AcDbEntity
  8
0
100
AcDbLine
 62
7
  6
CONTINUOUS
 10
504.1919140671
 20
105.4866764203
 11
485.8466508707
 21
96.3246525986
  0
SPLINE
  5
2B7
100
AcDbEntity
  8
0
100
AcDbSpline
 62
7
  6
CONTINUOUS
 70
0
 71
3
 72
9
 73
5
 74
0
 42
0.0000001
 43
0.0000001
 44
0.0000000001
 40
0.0
 40
0.0
 40
0.0
 40
0.0
 40
0.2208770746
 40
1.0
 40
1.0
 40
1.0
 40
1.0
 10
128.0594396798
 20
355.7187345721
 30
0.0
 10
128.1088756069
 20
355.6901386579
 30
0.0
 10
128.3574493558
 20
355.5999461566
 30
0.0
 10
128.6349820323
 20
355.6923319723
 30
0.0
 10
128.8094454788
 20
355.7930578889
 30
0.0
  0
SPLINE
  5
2B8
100
AcDbEntity
  8
0
100
AcDbSpline
 62
7
  6
CONTINUOUS
 70
0
 71
3
 72
8
 73
4
 74
0
 42
0.0000001
 43
0.0000001
 44
0.0000000001
 40
0.0
 40
0.0
 40
0.0
 40
0.0
 40
1.0
 40
1.0
 40
1.0
 40
1.0
 10
108.9674771453
 20
366.7412350041
 30
0.0
 10
108.8422173181
 20
366.8136911643
 30
0.0
 10
108.750652658
 20
366.9501254592
 30
0.0
 10
108.7059920381
 20
367.087767562
 30
0.0
  0
SPLINE
  5
2B9
100
AcDbEntity
  8
0
100
AcDbSpline
 62
7
  6
CONTINUOUS
 70
0
 71
3
 72
9
 73
5
 74
0
 42
0.0000001
 43
0.0000001
 44
0.0000000001
 40
0.0
 40
0.0
 40
0.0
 40
0.0
 40
0.2208770746
 40
1.0
 40
1.0
 40
1.0
 40
1.0
 10
128.0594396798
 20
804.7950639934
 30
0.0
 10
128.1088756069
 20
804.7664680791
 30
0.0
 10
128.3574493558
 20
804.6762755778
 30
0.0
 10
128.6349820323
 20
804.7686613936
 30
0.0
 10
128.8094454788
 20
804.8693873101
 30
0.0
  0
SPLINE
  5
2BA
100
AcDbEntity
  8
0
100
AcDbSpline
 62
7
  6
CONTINUOUS
 70
0
 71
3
 72
8
 73
4
 74
0
 42
0.0000001
 43
0.0000001
 44
0.0000000001
 40
0.0
 40
0.0
 40
0.0
 40
0.0
 40
1.0
 40
1.0
 40
1.0
 40
1.0
 10
108.9674771453
 20
815.8175644254
 30
0.0
 10
108.8422173181
 20
815.8900205855
 30
0.0
 10
108.750652658
 20
816.0264548804
 30
0.0
 10
108.7059920381
 20
816.1640969833
 30
0.0
  0
SPLINE
  5
2BB
100
AcDbEntity
  8
0
100
AcDbSpline
 62
7
  6
CONTINUOUS
 70
0
 71
3
 72
9
 73
5
 74
0
 42
0.0000001
 43
0.0000001
 44
0.0000000001
 40
0.0
 40
0.0
 40
0.0
 40
0.0
 40
0.5222331223
 40
1.0
 40
1.0
 40
1.0
 40
1.0
 10
484.4836059807
 20
96.4912030192
 30
0.0
 10
484.6969615381
 20
96.368033046
 30
0.0
 10
485.1414126656
 20
96.1760590582
 30
0.0
 10
485.6424972871
 20
96.229266173
 30
0.0
 10
485.8467141683
 20
96.3246160546
 30
0.0
  0
SPLINE
  5
2BC
100
AcDbEntity
  8
0
100
AcDbSpline
 62
7
  6
CONTINUOUS
 70
0
 71
3
 72
9
 73
5
 74
0
 42
0.0000001
 43
0.0000001
 44
0.0000000001
 40
0.0
 40
0.0
 40
0.0
 40
0.0
 40
0.5222352088
 40
1.0
 40
1.0
 40
1.0
 40
1.0
 10
108.949997222
 20
905.3286113981
 30
0.0
 10
108.9504970983
 20
905.5753888292
 30
0.0
 10
109.0055509781
 20
906.057381792
 30
0.0
 10
109.3034003613
 20
906.4646974254
 30
0.0
 10
109.4880328122
 20
906.5946210773
 30
0.0
  0
SPLINE
  5
2BD
100
AcDbEntity
  8
0
100
AcDbSpline
 62
7
  6
CONTINUOUS
 70
0
 71
3
 72
9
 73
5
 74
0
 42
0.0000001
 43
0.0000001
 44
0.0000000001
 40
0.0
 40
0.0
 40
0.0
 40
0.0
 40
0.5002048176
 40
1.0
 40
1.0
 40
1.0
 40
1.0
 10
485.8459190743
 20
187.8742192577
 30
0.0
 10
485.4344265949
 20
187.6526780301
 30
0.0
 10
484.4790146734
 20
187.4745768553
 30
0.0
 10
483.5236781244
 20
187.6543148853
 30
0.0
 10
483.1131316487
 20
187.8768021708
 30
0.0
  0
SPLINE
  5
2BE
100
AcDbEntity
  8
0
100
AcDbSpline
 62
7
  6
CONTINUOUS
 70
0
 71
3
 72
9
 73
5
 74
0
 42
0.0000001
 43
0.0000001
 44
0.0000000001
 40
0.0
 40
0.0
 40
0.0
 40
0.0
 40
0.5002048176
 40
1.0
 40
1.0
 40
1.0
 40
1.0
 10
485.8459190743
 20
642.6660655989
 30
0.0
 10
485.4344265949
 20
642.4445243713
 30
0.0
 10
484.4790146734
 20
642.2664231965
 30
0.0
 10
483.5236781244
 20
642.4461612265
 30
0.0
 10
483.1131316487
 20
642.668648512
 30
0.0
  0
SPLINE
  5
2BF
100
AcDbEntity
  8
0
100
AcDbSpline
 62
7
  6
CONTINUOUS
 70
0
 71
3
 72
9
 73
5
 74
0
 42
0.0000001
 43
0.0000001
 44
0.0000000001
 40
0.0
 40
0.0
 40
0.0
 40
0.0
 40
0.7678321112
 40
1.0
 40
1.0
 40
1.0
 40
1.0
 10
108.7059920381
 20
847.1118129955
 30
0.0
 10
108.8109467214
 20
847.5564693051
 30
0.0
 10
109.1278028986
 20
848.1121853253
 30
0.0
 10
109.5978461772
 20
848.4829124856
 30
0.0
 10
109.7174828999
 20
848.5519843674
 30
0.0
  0
SPLINE
  5
2C0
100
AcDbEntity
  8
0
100
AcDbSpline
 62
7
  6
CONTINUOUS
 70
0
 71
3
 72
8
 73
4
 74
0
 42
0.0000001
 43
0.0000001
 44
0.0000000001
 40
0.0
 40
0.0
 40
0.0
 40
0.0
 40
1.0
 40
1.0
 40
1.0
 40
1.0
 10
107.1506959708
 20
840.3339131475
 30
0.0
 10
107.1506959708
 20
840.4715297366
 30
0.0
 10
107.1712202377
 20
840.6095213052
 30
0.0
 10
107.2028339332
 20
840.7434574835
 30
0.0
  0
SPLINE
  5
2C1
100
AcDbEntity
  8
0
100
AcDbSpline
 62
7
  6
CONTINUOUS
 70
0
 71
3
 72
8
 73
4
 74
0
 42
0.0000001
 43
0.0000001
 44
0.0000000001
 40
0.0
 40
0.0
 40
0.0
 40
0.0
 40
1.0
 40
1.0
 40
1.0
 40
1.0
 10
107.2028339332
 20
820.7967653829
 30
0.0
 10
107.1664969158
 20
820.9087545021
 30
0.0
 10
107.1506959708
 20
821.0283695977
 30
0.0
 10
107.1506959708
 20
821.146106345
 30
0.0
  0
SPLINE
  5
2C2
100
AcDbEntity
  8
0
100
AcDbSpline
 62
7
  6
CONTINUOUS
 70
0
 71
3
 72
9
 73
5
 74
0
 42
0.0000001
 43
0.0000001
 44
0.0000000001
 40
0.0
 40
0.0
 40
0.0
 40
0.0
 40
0.7678321112
 40
1.0
 40
1.0
 40
1.0
 40
1.0
 10
108.7059920381
 20
398.0354835742
 30
0.0
 10
108.8109467214
 20
398.4801398838
 30
0.0
 10
109.1278028986
 20
399.035855904
 30
0.0
 10
109.5978461772
 20
399.4065830644
 30
0.0
 10
109.7174828999
 20
399.4756549461
 30
0.0
  0
SPLINE
  5
2C3
100
AcDbEntity
  8
0
100
AcDbSpline
 62
7
  6
CONTINUOUS
 70
0
 71
3
 72
8
 73
4
 74
0
 42
0.0000001
 43
0.0000001
 44
0.0000000001
 40
0.0
 40
0.0
 40
0.0
 40
0.0
 40
1.0
 40
1.0
 40
1.0
 40
1.0
 10
107.1506959708
 20
391.2575837262
 30
0.0
 10
107.1506959708
 20
391.3952003153
 30
0.0
 10
107.1712202377
 20
391.533191884
 30
0.0
 10
107.2028339332
 20
391.6671280622
 30
0.0
  0
SPLINE
  5
2C4
100
AcDbEntity
  8
0
100
AcDbSpline
 62
7
  6
CONTINUOUS
 70
0
 71
3
 72
8
 73
4
 74
0
 42
0.0000001
 43
0.0000001
 44
0.0000000001
 40
0.0
 40
0.0
 40
0.0
 40
0.0
 40
1.0
 40
1.0
 40
1.0
 40
1.0
 10
107.2028339332
 20
371.7204359616
 30
0.0
 10
107.1664969158
 20
371.8324250808
 30
0.0
 10
107.1506959708
 20
371.9520401764
 30
0.0
 10
107.1506959708
 20
372.0697769237
 30
0.0
  0
SPLINE
  5
2C5
100
AcDbEntity
  8
0
100
AcDbSpline
 62
7
  6
CONTINUOUS
 70
0
 71
3
 72
9
 73
5
 74
0
 42
0.0000001
 43
0.0000001
 44
0.0000000001
 40
0.0
 40
0.0
 40
0.0
 40
0.0
 40
0.2303835244
 40
1.0
 40
1.0
 40
1.0
 40
1.0
 10
483.1131316487
 20
597.7610155699
 30
0.0
 10
483.2082562945
 20
597.7094647091
 30
0.0
 10
483.6394729083
 20
597.5200746322
 30
0.0
 10
484.1172069002
 20
597.4485920189
 30
0.0
 10
484.4786421614
 20
597.4482504058
 30
0.0
  0
SPLINE
  5
2C6
100
AcDbEntity
  8
0
100
AcDbSpline
 62
7
  6
CONTINUOUS
 70
0
 71
3
 72
9
 73
5
 74
0
 42
0.0000001
 43
0.0000001
 44
0.0000000001
 40
0.0
 40
0.0
 40
0.0
 40
0.0
 40
0.2655243333
 40
1.0
 40
1.0
 40
1.0
 40
1.0
 10
484.4786421614
 20
597.4482504058
 30
0.0
 10
484.6033783308
 20
597.4481325106
 30
0.0
 10
485.0719275725
 20
597.4731765864
 30
0.0
 10
485.5421142059
 20
597.5948687841
 30
0.0
 10
485.8459190743
 20
597.7584326567
 30
0.0
  0
SPLINE
  5
2C7
100
AcDbEntity
  8
0
100
AcDbSpline
 62
7
  6
CONTINUOUS
 70
0
 71
3
 72
9
 73
5
 74
0
 42
0.0000001
 43
0.0000001
 44
0.0000000001
 40
0.0
 40
0.0
 40
0.0
 40
0.0
 40
0.2303835244
 40
1.0
 40
1.0
 40
1.0
 40
1.0
 10
483.1131316487
 20
142.9691692287
 30
0.0
 10
483.2082562945
 20
142.9176183679
 30
0.0
 10
483.6394729083
 20
142.7282282911
 30
0.0
 10
484.1172069002
 20
142.6567456777
 30
0.0
 10
484.4786421614
 20
142.6564040647
 30
0.0
  0
SPLINE
  5
2C8
100
AcDbEntity
  8
0
100
AcDbSpline
 62
7
  6
CONTINUOUS
 70
0
 71
3
 72
9
 73
5
 74
0
 42
0.0000001
 43
0.0000001
 44
0.0000000001
 40
0.0
 40
0.0
 40
0.0
 40
0.0
 40
0.2655243333
 40
1.0
 40
1.0
 40
1.0
 40
1.0
 10
484.4786421614
 20
142.6564040647
 30
0.0
 10
484.6033783308
 20
142.6562861694
 30
0.0
 10
485.0719275725
 20
142.6813302452
 30
0.0
 10
485.5421142059
 20
142.8030224429
 30
0.0
 10
485.8459190743
 20
142.9665863156
 30
0.0
  0
SPLINE
  5
2C9
100
AcDbEntity
  8
0
100
AcDbSpline
 62
7
  6
CONTINUOUS
 70
0
 71
3
 72
11
 73
7
 74
0
 42
0.0000001
 43
0.0000001
 44
0.0000000001
 40
0.0
 40
0.0
 40
0.0
 40
0.0
 40
0.073562974
 40
0.278627195
 40
0.5912861573
 40
1.0
 40
1.0
 40
1.0
 40
1.0
 10
108.9499892665
 20
313.3007333177
 30
0.0
 10
108.9383646743
 20
313.3118143734
 30
0.0
 10
109.0488959487
 20
313.3378890157
 30
0.0
 10
109.1107819655
 20
313.4036808155
 30
0.0
 10
109.3084885247
 20
313.5026329593
 30
0.0
 10
109.4514581909
 20
313.5847523601
 30
0.0
 10
109.4919102551
 20
313.6642844133
 30
0.0
  0
SPLINE
  5
2CA
100
AcDbEntity
  8
0
100
AcDbSpline
 62
7
  6
CONTINUOUS
 70
0
 71
3
 72
12
 73
8
 74
0
 42
0.0000001
 43
0.0000001
 44
0.0000000001
 40
0.0
 40
0.0
 40
0.0
 40
0.0
 40
0.2780888961
 40
0.5593559317
 40
0.8032781328
 40
0.9078866929
 40
1.0
 40
1.0
 40
1.0
 40
1.0
 10
485.8467144326
 20
689.3087505951
 30
0.0
 10
485.5871691628
 20
689.1679258416
 30
0.0
 10
485.0773879714
 20
688.861548512
 30
0.0
 10
484.3415091851
 20
688.4352581285
 30
0.0
 10
483.7519699467
 20
688.1058922182
 30
0.0
 10
483.3621435183
 20
687.8672854812
 30
0.0
 10
483.1575888342
 20
687.7660893509
 30
0.0
 10
483.1131316487
 20
687.6789661651
 30
0.0
  0
SPLINE
  5
2CB
100
AcDbEntity
  8
0
100
AcDbSpline
 62
7
  6
CONTINUOUS
 70
0
 71
3
 72
10
 73
6
 74
0
 42
0.0000001
 43
0.0000001
 44
0.0000000001
 40
0.0
 40
0.0
 40
0.0
 40
0.0
 40
0.253920798
 40
0.5071971682
 40
1.0
 40
1.0
 40
1.0
 40
1.0
 10
109.4919102551
 20
903.3843990027
 30
0.0
 10
109.4390356572
 20
903.5480014958
 30
0.0
 10
109.2738258677
 20
903.8521151128
 30
0.0
 10
109.0447395934
 20
904.4892804872
 30
0.0
 10
108.9493213034
 20
904.9949259601
 30
0.0
 10
108.949997222
 20
905.3286113981
 30
0.0
  0
SPLINE
  5
2CC
100
AcDbEntity
  8
0
100
AcDbSpline
 62
7
  6
CONTINUOUS
 70
0
 71
3
 72
10
 73
6
 74
0
 42
0.0000001
 43
0.0000001
 44
0.0000000001
 40
0.0
 40
0.0
 40
0.0
 40
0.0
 40
0.2526936146
 40
0.5063839046
 40
1.0
 40
1.0
 40
1.0
 40
1.0
 10
483.1131316487
 20
97.9588515757
 30
0.0
 10
483.1657227894
 20
97.7961261447
 30
0.0
 10
483.3735822688
 20
97.5120710249
 30
0.0
 10
483.797753553
 20
96.9906884923
 30
0.0
 10
484.1942955878
 20
96.6582216514
 30
0.0
 10
484.4836059807
 20
96.4912030192
 30
0.0
  0
SPLINE
  5
2CD
100
AcDbEntity
  8
0
100
AcDbSpline
 62
7
  6
CONTINUOUS
 70
0
 71
3
 72
8
 73
4
 74
0
 42
0.0000001
 43
0.0000001
 44
0.0000000001
 40
0.0
 40
0.0
 40
0.0
 40
0.0
 40
1.0
 40
1.0
 40
1.0
 40
1.0
 10
127.7979546171
 20
805.1415966112
 30
0.0
 10
127.8426152391
 20
805.0039545017
 30
0.0
 10
127.9341796872
 20
804.8675198815
 30
0.0
 10
128.0594396798
 20
804.7950639934
 30
0.0
  0
SPLINE
  5
2CE
100
AcDbEntity
  8
0
100
AcDbSpline
 62
7
  6
CONTINUOUS
 70
0
 71
3
 72
8
 73
4
 74
0
 42
0.0000001
 43
0.0000001
 44
0.0000000001
 40
0.0
 40
0.0
 40
0.0
 40
0.0
 40
1.0
 40
1.0
 40
1.0
 40
1.0
 10
126.2426585497
 20
810.1236059729
 30
0.0
 10
126.2426585497
 20
810.0058692256
 30
0.0
 10
126.2584594948
 20
809.88625413
 30
0.0
 10
126.2947965121
 20
809.7742650108
 30
0.0
  0
SPLINE
  5
2CF
100
AcDbEntity
  8
0
100
AcDbSpline
 62
7
  6
CONTINUOUS
 70
0
 71
3
 72
8
 73
4
 74
0
 42
0.0000001
 43
0.0000001
 44
0.0000000001
 40
0.0
 40
0.0
 40
0.0
 40
0.0
 40
1.0
 40
1.0
 40
1.0
 40
1.0
 10
126.2947965121
 20
829.7209571114
 30
0.0
 10
126.2631828167
 20
829.5870209332
 30
0.0
 10
126.2426585497
 20
829.4490293645
 30
0.0
 10
126.2426585497
 20
829.3114127754
 30
0.0
  0
SPLINE
  5
2D0
100
AcDbEntity
  8
0
100
AcDbSpline
 62
7
  6
CONTINUOUS
 70
0
 71
3
 72
9
 73
5
 74
0
 42
0.0000001
 43
0.0000001
 44
0.0000000001
 40
0.0
 40
0.0
 40
0.0
 40
0.0
 40
0.2321671164
 40
1.0
 40
1.0
 40
1.0
 40
1.0
 10
128.8094454788
 20
837.5294839953
 30
0.0
 10
128.6898091504
 20
837.4604123412
 30
0.0
 10
128.2197652546
 20
837.089685979
 30
0.0
 10
127.9029094093
 20
836.5339693945
 30
0.0
 10
127.7979546171
 20
836.0893126234
 30
0.0
  0
SPLINE
  5
2D1
100
AcDbEntity
  8
0
100
AcDbSpline
 62
7
  6
CONTINUOUS
 70
0
 71
3
 72
8
 73
4
 74
0
 42
0.0000001
 43
0.0000001
 44
0.0000000001
 40
0.0
 40
0.0
 40
0.0
 40
0.0
 40
1.0
 40
1.0
 40
1.0
 40
1.0
 10
127.7979546171
 20
356.0652671899
 30
0.0
 10
127.8426152391
 20
355.9276250804
 30
0.0
 10
127.9341796872
 20
355.7911904603
 30
0.0
 10
128.0594396798
 20
355.7187345721
 30
0.0
  0
SPLINE
  5
2D2
100
AcDbEntity
  8
0
100
AcDbSpline
 62
7
  6
CONTINUOUS
 70
0
 71
3
 72
8
 73
4
 74
0
 42
0.0000001
 43
0.0000001
 44
0.0000000001
 40
0.0
 40
0.0
 40
0.0
 40
0.0
 40
1.0
 40
1.0
 40
1.0
 40
1.0
 10
126.2426585497
 20
361.0472765516
 30
0.0
 10
126.2426585497
 20
360.9295398044
 30
0.0
 10
126.2584594948
 20
360.8099247088
 30
0.0
 10
126.2947965121
 20
360.6979355895
 30
0.0
  0
SPLINE
  5
2D3
100
AcDbEntity
  8
0
100
AcDbSpline
 62
7
  6
CONTINUOUS
 70
0
 71
3
 72
8
 73
4
 74
0
 42
0.0000001
 43
0.0000001
 44
0.0000000001
 40
0.0
 40
0.0
 40
0.0
 40
0.0
 40
1.0
 40
1.0
 40
1.0
 40
1.0
 10
126.2947965122
 20
380.6446276902
 30
0.0
 10
126.2631828167
 20
380.5106915119
 30
0.0
 10
126.2426585497
 20
380.3726999432
 30
0.0
 10
126.2426585497
 20
380.2350833542
 30
0.0
  0
SPLINE
  5
2D4
100
AcDbEntity
  8
0
100
AcDbSpline
 62
7
  6
CONTINUOUS
 70
0
 71
3
 72
9
 73
5
 74
0
 42
0.0000001
 43
0.0000001
 44
0.0000000001
 40
0.0
 40
0.0
 40
0.0
 40
0.0
 40
0.2321671164
 40
1.0
 40
1.0
 40
1.0
 40
1.0
 10
128.8094454788
 20
388.4531545741
 30
0.0
 10
128.6898091504
 20
388.3840829199
 30
0.0
 10
128.2197652546
 20
388.0133565578
 30
0.0
 10
127.9029094093
 20
387.4576399733
 30
0.0
 10
127.7979546171
 20
387.0129832022
 30
0.0
  0
SPLINE
  5
2D5
100
AcDbEntity
  8
0
100
AcDbSpline
 62
7
  6
CONTINUOUS
 70
0
 71
3
 72
9
 73
5
 74
0
 42
0.0000001
 43
0.0000001
 44
0.0000000001
 40
0.0
 40
0.0
 40
0.0
 40
0.0
 40
0.5020457224
 40
1.0
 40
1.0
 40
1.0
 40
1.0
 10
485.9323671921
 20
142.9238608157
 30
0.0
 10
485.5115684784
 20
142.6961826107
 30
0.0
 10
484.5352649147
 20
142.518763191
 30
0.0
 10
483.5595465224
 20
142.7124580521
 30
0.0
 10
483.1484876091
 20
142.9495733987
 30
0.0
  0
SPLINE
  5
2D6
100
AcDbEntity
  8
0
100
AcDbSpline
 62
7
  6
CONTINUOUS
 70
0
 71
3
 72
9
 73
5
 74
0
 42
0.0000001
 43
0.0000001
 44
0.0000000001
 40
0.0
 40
0.0
 40
0.0
 40
0.0
 40
0.2398795778
 40
1.0
 40
1.0
 40
1.0
 40
1.0
 10
106.613266084
 20
309.3193812628
 30
0.0
 10
106.613266084
 20
309.4337969368
 30
0.0
 10
106.6974881623
 20
309.9054309393
 30
0.0
 10
106.9965305569
 20
310.3506560494
 30
0.0
 10
107.3076420521
 20
310.5368178586
 30
0.0
  0
SPLINE
  5
2D7
100
AcDbEntity
  8
0
100
AcDbSpline
 62
7
  6
CONTINUOUS
 70
0
 71
3
 72
9
 73
5
 74
0
 42
0.0000001
 43
0.0000001
 44
0.0000000001
 40
0.0
 40
0.0
 40
0.0
 40
0.0
 40
0.2919490655
 40
1.0
 40
1.0
 40
1.0
 40
1.0
 10
507.9247226425
 20
703.4464439047
 30
0.0
 10
507.9672473656
 20
703.4695596703
 30
0.0
 10
508.1165711395
 20
703.5376337363
 30
0.0
 10
508.3080047571
 20
703.5435965499
 30
0.0
 10
508.4096644603
 20
703.4849050869
 30
0.0
  0
SPLINE
  5
2D8
100
AcDbEntity
  8
0
100
AcDbSpline
 62
7
  6
CONTINUOUS
 70
0
 71
3
 72
9
 73
5
 74
0
 42
0.0000001
 43
0.0000001
 44
0.0000000001
 40
0.0
 40
0.0
 40
0.0
 40
0.0
 40
0.7061252504
 40
1.0
 40
1.0
 40
1.0
 40
1.0
 10
106.8145067737
 20
910.6022998399
 30
0.0
 10
106.7126392936
 20
910.6611109466
 30
0.0
 10
106.6247993924
 20
910.8340335018
 30
0.0
 10
106.613266084
 20
910.9983032959
 30
0.0
 10
106.613266084
 20
911.04725655
 30
0.0
  0
SPLINE
  5
2D9
100
AcDbEntity
  8
0
100
AcDbSpline
 62
7
  6
CONTINUOUS
 70
0
 71
3
 72
9
 73
5
 74
0
 42
0.0000001
 43
0.0000001
 44
0.0000000001
 40
0.0
 40
0.0
 40
0.0
 40
0.0
 40
0.7053997925
 40
1.0
 40
1.0
 40
1.0
 40
1.0
 10
486.1930165508
 20
691.5729702047
 30
0.0
 10
486.2963876137
 20
691.5132908928
 30
0.0
 10
486.4935801081
 20
691.5254098535
 30
0.0
 10
486.6432042438
 20
691.6000257081
 30
0.0
 10
486.686151788
 20
691.6253338043
 30
0.0
  0
SPLINE
  5
2DA
100
AcDbEntity
  8
0
100
AcDbSpline
 62
7
  6
CONTINUOUS
 70
0
 71
3
 72
9
 73
5
 74
0
 42
0.0000001
 43
0.0000001
 44
0.0000000001
 40
0.0
 40
0.0
 40
0.0
 40
0.0
 40
0.5020457224
 40
1.0
 40
1.0
 40
1.0
 40
1.0
 10
485.9323671921
 20
597.7157071569
 30
0.0
 10
485.5115684784
 20
597.4880289518
 30
0.0
 10
484.5352649147
 20
597.3106095322
 30
0.0
 10
483.5595465224
 20
597.5043043933
 30
0.0
 10
483.1484876091
 20
597.7414197399
 30
0.0
  0
SPLINE
  5
2DB
100
AcDbEntity
  8
0
100
AcDbSpline
 62
7
  6
CONTINUOUS
 70
0
 71
3
 72
9
 73
5
 74
0
 42
0.0000001
 43
0.0000001
 44
0.0000000001
 40
0.0
 40
0.0
 40
0.0
 40
0.0
 40
0.2938761608
 40
1.0
 40
1.0
 40
1.0
 40
1.0
 10
485.9917758198
 20
692.0179268939
 30
0.0
 10
485.9917758198
 20
691.9689733796
 30
0.0
 10
486.0033081292
 20
691.8047033306
 30
0.0
 10
486.0911492828
 20
691.6317813294
 30
0.0
 10
486.1930165508
 20
691.5729702047
 30
0.0
  0
SPLINE
  5
2DC
100
AcDbEntity
  8
0
100
AcDbSpline
 62
7
  6
CONTINUOUS
 70
0
 71
3
 72
9
 73
5
 74
0
 42
0.0000001
 43
0.0000001
 44
0.0000000001
 40
0.0
 40
0.0
 40
0.0
 40
0.0
 40
0.7601185814
 40
1.0
 40
1.0
 40
1.0
 40
1.0
 10
486.686151788
 20
91.5074882434
 30
0.0
 10
486.375041077
 20
91.3213269035
 30
0.0
 10
486.0760000482
 20
90.8761018279
 30
0.0
 10
485.9917758198
 20
90.4044681882
 30
0.0
 10
485.9917758198
 20
90.2900516476
 30
0.0
  0
SPLINE
  5
2DD
100
AcDbEntity
  8
0
100
AcDbSpline
 62
7
  6
CONTINUOUS
 70
0
 71
3
 72
9
 73
5
 74
0
 42
0.0000001
 43
0.0000001
 44
0.0000000001
 40
0.0
 40
0.0
 40
0.0
 40
0.0
 40
0.239965653
 40
1.0
 40
1.0
 40
1.0
 40
1.0
 10
508.6190986107
 20
105.4141348881
 30
0.0
 10
508.6191739225
 20
105.2996005617
 30
0.0
 10
508.5346093159
 20
104.8276845776
 30
0.0
 10
508.2350453745
 20
104.3820537747
 30
0.0
 10
507.9233084348
 20
104.1965404273
 30
0.0
  0
SPLINE
  5
2DE
100
AcDbEntity
  8
0
100
AcDbSpline
 62
7
  6
CONTINUOUS
 70
0
 71
3
 72
9
 73
5
 74
0
 42
0.0000001
 43
0.0000001
 44
0.0000000001
 40
0.0
 40
0.0
 40
0.0
 40
0.0
 40
0.2289233897
 40
1.0
 40
1.0
 40
1.0
 40
1.0
 10
483.1484876091
 20
642.649052682
 30
0.0
 10
483.2431681689
 20
642.5944371196
 30
0.0
 10
483.677430086
 20
642.3922663269
 30
0.0
 10
484.1632693244
 20
642.3144562018
 30
0.0
 10
484.5314179149
 20
642.3110558926
 30
0.0
  0
SPLINE
  5
2DF
100
AcDbEntity
  8
0
100
AcDbSpline
 62
7
  6
CONTINUOUS
 70
0
 71
3
 72
9
 73
5
 74
0
 42
0.0000001
 43
0.0000001
 44
0.0000000001
 40
0.0
 40
0.0
 40
0.0
 40
0.0
 40
0.2655274953
 40
1.0
 40
1.0
 40
1.0
 40
1.0
 10
484.5314179149
 20
642.3110558926
 30
0.0
 10
484.6591404525
 20
642.3098762165
 30
0.0
 10
485.1390585362
 20
642.3321491416
 30
0.0
 10
485.6216286321
 20
642.4552112638
 30
0.0
 10
485.9323671921
 20
642.6233400991
 30
0.0
  0
SPLINE
  5
2E0
100
AcDbEntity
  8
0
100
AcDbSpline
 62
7
  6
CONTINUOUS
 70
0
 71
3
 72
9
 73
5
 74
0
 42
0.0000001
 43
0.0000001
 44
0.0000000001
 40
0.0
 40
0.0
 40
0.0
 40
0.0
 40
0.2948643596
 40
1.0
 40
1.0
 40
1.0
 40
1.0
 10
505.5896384538
 20
654.0755286126
 30
0.0
 10
505.4583364037
 20
654.1513414533
 30
0.0
 10
505.0362727076
 20
654.4347235135
 30
0.0
 10
504.7107368943
 20
654.9374630483
 30
0.0
 10
504.7111371296
 20
655.3000389768
 30
0.0
  0
SPLINE
  5
2E1
100
AcDbEntity
  8
0
100
AcDbSpline
 62
7
  6
CONTINUOUS
 70
0
 71
3
 72
9
 73
5
 74
0
 42
0.0000001
 43
0.0000001
 44
0.0000000001
 40
0.0
 40
0.0
 40
0.0
 40
0.0
 40
0.7067401788
 40
1.0
 40
1.0
 40
1.0
 40
1.0
 10
508.4096644603
 20
703.4849050869
 30
0.0
 10
508.5140290062
 20
703.42465203
 30
0.0
 10
508.6052229473
 20
703.2489606043
 30
0.0
 10
508.6186166601
 20
703.0808397386
 30
0.0
 10
508.6190986107
 20
703.0308372467
 30
0.0
  0
SPLINE
  5
2E2
100
AcDbEntity
  8
0
100
AcDbSpline
 62
7
  6
CONTINUOUS
 70
0
 71
3
 72
9
 73
5
 74
0
 42
0.0000001
 43
0.0000001
 44
0.0000000001
 40
0.0
 40
0.0
 40
0.0
 40
0.0
 40
0.7288976532
 40
1.0
 40
1.0
 40
1.0
 40
1.0
 10
504.7078371436
 20
105.8238365055
 30
0.0
 10
504.7104133844
 20
105.6045552933
 30
0.0
 10
504.8178796077
 20
105.3004440172
 30
0.0
 10
505.0039944263
 20
105.0644485899
 30
0.0
 10
505.0587927391
 20
105.0040348592
 30
0.0
  0
SPLINE
  5
2E3
100
AcDbEntity
  8
0
100
AcDbSpline
 62
7
  6
CONTINUOUS
 70
0
 71
3
 72
8
 73
4
 74
0
 42
0.0000001
 43
0.0000001
 44
0.0000000001
 40
0.0
 40
0.0
 40
0.0
 40
0.0
 40
1.0
 40
1.0
 40
1.0
 40
1.0
 10
505.0587927391
 20
105.0040348592
 30
0.0
 10
505.2100186132
 20
104.8373122221
 30
0.0
 10
505.3948099299
 20
104.6993502589
 30
0.0
 10
505.5897403022
 20
104.5867987032
 30
0.0
  0
SPLINE
  5
2E4
100
AcDbEntity
  8
0
100
AcDbSpline
 62
7
  6
CONTINUOUS
 70
0
 71
3
 72
9
 73
5
 74
0
 42
0.0000001
 43
0.0000001
 44
0.0000000001
 40
0.0
 40
0.0
 40
0.0
 40
0.0
 40
0.2408399159
 40
1.0
 40
1.0
 40
1.0
 40
1.0
 10
507.8114079108
 20
104.2611447635
 30
0.0
 10
507.9097094066
 20
104.3206473952
 30
0.0
 10
508.2701454362
 20
104.6359438001
 30
0.0
 10
508.5014262104
 20
105.1200031201
 30
0.0
 10
508.5011900996
 20
105.4822072577
 30
0.0
  0
SPLINE
  5
2E5
100
AcDbEntity
  8
0
100
AcDbSpline
 62
7
  6
CONTINUOUS
 70
0
 71
3
 72
9
 73
5
 74
0
 42
0.0000001
 43
0.0000001
 44
0.0000000001
 40
0.0
 40
0.0
 40
0.0
 40
0.0
 40
0.2948643596
 40
1.0
 40
1.0
 40
1.0
 40
1.0
 10
505.5896384538
 20
199.2836822715
 30
0.0
 10
505.4583364037
 20
199.3594951121
 30
0.0
 10
505.0362727076
 20
199.6428771723
 30
0.0
 10
504.7107368943
 20
200.1456167071
 30
0.0
 10
504.7111371296
 20
200.5081926356
 30
0.0
  0
SPLINE
  5
2E6
100
AcDbEntity
  8
0
100
AcDbSpline
 62
7
  6
CONTINUOUS
 70
0
 71
3
 72
9
 73
5
 74
0
 42
0.0000001
 43
0.0000001
 44
0.0000000001
 40
0.0
 40
0.0
 40
0.0
 40
0.0
 40
0.2289233897
 40
1.0
 40
1.0
 40
1.0
 40
1.0
 10
483.1484876091
 20
187.8572063409
 30
0.0
 10
483.2431681689
 20
187.8025907784
 30
0.0
 10
483.677430086
 20
187.6004199858
 30
0.0
 10
484.1632693244
 20
187.5226098606
 30
0.0
 10
484.5314179149
 20
187.5192095515
 30
0.0
  0
SPLINE
  5
2E7
100
AcDbEntity
  8
0
100
AcDbSpline
 62
7
  6
CONTINUOUS
 70
0
 71
3
 72
9
 73
5
 74
0
 42
0.0000001
 43
0.0000001
 44
0.0000000001
 40
0.0
 40
0.0
 40
0.0
 40
0.0
 40
0.2655274953
 40
1.0
 40
1.0
 40
1.0
 40
1.0
 10
484.5314179149
 20
187.5192095515
 30
0.0
 10
484.6591404525
 20
187.5180298753
 30
0.0
 10
485.1390585362
 20
187.5403028005
 30
0.0
 10
485.6216286321
 20
187.6633649227
 30
0.0
 10
485.9323671921
 20
187.8314937579
 30
0.0
  0
ELLIPSE
  5
2E8
100
AcDbEntity
  8
0
100
AcDbEllipse
 62
7
  6
CONTINUOUS
 10
507.792083937
 20
702.6732366578
 30
0.0
 11
0.4993058721
 21
0.8798427887
 31
0.0
 40
0.5723456287
 41
5.5045988248
 42
6.2789428448
  0
ENDSEC
  0
SECTION
  2
OBJECTS
  0
DICTIONARY
  5
C
100
AcDbDictionary
280
0
281
1
  3
ACAD_GROUP
350
D
  3
ACAD_MLINESTYLE
350
17
  3
ACAD_LAYOUT
350
1A
  3
ACAD_PLOTSETTINGS
350
19
  3
ACAD_PLOTSTYLENAME
350
E
  0
DICTIONARY
  5
D
102
{ACAD_REACTORS
330
C
102
}
100
AcDbDictionary
280
0
281
1
  0
ACDBDICTIONARYWDFLT
  5
E
102
{ACAD_REACTORS
330
C
102
}
100
AcDbDictionary
281
1
  3
Normal
350
F
100
AcDbDictionaryWithDefault
340
F
  0
DICTIONARY
  5
17
102
{ACAD_REACTORS
330
C
102
}
100
AcDbDictionary
280
0
281
1
  3
Standard
350
18
  0
DICTIONARY
  5
19
102
{ACAD_REACTORS
330
C
102
}
100
AcDbDictionary
281
1
  0
DICTIONARY
  5
1A
102
{ACAD_REACTORS
330
C
102
}
100
AcDbDictionary
281
1
  3
Model
350
2E9
  3
Layout1
350
2EA
  0
ACDBPLACEHOLDER
  5
F
102
{ACAD_REACTORS
330
E
102
}
  0
MLINESTYLE
  5
18
102
{ACAD_REACTORS
330
17
102
}
100
AcDbMlineStyle
  2
STANDARD
 70
0
  3

 62
256
 51
90.0
 52
90.0
 71
2
 49
0.5
 62
256
  6
BYLAYER
 49
-0.5
 62
256
  6
BYLAYER
  0
LAYOUT
  5
2E9
102
{ACAD_REACTORS
330
1A
102
}
100
AcDbPlotSettings
  1

  2
none_device
  4

  6

 40
0.0
 41
0.0
 42
0.0
 43
0.0
 44
210.0
 45
297.0
 46
0.0
 47
0.0
 48
0.0
 49
0.0
140
0.0
141
0.0
142
1.0
143
1.0
 70
1024
 72
1
 73
0
 74
0
  7

 75
0
147
1.0
148
0.0
149
0.0
100
AcDbLayout
  1
Model
 70
0
 71
0
 10
0.0
 20
0.0
 11
210.0
 21
297.0
 12
0.0
 22
0.0
 32
0.0
 14
0.0
 24
0.0
 34
0.0
 15
0.0
 25
0.0
 35
0.0
146
0.0
 13
0.0
 23
0.0
 33
0.0
 16
1.0
 26
0.0
 36
0.0
 17
0.0
 27
1.0
 37
0.0
 76
0
330
210
345
0
346
0
  0
LAYOUT
  5
2EA
102
{ACAD_REACTORS
330
1A
102
}
100
AcDbPlotSettings
  1

  2
none_device
  4

  6

 40
0.0
 41
0.0
 42
0.0
 43
0.0
 44
210.0
 45
297.0
 46
0.0
 47
0.0
 48
0.0
 49
0.0
140
0.0
141
0.0
142
1.0
143
1.0
 70
0
 72
1
 73
0
 74
0
  7

 75
0
147
1.0
148
0.0
149
0.0
100
AcDbLayout
  1
Layout1
 70
0
 71
1
 10
0.0
 20
0.0
 11
210.0
 21
297.0
 12
0.0
 22
0.0
 32
0.0
 14
0.0
 24
0.0
 34
0.0
 15
0.0
 25
0.0
 35
0.0
146
0.0
 13
0.0
 23
0.0
 33
0.0
 16
1.0
 26
0.0
 36
0.0
 17
0.0
 27
1.0
 37
0.0
 76
0
330
211
345
0
346
0
  0
ENDSEC
  0
EOF
