999
DXF file: C:\Users\sesa63760\Dev\_Creo\CAD\MCADID0002111_3D-CAD\drw0001_6.dxf
999
Pro/ENGINEER 2019471 by Parametric Technology Corporation
  0
SECTION
  2
HEADER
  9
$ACADVER
  1
AC1024
  9
$DWGCODEPAGE
  3
ANSI_1252
  9
$EXTMAX
 10
94.6652943974
 20
133.8837735049
 30
0.0
  9
$EXTMIN
 10
0.0
 20
0.0
 30
0.0
  9
$LIMMIN
 10
0.0
 20
0.0
  9
$LIMMAX
 10
94.6652943974
 20
133.8837735049
  9
$VIEWCTR
 10
47.3326471987
 20
66.9418867525
  9
$VIEWSIZE
 40
133.8837735049
  9
$CLAYER
  8
0
  9
$LTSCALE
 40
8.7272385692
  9
$CELTYPE
  6
BYLAYER
  9
$DIMSCALE
 40
1.0
  9
$DIMASZ
 40
1.1269677904
  9
$DIMEXO
 40
1.0
  9
$DIMDLI
 40
6.029728466
  9
$DIMEXE
 40
1.0
  9
$DIMCEN
 40
1.4280935841
  9
$DIMLFAC
 40
1.0
  9
$DIMBLK
  1
_FILLED
  9
$DIMALT
 70
0
  9
$DIMALTF
 40
0.0393700787
  9
$DIMTXT
 40
1.5777549066
  9
$DIMTOL
 70
1
  9
$DIMLIM
 70
0
  9
$DIMTFAC
 40
1.0
  9
$DIMTP
 40
0.01
  9
$DIMTM
 40
0.01
  9
$DIMGAP
 40
0.625
  9
$DIMDSEP
 70
46
  9
$AUNITS
 70
0
  9
$PDMODE
 70
3
  9
$PDSIZE
 40
0.3125
  9
$HANDSEED
  5
352
  9
$TILEMODE
 70
1
  9
$MEASUREMENT
 70
1
  9
$INSUNITS
 70
4
  0
ENDSEC
  0
SECTION
  2
CLASSES
  0
CLASS
  1
ACDBDICTIONARYWDFLT
  2
AcDbDictionaryWithDefault
  3
AutoCAD 2000
 90
0
 91
1
280
0
281
0
  0
CLASS
  1
ACDBPLACEHOLDER
  2
AcDbPlaceHolder
  3
AutoCAD 2000
 90
0
 91
1
280
0
281
0
  0
CLASS
  1
LAYOUT
  2
AcDbLayout
  3
AutoCAD 2000
 90
0
 91
0
280
0
281
0
  0
ENDSEC
  0
SECTION
  2
TABLES
  0
TABLE
  2
VPORT
  5
8
100
AcDbSymbolTable
 70
2
  0
VPORT
  5
1F4
100
AcDbSymbolTableRecord
100
AcDbViewportTableRecord
  2
*ACTIVE
 70
0
 10
0.0
 20
0.0
 11
1.0
 21
1.0
 12
47.3326471987
 22
66.9418867525
 13
0.0
 23
0.0
 14
1.0
 24
1.0
 15
0.0
 25
0.0
 16
0.0
 26
0.0
 36
1.0
 17
0.0
 27
0.0
 37
0.0
 40
133.8837735049
 41
0.7070707071
 42
50.0
 43
0.0
 44
0.0
 50
0.0
 51
0.0
 71
0
 72
100
 73
1
 74
1
 75
0
 76
0
 77
0
 78
0
  0
ENDTAB
  0
TABLE
  2
LTYPE
  5
5
100
AcDbSymbolTable
 70
6
  0
LTYPE
  5
14
100
AcDbSymbolTableRecord
100
AcDbLinetypeTableRecord
  2
BYBLOCK
 70
0
  3

 72
65
 73
0
 40
0.0
  0
LTYPE
  5
15
100
AcDbSymbolTableRecord
100
AcDbLinetypeTableRecord
  2
BYLAYER
 70
0
  3

 72
65
 73
0
 40
0.0
  0
LTYPE
  5
16
100
AcDbSymbolTableRecord
100
AcDbLinetypeTableRecord
  2
CONTINUOUS
 70
64
  3
Solid line
 72
65
 73
0
 40
0.0
  0
LTYPE
  5
1F5
100
AcDbSymbolTableRecord
100
AcDbLinetypeTableRecord
  2
CENTER
 70
64
  3
____ _ ____ _ ____ _ ____ _ ____ _ ____ _ ____
 72
65
 73
4
 40
0.6
 49
0.375
 74
0
 49
-0.075
 74
0
 49
0.075
 74
0
 49
-0.075
 74
0
  0
LTYPE
  5
1F6
100
AcDbSymbolTableRecord
100
AcDbLinetypeTableRecord
  2
HIDDEN
 70
64
  3
- - - - - - - - - - - - - - - - - - - -
 72
65
 73
2
 40
0.2
 49
0.1
 74
0
 49
-0.1
 74
0
  0
LTYPE
  5
1F7
100
AcDbSymbolTableRecord
100
AcDbLinetypeTableRecord
  2
PHANTOM
 70
64
  3
_____ _ _ _____ _ _ _____ _ _ _____
 72
65
 73
6
 40
0.8
 49
0.45
 74
0
 49
-0.05
 74
0
 49
0.1
 74
0
 49
-0.05
 74
0
 49
0.1
 74
0
 49
-0.05
 74
0
  0
LTYPE
  5
1F8
100
AcDbSymbolTableRecord
100
AcDbLinetypeTableRecord
  2
DOT
 70
64
  3
. . . . . . . . . . . . . . . . . . . .
 72
65
 73
2
 40
0.2
 49
0.1
 74
0
 49
-0.1
 74
0
  0
LTYPE
  5
1F9
100
AcDbSymbolTableRecord
100
AcDbLinetypeTableRecord
  2
DASHED
 70
64
  3
- - - - - - - - - - - - - - - - - - - -
 72
65
 73
2
 40
0.2
 49
0.1
 74
0
 49
-0.1
 74
0
  0
ENDTAB
  0
TABLE
  2
LAYER
  5
2
100
AcDbSymbolTable
 70
36
  0
LAYER
  5
10
100
AcDbSymbolTableRecord
100
AcDbLayerTableRecord
  2
0
 70
0
 62
7
  6
CONTINUOUS
370
-3
390
F
  0
LAYER
  5
1FA
100
AcDbSymbolTableRecord
100
AcDbLayerTableRecord
  2
DEFAULT_1
 70
0
 62
7
  6
CENTER
370
-3
390
F
  0
LAYER
  5
1FB
100
AcDbSymbolTableRecord
100
AcDbLayerTableRecord
  2
DEFAULT_2
 70
0
 62
8
  6
HIDDEN
370
-3
390
F
  0
LAYER
  5
1FC
100
AcDbSymbolTableRecord
100
AcDbLayerTableRecord
  2
DEFAULT_3
 70
0
 62
7
  6
PHANTOM
370
-3
390
F
  0
LAYER
  5
1FD
100
AcDbSymbolTableRecord
100
AcDbLayerTableRecord
  2
00_COMPONENTS
 70
0
 62
7
  6
CONTINUOUS
370
-3
390
F
  0
LAYER
  5
1FE
100
AcDbSymbolTableRecord
100
AcDbLayerTableRecord
  2
01_1_DEFAULT_DATUMS
 70
0
 62
7
  6
CONTINUOUS
370
-3
390
F
  0
LAYER
  5
1FF
100
AcDbSymbolTableRecord
100
AcDbLayerTableRecord
  2
01_PLANES
 70
0
 62
7
  6
CONTINUOUS
370
-3
390
F
  0
LAYER
  5
200
100
AcDbSymbolTableRecord
100
AcDbLayerTableRecord
  2
02_COORD_SYS
 70
0
 62
7
  6
CONTINUOUS
370
-3
390
F
  0
LAYER
  5
201
100
AcDbSymbolTableRecord
100
AcDbLayerTableRecord
  2
03_AXES
 70
0
 62
7
  6
CONTINUOUS
370
-3
390
F
  0
LAYER
  5
202
100
AcDbSymbolTableRecord
100
AcDbLayerTableRecord
  2
04_POINTS
 70
0
 62
7
  6
CONTINUOUS
370
-3
390
F
  0
LAYER
  5
203
100
AcDbSymbolTableRecord
100
AcDbLayerTableRecord
  2
05_CURVES
 70
0
 62
7
  6
CONTINUOUS
370
-3
390
F
  0
LAYER
  5
204
100
AcDbSymbolTableRecord
100
AcDbLayerTableRecord
  2
06_SURFS
 70
0
 62
7
  6
CONTINUOUS
370
-3
390
F
  0
LAYER
  5
205
100
AcDbSymbolTableRecord
100
AcDbLayerTableRecord
  2
07_COSMETICS
 70
0
 62
7
  6
CONTINUOUS
370
-3
390
F
  0
LAYER
  5
206
100
AcDbSymbolTableRecord
100
AcDbLayerTableRecord
  2
10_NOTES
 70
0
 62
7
  6
CONTINUOUS
370
-3
390
F
  0
LAYER
  5
207
100
AcDbSymbolTableRecord
100
AcDbLayerTableRecord
  2
11_NOTES_PUB
 70
0
 62
7
  6
CONTINUOUS
370
-3
390
F
  0
LAYER
  5
208
100
AcDbSymbolTableRecord
100
AcDbLayerTableRecord
  2
13_REF_GTOL
 70
0
 62
7
  6
CONTINUOUS
370
-3
390
F
  0
LAYER
  5
209
100
AcDbSymbolTableRecord
100
AcDbLayerTableRecord
  2
16_MISC
 70
0
 62
7
  6
CONTINUOUS
370
-3
390
F
  0
LAYER
  5
20A
100
AcDbSymbolTableRecord
100
AcDbLayerTableRecord
  2
17_NO_PRINT
 70
0
 62
7
  6
CONTINUOUS
370
-3
390
F
  0
LAYER
  5
20B
100
AcDbSymbolTableRecord
100
AcDbLayerTableRecord
  2
18_DATUM_CAMS_JOINTS
 70
0
 62
7
  6
CONTINUOUS
370
-3
390
F
  0
LAYER
  5
20C
100
AcDbSymbolTableRecord
100
AcDbLayerTableRecord
  2
19_DATUM_FUNCTIONAL
 70
0
 62
7
  6
CONTINUOUS
370
-3
390
F
  0
LAYER
  5
20D
100
AcDbSymbolTableRecord
100
AcDbLayerTableRecord
  2
20_DATUM_KINEMATIC_SCHEME
 70
0
 62
7
  6
CONTINUOUS
370
-3
390
F
  0
ENDTAB
  0
TABLE
  2
STYLE
  5
3
100
AcDbSymbolTable
 70
1
  0
STYLE
  5
11
100
AcDbSymbolTableRecord
100
AcDbTextStyleTableRecord
  2
STANDARD
 70
0
 40
0.0
 41
0.8
 50
0.0
 71
0
 42
0.2
  3
txt
  4

  0
STYLE
  5
20E
100
AcDbSymbolTableRecord
100
AcDbTextStyleTableRecord
  2
TEXTSTYLE_1
 70
0
 40
0.0
 41
0.8
 50
0.0
 71
0
 42
0.2
  3
gdt
  4

  0
ENDTAB
  0
TABLE
  2
VIEW
  5
6
100
AcDbSymbolTable
 70
0
  0
ENDTAB
  0
TABLE
  2
UCS
  5
7
100
AcDbSymbolTable
 70
0
  0
ENDTAB
  0
TABLE
  2
APPID
  5
9
100
AcDbSymbolTable
 70
1
  0
APPID
  5
20F
100
AcDbSymbolTableRecord
100
AcDbRegAppTableRecord
  2
ACAD
 70
0
  0
ENDTAB
  0
TABLE
  2
BLOCK_RECORD
  5
1
100
AcDbSymbolTable
 70
0
  0
BLOCK_RECORD
  5
210
100
AcDbSymbolTableRecord
100
AcDbBlockTableRecord
  2
*Model_Space
  0
BLOCK_RECORD
  5
211
100
AcDbSymbolTableRecord
100
AcDbBlockTableRecord
  2
*Paper_Space
  0
BLOCK_RECORD
  5
212
100
AcDbSymbolTableRecord
100
AcDbBlockTableRecord
  2
_FILLED
  0
ENDTAB
  0
TABLE
  2
DIMSTYLE
  5
A
100
AcDbSymbolTable
 70
1
100
AcDbDimStyleTable
 71
0
  0
DIMSTYLE
105
213
100
AcDbSymbolTableRecord
100
AcDbDimStyleTableRecord
  2
STANDARD
 70
0
  3

  4

 40
1.0
 41
1.1269677904
 42
1.0
 43
0.38
 44
1.0
 45
0.0
 46
0.0
 47
0.01
 48
0.01
140
1.5777549066
141
0.09
142
0.0
143
25.4
144
1.0
145
0.0
146
1.0
147
0.625
 71
1
 72
0
 73
0
 74
0
 75
0
 76
0
 77
1
 78
8
 79
2
170
0
171
1
172
0
173
0
174
0
175
0
176
0
177
0
178
0
270
2
179
2
271
2
272
2
273
2
274
2
275
0
280
0
281
0
282
0
283
1
284
8
285
0
286
0
287
3
288
0
340
11
278
46
341
212
342
212
343
212
344
212
  0
ENDTAB
  0
ENDSEC
  0
SECTION
  2
BLOCKS
  0
BLOCK
  5
20
100
AcDbEntity
  8
0
100
AcDbBlockBegin
  2
*Model_Space
 70
0
 10
0.0
 20
0.0
 30
0.0
  3
*Model_Space
  1

  0
ENDBLK
  5
21
100
AcDbEntity
  8
0
100
AcDbBlockEnd
  0
BLOCK
  5
1C
100
AcDbEntity
  8
0
100
AcDbBlockBegin
  2
*Paper_Space
 70
0
 10
0.0
 20
0.0
 30
0.0
  3
*Paper_Space
  1

  0
ENDBLK
  5
1D
100
AcDbEntity
  8
0
100
AcDbBlockEnd
  0
BLOCK
  5
214
100
AcDbEntity
  8
0
100
AcDbBlockBegin
  2
_FILLED
 70
64
 10
0.0
 20
0.0
  3
_FILLED
  1

  0
SOLID
  5
215
100
AcDbEntity
  8
0
  6
BYBLOCK
 62
0
100
AcDbTrace
 10
0.0
 20
0.0
 11
-1.0
 21
0.25
 12
-1.0
 22
-0.25
 13
-1.0
 23
-0.25
  0
ENDBLK
  5
216
100
AcDbEntity
  8
0
  6
BYBLOCK
 62
0
100
AcDbBlockEnd
  0
ENDSEC
  0
SECTION
  2
ENTITIES
  0
LINE
  5
217
100
AcDbEntity
  8
0
100
AcDbLine
 62
7
  6
CONTINUOUS
 10
10.7071595875
 20
60.9918894283
 11
10.7071595875
 21
72.4918840766
  0
LINE
  5
218
100
AcDbEntity
  8
0
100
AcDbLine
 62
7
  6
CONTINUOUS
 10
11.1071595875
 20
60.5918867525
 11
11.1071595875
 21
72.8918867525
  0
LINE
  5
219
100
AcDbEntity
  8
0
100
AcDbLine
 62
7
  6
CONTINUOUS
 10
11.4571595875
 20
60.244555821
 11
11.4571595875
 21
73.239217684
  0
LINE
  5
21A
100
AcDbEntity
  8
0
100
AcDbLine
 62
7
  6
CONTINUOUS
 10
48.3571595875
 20
43.8418867525
 11
42.3571595875
 21
43.8418867525
  0
LINE
  5
21B
100
AcDbEntity
  8
0
100
AcDbLine
 62
7
  6
CONTINUOUS
 10
26.4571595877
 20
57.5418980453
 11
26.4571595877
 21
75.9317917214
  0
LINE
  5
21C
100
AcDbEntity
  8
0
100
AcDbLine
 62
7
  6
CONTINUOUS
 10
26.8571595877
 20
54.7418867525
 11
26.8571595877
 21
78.7418867525
  0
LINE
  5
21D
100
AcDbEntity
  8
0
100
AcDbLine
 62
7
  6
CONTINUOUS
 10
27.3571595875
 20
52.4918881612
 11
27.3571595875
 21
80.9918853438
  0
LINE
  5
21E
100
AcDbEntity
  8
0
100
AcDbLine
 62
7
  6
CONTINUOUS
 10
26.8571595877
 20
78.7418867525
 11
26.4571595877
 21
75.9418867524
  0
LINE
  5
21F
100
AcDbEntity
  8
0
100
AcDbLine
 62
7
  6
CONTINUOUS
 10
48.7571595875
 20
46.7418867525
 11
50.2571595875
 21
46.7418867525
  0
LINE
  5
220
100
AcDbEntity
  8
0
100
AcDbLine
 62
7
  6
CONTINUOUS
 10
26.8571595877
 20
54.7418867525
 11
26.4571595877
 21
57.5418867525
  0
LINE
  5
221
100
AcDbEntity
  8
0
100
AcDbLine
 62
7
  6
CONTINUOUS
 10
44.7246278124
 20
84.3418856898
 11
45.522189023
 21
84.6321812235
  0
LINE
  5
222
100
AcDbEntity
  8
0
100
AcDbLine
 62
7
  6
CONTINUOUS
 10
50.2571595875
 20
47.2418867525
 11
48.7571595875
 21
47.2418867525
  0
LINE
  5
223
100
AcDbEntity
  8
0
100
AcDbLine
 62
7
  6
CONTINUOUS
 10
48.7571595875
 20
47.9418867525
 11
50.2571595875
 21
47.9418867525
  0
LINE
  5
224
100
AcDbEntity
  8
0
100
AcDbLine
 62
7
  6
CONTINUOUS
 10
48.3571595875
 20
48.2418867525
 11
48.7571595875
 21
48.2418867525
  0
LINE
  5
225
100
AcDbEntity
  8
0
100
AcDbLine
 62
7
  6
CONTINUOUS
 10
50.2571595875
 20
48.2418867525
 11
55.1571595875
 21
48.2418867525
  0
LINE
  5
226
100
AcDbEntity
  8
0
100
AcDbLine
 62
7
  6
CONTINUOUS
 10
50.2571595875
 20
48.4418867525
 11
48.7571595875
 21
48.4418867525
  0
LINE
  5
227
100
AcDbEntity
  8
0
100
AcDbLine
 62
7
  6
CONTINUOUS
 10
50.2571595875
 20
48.7046763321
 11
48.7571595875
 21
48.7046763321
  0
LINE
  5
228
100
AcDbEntity
  8
0
100
AcDbLine
 62
7
  6
CONTINUOUS
 10
54.1571595875
 20
48.7418867525
 11
50.2571595875
 21
48.7418867525
  0
LINE
  5
229
100
AcDbEntity
  8
0
100
AcDbLine
 62
7
  6
CONTINUOUS
 10
48.7571595875
 20
48.7418867525
 11
48.3571595875
 21
48.7418867525
  0
LINE
  5
22A
100
AcDbEntity
  8
0
100
AcDbLine
 62
7
  6
CONTINUOUS
 10
48.3571595875
 20
49.6918867525
 11
48.7571595875
 21
49.6918867525
  0
LINE
  5
22B
100
AcDbEntity
  8
0
100
AcDbLine
 62
7
  6
CONTINUOUS
 10
50.2571595875
 20
49.6918867525
 11
54.1571595875
 21
49.6918867525
  0
LINE
  5
22C
100
AcDbEntity
  8
0
100
AcDbLine
 62
7
  6
CONTINUOUS
 10
36.7571595865
 20
81.1793493436
 11
37.353307695
 21
82.8172528103
  0
LINE
  5
22D
100
AcDbEntity
  8
0
100
AcDbLine
 62
7
  6
CONTINUOUS
 10
53.6590710148
 20
87.1027686387
 11
51.8571575175
 21
86.3918859358
  0
LINE
  5
22E
100
AcDbEntity
  8
0
100
AcDbLine
 62
7
  6
CONTINUOUS
 10
45.5511215388
 20
82.1419000353
 11
44.5153886155
 21
81.7649149992
  0
LINE
  5
22F
100
AcDbEntity
  8
0
100
AcDbLine
 62
7
  6
CONTINUOUS
 10
54.1571595875
 20
49.97393756
 11
55.1571595875
 21
49.97393756
  0
LINE
  5
230
100
AcDbEntity
  8
0
100
AcDbLine
 62
7
  6
CONTINUOUS
 10
42.1571595875
 20
50.1918867525
 11
42.3571595875
 21
50.1918867525
  0
LINE
  5
231
100
AcDbEntity
  8
0
100
AcDbLine
 62
7
  6
CONTINUOUS
 10
48.3571595875
 20
50.1918867525
 11
54.1571595875
 21
50.1918867525
  0
LINE
  5
232
100
AcDbEntity
  8
0
100
AcDbLine
 62
7
  6
CONTINUOUS
 10
54.1571595875
 20
50.2418867525
 11
55.1571595875
 21
50.2418867525
  0
LINE
  5
233
100
AcDbEntity
  8
0
100
AcDbLine
 62
7
  6
CONTINUOUS
 10
42.3571595875
 20
51.1918867525
 11
42.1571595875
 21
51.1918867525
  0
LINE
  5
234
100
AcDbEntity
  8
0
100
AcDbLine
 62
7
  6
CONTINUOUS
 10
50.6571595875
 20
51.6918867525
 11
48.3571595875
 21
51.6918867525
  0
LINE
  5
235
100
AcDbEntity
  8
0
100
AcDbLine
 62
7
  6
CONTINUOUS
 10
50.6571595875
 20
52.0579121563
 11
54.1571595875
 21
52.0579121563
  0
LINE
  5
236
100
AcDbEntity
  8
0
100
AcDbLine
 62
7
  6
CONTINUOUS
 10
54.1571595875
 20
52.1079121563
 11
55.1571595875
 21
52.1079121563
  0
LINE
  5
237
100
AcDbEntity
  8
0
100
AcDbLine
 62
7
  6
CONTINUOUS
 10
27.3571595875
 20
52.4918867525
 11
34.3571595875
 21
52.4918867525
  0
LINE
  5
238
100
AcDbEntity
  8
0
100
AcDbLine
 62
7
  6
CONTINUOUS
 10
34.3571595875
 20
80.9919027044
 11
34.3571595875
 21
52.4918708005
  0
LINE
  5
239
100
AcDbEntity
  8
0
100
AcDbLine
 62
7
  6
CONTINUOUS
 10
34.7571595875
 20
53.1668867525
 11
34.7571595875
 21
80.3168867525
  0
LINE
  5
23A
100
AcDbEntity
  8
0
100
AcDbLine
 62
7
  6
CONTINUOUS
 10
36.0071595875
 20
80.3168867525
 11
36.0071595875
 21
53.1668867525
  0
LINE
  5
23B
100
AcDbEntity
  8
0
100
AcDbLine
 62
7
  6
CONTINUOUS
 10
42.1571595875
 20
52.9884596277
 11
42.3571595875
 21
52.9884596277
  0
LINE
  5
23C
100
AcDbEntity
  8
0
100
AcDbLine
 62
7
  6
CONTINUOUS
 10
34.7571595875
 20
53.1668867525
 11
36.0071595875
 21
53.1668867525
  0
LINE
  5
23D
100
AcDbEntity
  8
0
100
AcDbLine
 62
7
  6
CONTINUOUS
 10
59.4251087799
 20
53.2418867525
 11
55.1571595875
 21
53.2418867525
  0
LINE
  5
23E
100
AcDbEntity
  8
0
100
AcDbLine
 62
7
  6
CONTINUOUS
 10
42.3571595875
 20
53.6955664089
 11
42.1571595875
 21
53.6955664089
  0
LINE
  5
23F
100
AcDbEntity
  8
0
100
AcDbLine
 62
7
  6
CONTINUOUS
 10
34.3571595875
 20
53.8418867525
 11
34.7571595875
 21
53.8418867525
  0
LINE
  5
240
100
AcDbEntity
  8
0
100
AcDbLine
 62
7
  6
CONTINUOUS
 10
64.1571595875
 20
54.2418867525
 11
61.1571595875
 21
54.2418867525
  0
LINE
  5
241
100
AcDbEntity
  8
0
100
AcDbLine
 62
7
  6
CONTINUOUS
 10
54.1571595875
 20
54.2418867525
 11
55.1571595875
 21
54.2418867525
  0
LINE
  5
242
100
AcDbEntity
  8
0
100
AcDbLine
 62
7
  6
CONTINUOUS
 10
55.1571595875
 20
54.4418867525
 11
58.5571595875
 21
54.4418867525
  0
LINE
  5
243
100
AcDbEntity
  8
0
100
AcDbLine
 62
7
  6
CONTINUOUS
 10
26.8571595877
 20
54.7418867525
 11
27.3571595875
 21
54.7418867525
  0
LINE
  5
244
100
AcDbEntity
  8
0
100
AcDbLine
 62
7
  6
CONTINUOUS
 10
38.9571595875
 20
77.6168807384
 11
38.9571595875
 21
55.8668927665
  0
LINE
  5
245
100
AcDbEntity
  8
0
100
AcDbLine
 62
7
  6
CONTINUOUS
 10
39.3571595875
 20
56.1418867525
 11
39.3571595875
 21
58.9156488312
  0
LINE
  5
246
100
AcDbEntity
  8
0
100
AcDbLine
 62
7
  6
CONTINUOUS
 10
39.3571595875
 20
69.9418867525
 11
39.3571595875
 21
73.5418867525
  0
LINE
  5
247
100
AcDbEntity
  8
0
100
AcDbLine
 62
7
  6
CONTINUOUS
 10
66.679513874
 20
62.5103121308
 11
67.3571595875
 21
62.6918867525
  0
LINE
  5
248
100
AcDbEntity
  8
0
100
AcDbLine
 62
7
  6
CONTINUOUS
 10
53.1571595875
 20
55.7918867525
 11
54.1571595875
 21
55.7918867525
  0
LINE
  5
249
100
AcDbEntity
  8
0
100
AcDbLine
 62
7
  6
CONTINUOUS
 10
36.0071595875
 20
55.8668867525
 11
38.9571595875
 21
55.8668867525
  0
LINE
  5
24A
100
AcDbEntity
  8
0
100
AcDbLine
 62
7
  6
CONTINUOUS
 10
39.3571595875
 20
56.1418867525
 11
42.1571595875
 21
56.1418867525
  0
LINE
  5
24B
100
AcDbEntity
  8
0
100
AcDbLine
 62
7
  6
CONTINUOUS
 10
39.3571595875
 20
56.2418867525
 11
38.9571595875
 21
56.2418867525
  0
LINE
  5
24C
100
AcDbEntity
  8
0
100
AcDbLine
 62
7
  6
CONTINUOUS
 10
54.1571595875
 20
56.2418867525
 11
61.1571595875
 21
56.2418867525
  0
LINE
  5
24D
100
AcDbEntity
  8
0
100
AcDbLine
 62
7
  6
CONTINUOUS
 10
54.1571595875
 20
56.5418867525
 11
55.1571595875
 21
56.5418867525
  0
LINE
  5
24E
100
AcDbEntity
  8
0
100
AcDbLine
 62
7
  6
CONTINUOUS
 10
61.1571595875
 20
57.2835570902
 11
64.1571595875
 21
57.2835570902
  0
LINE
  5
24F
100
AcDbEntity
  8
0
100
AcDbLine
 62
7
  6
CONTINUOUS
 10
75.3871590878
 20
57.5290948319
 11
76.9871590878
 21
57.5290948319
  0
LINE
  5
250
100
AcDbEntity
  8
0
100
AcDbLine
 62
7
  6
CONTINUOUS
 10
42.1571595875
 20
58.2566053782
 11
39.3571595875
 21
58.2566053782
  0
LINE
  5
251
100
AcDbEntity
  8
0
100
AcDbLine
 62
7
  6
CONTINUOUS
 10
11.4571595875
 20
60.2445113738
 11
26.4571595875
 21
59.1449555405
  0
LINE
  5
252
100
AcDbEntity
  8
0
100
AcDbLine
 62
7
  6
CONTINUOUS
 10
42.1571595875
 20
50.1918867525
 11
42.1571595875
 21
77.0872970189
  0
LINE
  5
253
100
AcDbEntity
  8
0
100
AcDbLine
 62
7
  6
CONTINUOUS
 10
42.1571595875
 20
77.1233524663
 11
42.1571595875
 21
78.1418867525
  0
LINE
  5
254
100
AcDbEntity
  8
0
100
AcDbLine
 62
7
  6
CONTINUOUS
 10
42.3571595875
 20
43.8418867525
 11
42.3571595875
 21
86.5418867525
  0
LINE
  5
255
100
AcDbEntity
  8
0
100
AcDbLine
 62
7
  6
CONTINUOUS
 10
50.3571595875
 20
78.1418867525
 11
51.8571595875
 21
79.7235203657
  0
LINE
  5
256
100
AcDbEntity
  8
0
100
AcDbLine
 62
7
  6
CONTINUOUS
 10
76.9871590878
 20
61.2312825481
 11
79.5204118531
 21
61.3418867525
  0
LINE
  5
257
100
AcDbEntity
  8
0
100
AcDbLine
 62
7
  6
CONTINUOUS
 10
39.3571595875
 20
58.9156488312
 11
42.1571595875
 21
58.9156488312
  0
LINE
  5
258
100
AcDbEntity
  8
0
100
AcDbLine
 62
7
  6
CONTINUOUS
 10
55.1571595875
 20
59.7059883676
 11
61.1571595875
 21
59.7059883676
  0
LINE
  5
259
100
AcDbEntity
  8
0
100
AcDbLine
 62
7
  6
CONTINUOUS
 10
68.2571595875
 20
60.3418867525
 11
73.3371595875
 21
60.3418867525
  0
LINE
  5
25A
100
AcDbEntity
  8
0
100
AcDbLine
 62
7
  6
CONTINUOUS
 10
64.1571595875
 20
60.4918867525
 11
75.0204118531
 21
60.4918867525
  0
LINE
  5
25B
100
AcDbEntity
  8
0
100
AcDbLine
 62
7
  6
CONTINUOUS
 10
11.1071595875
 20
60.5918867525
 11
11.4571595875
 21
60.5918867525
  0
LINE
  5
25C
100
AcDbEntity
  8
0
100
AcDbLine
 62
7
  6
CONTINUOUS
 10
75.3204118531
 20
61.1918867525
 11
75.3871590878
 21
61.1918867525
  0
LINE
  5
25D
100
AcDbEntity
  8
0
100
AcDbLine
 62
7
  6
CONTINUOUS
 10
80.4537432704
 20
61.2118867525
 11
71.7771595875
 21
61.2118867525
  0
LINE
  5
25E
100
AcDbEntity
  8
0
100
AcDbLine
 62
7
  6
CONTINUOUS
 10
71.4771595875
 20
61.2118867525
 11
71.7771595875
 21
61.2118867525
  0
LINE
  5
25F
100
AcDbEntity
  8
0
100
AcDbLine
 62
7
  6
CONTINUOUS
 10
37.8775515434
 20
79.8441182039
 11
37.353307695
 21
82.8172528103
  0
LINE
  5
260
100
AcDbEntity
  8
0
100
AcDbLine
 62
7
  6
CONTINUOUS
 10
42.7571595875
 20
86.5418867525
 11
42.7571595875
 21
90.0418867525
  0
LINE
  5
261
100
AcDbEntity
  8
0
100
AcDbLine
 62
7
  6
CONTINUOUS
 10
36.0071595875
 20
61.6900925168
 11
34.7571595875
 21
61.6900925168
  0
LINE
  5
262
100
AcDbEntity
  8
0
100
AcDbLine
 62
7
  6
CONTINUOUS
 10
64.1571595875
 20
61.8222908032
 11
66.4571595875
 21
61.8222908032
  0
LINE
  5
263
100
AcDbEntity
  8
0
100
AcDbLine
 62
7
  6
CONTINUOUS
 10
67.9571595875
 20
62.0918867525
 11
75.3871590878
 21
62.0918867525
  0
LINE
  5
264
100
AcDbEntity
  8
0
100
AcDbLine
 62
7
  6
CONTINUOUS
 10
76.9470804357
 20
62.1118867525
 11
71.9842538091
 21
62.1118867525
  0
LINE
  5
265
100
AcDbEntity
  8
0
100
AcDbLine
 62
7
  6
CONTINUOUS
 10
71.9842538091
 20
62.1118867525
 11
71.9836586306
 21
62.1118867525
  0
LINE
  5
266
100
AcDbEntity
  8
0
100
AcDbLine
 62
7
  6
CONTINUOUS
 10
55.0929275594
 20
62.7418867525
 11
55.1571595875
 21
62.7418867525
  0
LINE
  5
267
100
AcDbEntity
  8
0
100
AcDbLine
 62
7
  6
CONTINUOUS
 10
71.9834552443
 20
63.0118867525
 11
71.4771595875
 21
63.0118867525
  0
LINE
  5
268
100
AcDbEntity
  8
0
100
AcDbLine
 62
7
  6
CONTINUOUS
 10
53.8861988543
 20
63.7418867525
 11
54.7571595875
 21
63.7418867525
  0
LINE
  5
269
100
AcDbEntity
  8
0
100
AcDbLine
 62
7
  6
CONTINUOUS
 10
64.1571595875
 20
63.7418867525
 11
67.3571595875
 21
63.7418867525
  0
LINE
  5
26A
100
AcDbEntity
  8
0
100
AcDbLine
 62
7
  6
CONTINUOUS
 10
58.5571595875
 20
64.2418867525
 11
61.1571595875
 21
64.2418867525
  0
LINE
  5
26B
100
AcDbEntity
  8
0
100
AcDbLine
 62
7
  6
CONTINUOUS
 10
79.5204118531
 20
61.9418867525
 11
76.9871590878
 21
62.0524909568
  0
LINE
  5
26C
100
AcDbEntity
  8
0
100
AcDbLine
 62
7
  6
CONTINUOUS
 10
80.4537432704
 20
61.9589608712
 11
76.9470804357
 21
62.1118867525
  0
LINE
  5
26D
100
AcDbEntity
  8
0
100
AcDbLine
 62
7
  6
CONTINUOUS
 10
48.3571595875
 20
43.8418867525
 11
48.3571595875
 21
90.0418867525
  0
LINE
  5
26E
100
AcDbEntity
  8
0
100
AcDbLine
 62
7
  6
CONTINUOUS
 10
51.8571595875
 20
79.7235203657
 11
51.986301698
 21
80.1094854493
  0
LINE
  5
26F
100
AcDbEntity
  8
0
100
AcDbLine
 62
7
  6
CONTINUOUS
 10
52.403245011
 20
80.4101326284
 11
52.740358273
 21
81.4176551916
  0
LINE
  5
270
100
AcDbEntity
  8
0
100
AcDbLine
 62
7
  6
CONTINUOUS
 10
53.2503604231
 20
82.9418867525
 11
53.5178717089
 21
83.7413915088
  0
LINE
  5
271
100
AcDbEntity
  8
0
100
AcDbLine
 62
7
  6
CONTINUOUS
 10
52.740358273
 20
79.8418867525
 11
48.3571595875
 21
66.7418867525
  0
LINE
  5
272
100
AcDbEntity
  8
0
100
AcDbLine
 62
7
  6
CONTINUOUS
 10
53.7776037634
 20
82.9418867525
 11
54.9187428068
 21
86.3523918517
  0
LINE
  5
273
100
AcDbEntity
  8
0
100
AcDbLine
 62
7
  6
CONTINUOUS
 10
53.5178716136
 20
83.7413932085
 11
53.5380365533
 21
83.7936076623
  0
LINE
  5
274
100
AcDbEntity
  8
0
100
AcDbLine
 62
7
  6
CONTINUOUS
 10
53.5178736407
 20
83.7413924231
 11
53.5380350462
 21
83.7936049677
  0
LINE
  5
275
100
AcDbEntity
  8
0
100
AcDbLine
 62
7
  6
CONTINUOUS
 10
34.7571595875
 20
65.1369003562
 11
34.3571595875
 21
65.1369003562
  0
LINE
  5
276
100
AcDbEntity
  8
0
100
AcDbLine
 62
7
  6
CONTINUOUS
 10
71.9799912968
 20
65.8418867525
 11
71.4736956386
 21
65.8418867525
  0
LINE
  5
277
100
AcDbEntity
  8
0
100
AcDbLine
 62
7
  6
CONTINUOUS
 10
80.4502793229
 20
66.2918867525
 11
71.9807898616
 21
66.2918867525
  0
LINE
  5
278
100
AcDbEntity
  8
0
100
AcDbLine
 62
7
  6
CONTINUOUS
 10
71.9801946831
 20
66.2918867525
 11
71.9807898616
 21
66.2918867525
  0
LINE
  5
279
100
AcDbEntity
  8
0
100
AcDbLine
 62
7
  6
CONTINUOUS
 10
76.9436164882
 20
67.1918867525
 11
71.9807898616
 21
67.1918867525
  0
LINE
  5
27A
100
AcDbEntity
  8
0
100
AcDbLine
 62
7
  6
CONTINUOUS
 10
71.9807898616
 20
67.1918867525
 11
71.9801946831
 21
67.1918867525
  0
LINE
  5
27B
100
AcDbEntity
  8
0
100
AcDbLine
 62
7
  6
CONTINUOUS
 10
66.679513874
 20
60.9734613742
 11
67.3571595875
 21
60.7918867525
  0
LINE
  5
27C
100
AcDbEntity
  8
0
100
AcDbLine
 62
7
  6
CONTINUOUS
 10
48.6571595875
 20
87.5418867525
 11
48.6571595875
 21
90.0418867525
  0
LINE
  5
27D
100
AcDbEntity
  8
0
100
AcDbLine
 62
7
  6
CONTINUOUS
 10
48.7571595875
 20
46.7418867525
 11
48.7571595875
 21
50.1918867525
  0
LINE
  5
27E
100
AcDbEntity
  8
0
100
AcDbLine
 62
7
  6
CONTINUOUS
 10
50.2571595875
 20
50.1918867525
 11
50.2571595875
 21
46.7418867525
  0
LINE
  5
27F
100
AcDbEntity
  8
0
100
AcDbLine
 62
7
  6
CONTINUOUS
 10
50.3571595875
 20
77.7741286596
 11
50.3571595875
 21
78.1418867525
  0
LINE
  5
280
100
AcDbEntity
  8
0
100
AcDbLine
 62
7
  6
CONTINUOUS
 10
50.6571595875
 20
50.1918867525
 11
50.6571595875
 21
53.7918867525
  0
LINE
  5
281
100
AcDbEntity
  8
0
100
AcDbLine
 62
7
  6
CONTINUOUS
 10
53.6571595875
 20
69.8278867525
 11
54.5713731499
 21
70.7421003148
  0
LINE
  5
282
100
AcDbEntity
  8
0
100
AcDbLine
 62
7
  6
CONTINUOUS
 10
53.8529438157
 20
70.6419879941
 11
57.7655911312
 21
73.6416842693
  0
LINE
  5
283
100
AcDbEntity
  8
0
100
AcDbLine
 62
7
  6
CONTINUOUS
 10
66.679513874
 20
72.5103121308
 11
67.3571595875
 21
72.6918867525
  0
LINE
  5
284
100
AcDbEntity
  8
0
100
AcDbLine
 62
7
  6
CONTINUOUS
 10
76.9871590878
 20
71.4312825481
 11
79.5204118531
 21
71.5418867525
  0
LINE
  5
285
100
AcDbEntity
  8
0
100
AcDbLine
 62
7
  6
CONTINUOUS
 10
71.9799912968
 20
67.6418867525
 11
71.47369564
 21
67.6418867525
  0
LINE
  5
286
100
AcDbEntity
  8
0
100
AcDbLine
 62
7
  6
CONTINUOUS
 10
34.3571595875
 20
68.3468731487
 11
34.7571595875
 21
68.3468731487
  0
LINE
  5
287
100
AcDbEntity
  8
0
100
AcDbLine
 62
7
  6
CONTINUOUS
 10
53.6571595875
 20
69.7418867525
 11
54.7571595875
 21
69.7418867525
  0
LINE
  5
288
100
AcDbEntity
  8
0
100
AcDbLine
 62
7
  6
CONTINUOUS
 10
64.1571595875
 20
69.7418867525
 11
67.3571595875
 21
69.7418867525
  0
LINE
  5
289
100
AcDbEntity
  8
0
100
AcDbLine
 62
7
  6
CONTINUOUS
 10
39.3571595875
 20
69.9418867525
 11
42.1571595875
 21
69.9418867525
  0
LINE
  5
28A
100
AcDbEntity
  8
0
100
AcDbLine
 62
7
  6
CONTINUOUS
 10
82.8871590878
 20
70.1290948319
 11
76.9871590878
 21
70.1290948319
  0
LINE
  5
28B
100
AcDbEntity
  8
0
100
AcDbLine
 62
7
  6
CONTINUOUS
 10
80.4502793229
 20
67.0389608712
 11
76.9436164882
 21
67.1918867525
  0
LINE
  5
28C
100
AcDbEntity
  8
0
100
AcDbLine
 62
7
  6
CONTINUOUS
 10
36.7571595865
 20
81.1793493436
 11
37.8775515434
 21
79.8441182039
  0
LINE
  5
28D
100
AcDbEntity
  8
0
100
AcDbLine
 62
7
  6
CONTINUOUS
 10
51.8571595875
 20
80.4919808921
 11
51.8571595875
 21
86.3918868697
  0
LINE
  5
28E
100
AcDbEntity
  8
0
100
AcDbLine
 62
7
  6
CONTINUOUS
 10
52.5071595875
 20
79.1449293479
 11
52.5071595875
 21
80.7168867525
  0
LINE
  5
28F
100
AcDbEntity
  8
0
100
AcDbLine
 62
7
  6
CONTINUOUS
 10
52.740358273
 20
79.8418867525
 11
52.740358273
 21
82.9418867525
  0
LINE
  5
290
100
AcDbEntity
  8
0
100
AcDbLine
 62
7
  6
CONTINUOUS
 10
53.6571595875
 20
64.4918867525
 11
53.6571595875
 21
70.2451848134
  0
LINE
  5
291
100
AcDbEntity
  8
0
100
AcDbLine
 62
7
  6
CONTINUOUS
 10
54.1571595875
 20
48.2418867525
 11
54.1571595875
 21
56.5418867525
  0
LINE
  5
292
100
AcDbEntity
  8
0
100
AcDbLine
 62
7
  6
CONTINUOUS
 10
71.47369564
 20
70.4718867525
 11
71.9799912968
 21
70.4718867525
  0
LINE
  5
293
100
AcDbEntity
  8
0
100
AcDbLine
 62
7
  6
CONTINUOUS
 10
55.1571595875
 20
70.7418867525
 11
54.7571595875
 21
70.7418867525
  0
LINE
  5
294
100
AcDbEntity
  8
0
100
AcDbLine
 62
7
  6
CONTINUOUS
 10
55.1571595875
 20
70.8718867525
 11
54.1528117614
 21
70.8718867525
  0
LINE
  5
295
100
AcDbEntity
  8
0
100
AcDbLine
 62
7
  6
CONTINUOUS
 10
80.4502793229
 20
71.3718867525
 11
71.9807898616
 21
71.3718867525
  0
LINE
  5
296
100
AcDbEntity
  8
0
100
AcDbLine
 62
7
  6
CONTINUOUS
 10
71.9801946831
 20
71.3718867525
 11
71.9807898616
 21
71.3718867525
  0
LINE
  5
297
100
AcDbEntity
  8
0
100
AcDbLine
 62
7
  6
CONTINUOUS
 10
75.3871590878
 20
71.3918867525
 11
67.9571595875
 21
71.3918867525
  0
LINE
  5
298
100
AcDbEntity
  8
0
100
AcDbLine
 62
7
  6
CONTINUOUS
 10
64.1571595875
 20
71.6614827018
 11
66.4571595875
 21
71.6614827018
  0
LINE
  5
299
100
AcDbEntity
  8
0
100
AcDbLine
 62
7
  6
CONTINUOUS
 10
34.7571595875
 20
71.7936809882
 11
36.0071595875
 21
71.7936809882
  0
LINE
  5
29A
100
AcDbEntity
  8
0
100
AcDbLine
 62
7
  6
CONTINUOUS
 10
76.9436164882
 20
72.2718867525
 11
71.77369564
 21
72.2718867525
  0
LINE
  5
29B
100
AcDbEntity
  8
0
100
AcDbLine
 62
7
  6
CONTINUOUS
 10
71.77369564
 20
72.2718867525
 11
71.47369564
 21
72.2718867525
  0
LINE
  5
29C
100
AcDbEntity
  8
0
100
AcDbLine
 62
7
  6
CONTINUOUS
 10
75.3204118531
 20
72.2918867525
 11
75.3871590878
 21
72.2918867525
  0
LINE
  5
29D
100
AcDbEntity
  8
0
100
AcDbLine
 62
7
  6
CONTINUOUS
 10
56.0702030658
 20
72.3418867525
 11
58.5571595875
 21
72.3418867525
  0
LINE
  5
29E
100
AcDbEntity
  8
0
100
AcDbLine
 62
7
  6
CONTINUOUS
 10
11.1071595875
 20
72.8918867525
 11
11.4571595875
 21
72.8918867525
  0
LINE
  5
29F
100
AcDbEntity
  8
0
100
AcDbLine
 62
7
  6
CONTINUOUS
 10
64.1571595875
 20
72.9918867525
 11
75.0204118531
 21
72.9918867525
  0
LINE
  5
2A0
100
AcDbEntity
  8
0
100
AcDbLine
 62
7
  6
CONTINUOUS
 10
68.2571595875
 20
73.1418867525
 11
73.3371595875
 21
73.1418867525
  0
LINE
  5
2A1
100
AcDbEntity
  8
0
100
AcDbLine
 62
7
  6
CONTINUOUS
 10
51.986301698
 20
80.1094854493
 11
51.8571595875
 21
80.8418867524
  0
LINE
  5
2A2
100
AcDbEntity
  8
0
100
AcDbLine
 62
7
  6
CONTINUOUS
 10
54.7571595875
 20
63.0522971622
 11
54.7571595875
 21
70.7418867525
  0
LINE
  5
2A3
100
AcDbEntity
  8
0
100
AcDbLine
 62
7
  6
CONTINUOUS
 10
55.1071595875
 20
86.8905807652
 11
55.1071595875
 21
87.1918867525
  0
LINE
  5
2A4
100
AcDbEntity
  8
0
100
AcDbLine
 62
7
  6
CONTINUOUS
 10
55.1571595875
 20
48.2418867525
 11
55.1571595875
 21
71.6418867525
  0
LINE
  5
2A5
100
AcDbEntity
  8
0
100
AcDbLine
 62
7
  6
CONTINUOUS
 10
55.6571595875
 20
87.1918144162
 11
55.6571595875
 21
86.2587541052
  0
LINE
  5
2A6
100
AcDbEntity
  8
0
100
AcDbLine
 62
7
  6
CONTINUOUS
 10
42.1571602771
 20
56.5276743884
 11
42.3571595875
 21
56.6004678513
  0
LINE
  5
2A7
100
AcDbEntity
  8
0
100
AcDbLine
 62
7
  6
CONTINUOUS
 10
82.8871590878
 20
70.9428436564
 11
85.5968590878
 21
71.9290938002
  0
LINE
  5
2A8
100
AcDbEntity
  8
0
100
AcDbLine
 62
7
  6
CONTINUOUS
 10
11.4571595875
 20
73.2392621312
 11
26.4571595875
 21
74.3388179645
  0
LINE
  5
2A9
100
AcDbEntity
  8
0
100
AcDbLine
 62
7
  6
CONTINUOUS
 10
42.1571595875
 20
73.5418867525
 11
39.3571595875
 21
73.5418867525
  0
LINE
  5
2AA
100
AcDbEntity
  8
0
100
AcDbLine
 62
7
  6
CONTINUOUS
 10
48.3571595875
 20
73.9418867525
 11
50.7662458879
 21
73.9418867525
  0
LINE
  5
2AB
100
AcDbEntity
  8
0
100
AcDbLine
 62
7
  6
CONTINUOUS
 10
51.0339221435
 20
74.7418867525
 11
48.3571595875
 21
74.7418867525
  0
LINE
  5
2AC
100
AcDbEntity
  8
0
100
AcDbLine
 62
7
  6
CONTINUOUS
 10
42.3571595875
 20
74.7418867525
 11
42.1571595875
 21
74.7418867525
  0
LINE
  5
2AD
100
AcDbEntity
  8
0
100
AcDbLine
 62
7
  6
CONTINUOUS
 10
58.8571595875
 20
75.3402599177
 11
58.5571595875
 21
75.3402599177
  0
LINE
  5
2AE
100
AcDbEntity
  8
0
100
AcDbLine
 62
7
  6
CONTINUOUS
 10
79.5204118531
 20
72.1418867525
 11
76.9871590878
 21
72.2524909568
  0
LINE
  5
2AF
100
AcDbEntity
  8
0
100
AcDbLine
 62
7
  6
CONTINUOUS
 10
80.4502793229
 20
72.1189608712
 11
76.9436164882
 21
72.2718867525
  0
LINE
  5
2B0
100
AcDbEntity
  8
0
100
AcDbLine
 62
7
  6
CONTINUOUS
 10
66.679513874
 20
70.9734613742
 11
67.3571595875
 21
70.7918867525
  0
LINE
  5
2B1
100
AcDbEntity
  8
0
100
AcDbLine
 62
7
  6
CONTINUOUS
 10
58.1571595875
 20
74.4352906306
 11
58.1571595875
 21
82.1618867525
  0
LINE
  5
2B2
100
AcDbEntity
  8
0
100
AcDbLine
 62
7
  6
CONTINUOUS
 10
58.5571595875
 20
64.2418867525
 11
58.5571595875
 21
78.5418867525
  0
LINE
  5
2B3
100
AcDbEntity
  8
0
100
AcDbLine
 62
7
  6
CONTINUOUS
 10
58.8571595875
 20
74.5576061663
 11
58.8571595875
 21
76.3758111865
  0
LINE
  5
2B4
100
AcDbEntity
  8
0
100
AcDbLine
 62
7
  6
CONTINUOUS
 10
59.0571595875
 20
64.2418867525
 11
59.0571595875
 21
74.4989802803
  0
LINE
  5
2B5
100
AcDbEntity
  8
0
100
AcDbLine
 62
7
  6
CONTINUOUS
 10
50.6571595875
 20
53.7918867525
 11
53.1571595875
 21
55.7918867525
  0
LINE
  5
2B6
100
AcDbEntity
  8
0
100
AcDbLine
 62
7
  6
CONTINUOUS
 10
42.3571595875
 20
77.0976240636
 11
42.1571595875
 21
77.0872949749
  0
LINE
  5
2B7
100
AcDbEntity
  8
0
100
AcDbLine
 62
7
  6
CONTINUOUS
 10
42.3572887473
 20
77.0972320606
 11
42.1571595875
 21
77.0872949749
  0
LINE
  5
2B8
100
AcDbEntity
  8
0
100
AcDbLine
 62
7
  6
CONTINUOUS
 10
58.5571595875
 20
76.3758111865
 11
58.8571595875
 21
76.3758111865
  0
LINE
  5
2B9
100
AcDbEntity
  8
0
100
AcDbLine
 62
7
  6
CONTINUOUS
 10
64.1571595875
 20
76.9918867525
 11
58.5571595875
 21
76.9918867525
  0
LINE
  5
2BA
100
AcDbEntity
  8
0
100
AcDbLine
 62
7
  6
CONTINUOUS
 10
42.1571595875
 20
77.2418867525
 11
38.9571595875
 21
77.2418867525
  0
LINE
  5
2BB
100
AcDbEntity
  8
0
100
AcDbLine
 62
7
  6
CONTINUOUS
 10
51.9464656434
 20
77.4691917883
 11
48.3571595875
 21
77.4691917883
  0
LINE
  5
2BC
100
AcDbEntity
  8
0
100
AcDbLine
 62
7
  6
CONTINUOUS
 10
75.3871590878
 20
77.5290948319
 11
81.4871590878
 21
77.5290948319
  0
LINE
  5
2BD
100
AcDbEntity
  8
0
100
AcDbLine
 62
7
  6
CONTINUOUS
 10
36.0071595875
 20
77.6168867525
 11
38.9571595875
 21
77.6168867525
  0
LINE
  5
2BE
100
AcDbEntity
  8
0
100
AcDbLine
 62
7
  6
CONTINUOUS
 10
50.3571595875
 20
77.7741286596
 11
48.3571595875
 21
77.7741286596
  0
LINE
  5
2BF
100
AcDbEntity
  8
0
100
AcDbLine
 62
7
  6
CONTINUOUS
 10
50.3571595875
 20
78.1418867525
 11
48.3571595875
 21
78.1418867525
  0
LINE
  5
2C0
100
AcDbEntity
  8
0
100
AcDbLine
 62
7
  6
CONTINUOUS
 10
42.3571595875
 20
78.1418867525
 11
42.1571595875
 21
78.1418867525
  0
LINE
  5
2C1
100
AcDbEntity
  8
0
100
AcDbLine
 62
7
  6
CONTINUOUS
 10
58.1571595875
 20
78.5418867525
 11
58.5571595875
 21
78.5418867525
  0
LINE
  5
2C2
100
AcDbEntity
  8
0
100
AcDbLine
 62
7
  6
CONTINUOUS
 10
26.8571595877
 20
78.7418867525
 11
27.3571595875
 21
78.7418867525
  0
LINE
  5
2C3
100
AcDbEntity
  8
0
100
AcDbLine
 62
7
  6
CONTINUOUS
 10
42.3572888103
 20
78.030459596
 11
42.1571595875
 21
78.0360430553
  0
LINE
  5
2C4
100
AcDbEntity
  8
0
100
AcDbLine
 62
7
  6
CONTINUOUS
 10
42.3571595875
 20
78.0299576804
 11
42.1571595875
 21
78.0360430553
  0
LINE
  5
2C5
100
AcDbEntity
  8
0
100
AcDbLine
 62
7
  6
CONTINUOUS
 10
61.1571595875
 20
54.2418867525
 11
61.1571595875
 21
64.2418867525
  0
LINE
  5
2C6
100
AcDbEntity
  8
0
100
AcDbLine
 62
7
  6
CONTINUOUS
 10
59.5640012506
 20
82.5594128243
 11
58.1520185916
 21
82.1810732103
  0
LINE
  5
2C7
100
AcDbEntity
  8
0
100
AcDbLine
 62
7
  6
CONTINUOUS
 10
37.8775515434
 20
79.8441182039
 11
42.3571595875
 21
80.6339939651
  0
LINE
  5
2C8
100
AcDbEntity
  8
0
100
AcDbLine
 62
7
  6
CONTINUOUS
 10
48.3571595875
 20
81.6919558494
 11
51.8571595875
 21
82.3091002818
  0
LINE
  5
2C9
100
AcDbEntity
  8
0
100
AcDbLine
 62
7
  6
CONTINUOUS
 10
57.4979224514
 20
83.3037189665
 11
57.7002443878
 21
83.3393937827
  0
LINE
  5
2CA
100
AcDbEntity
  8
0
100
AcDbLine
 62
7
  6
CONTINUOUS
 10
34.7571595875
 20
79.6418867525
 11
34.3571595875
 21
79.6418867525
  0
LINE
  5
2CB
100
AcDbEntity
  8
0
100
AcDbLine
 62
7
  6
CONTINUOUS
 10
48.3571595875
 20
79.7418867525
 11
42.3571595875
 21
79.7418867525
  0
LINE
  5
2CC
100
AcDbEntity
  8
0
100
AcDbLine
 62
7
  6
CONTINUOUS
 10
36.0071595875
 20
80.3168867525
 11
34.7571595875
 21
80.3168867525
  0
LINE
  5
2CD
100
AcDbEntity
  8
0
100
AcDbLine
 62
7
  6
CONTINUOUS
 10
52.403245011
 20
80.4101326284
 11
51.9332894956
 21
80.410132589
  0
LINE
  5
2CE
100
AcDbEntity
  8
0
100
AcDbLine
 62
7
  6
CONTINUOUS
 10
52.5071595875
 20
80.7168867525
 11
52.740358273
 21
80.7168867525
  0
LINE
  5
2CF
100
AcDbEntity
  8
0
100
AcDbLine
 62
7
  6
CONTINUOUS
 10
27.3571595875
 20
80.9918867525
 11
34.3571595875
 21
80.9918867525
  0
LINE
  5
2D0
100
AcDbEntity
  8
0
100
AcDbLine
 62
7
  6
CONTINUOUS
 10
52.740358273
 20
81.9418867525
 11
56.5983138607
 21
81.9418867525
  0
LINE
  5
2D1
100
AcDbEntity
  8
0
100
AcDbLine
 62
7
  6
CONTINUOUS
 10
51.9188416202
 20
80.4920705617
 11
51.8571595875
 21
80.492094837
  0
LINE
  5
2D2
100
AcDbEntity
  8
0
100
AcDbLine
 62
7
  6
CONTINUOUS
 10
58.1571595875
 20
79.2418867525
 11
56.5983138607
 21
81.9418867525
  0
LINE
  5
2D3
100
AcDbEntity
  8
0
100
AcDbLine
 62
7
  6
CONTINUOUS
 10
57.7982601397
 20
82.7835188309
 11
56.9984905816
 21
87.3192365481
  0
LINE
  5
2D4
100
AcDbEntity
  8
0
100
AcDbLine
 62
7
  6
CONTINUOUS
 10
58.1161231584
 20
82.2329639326
 11
57.1780210853
 21
87.5532051649
  0
LINE
  5
2D5
100
AcDbEntity
  8
0
100
AcDbLine
 62
7
  6
CONTINUOUS
 10
58.6606004364
 20
87.6828534377
 11
58.6761322117
 21
87.594768363
  0
LINE
  5
2D6
100
AcDbEntity
  8
0
100
AcDbLine
 62
7
  6
CONTINUOUS
 10
59.5484589501
 20
82.6475575907
 11
59.5639907254
 21
82.5594725159
  0
LINE
  5
2D7
100
AcDbEntity
  8
0
100
AcDbLine
 62
7
  6
CONTINUOUS
 10
59.2025691842
 20
87.6391541355
 11
60.0583287168
 21
82.7859006566
  0
LINE
  5
2D8
100
AcDbEntity
  8
0
100
AcDbLine
 62
7
  6
CONTINUOUS
 10
59.5263499577
 20
87.3799603038
 11
60.2739336089
 21
83.1402027341
  0
LINE
  5
2D9
100
AcDbEntity
  8
0
100
AcDbLine
 62
7
  6
CONTINUOUS
 10
64.1571595875
 20
76.9918867525
 11
64.1571595875
 21
54.2418867525
  0
LINE
  5
2DA
100
AcDbEntity
  8
0
100
AcDbLine
 62
7
  6
CONTINUOUS
 10
59.4251087799
 20
53.2418867525
 11
61.1571595875
 21
54.2418867525
  0
LINE
  5
2DB
100
AcDbEntity
  8
0
100
AcDbLine
 62
7
  6
CONTINUOUS
 10
37.353307695
 20
82.8172528103
 11
42.3571595875
 21
83.6995669064
  0
LINE
  5
2DC
100
AcDbEntity
  8
0
100
AcDbLine
 62
7
  6
CONTINUOUS
 10
43.8214887551
 20
83.9577676473
 11
46.1714307142
 21
84.3721258178
  0
LINE
  5
2DD
100
AcDbEntity
  8
0
100
AcDbLine
 62
7
  6
CONTINUOUS
 10
48.3571595875
 20
84.7575287906
 11
51.8571595875
 21
85.3746732231
  0
LINE
  5
2DE
100
AcDbEntity
  8
0
100
AcDbLine
 62
7
  6
CONTINUOUS
 10
55.8915461038
 20
86.0860444166
 11
57.1760005394
 21
86.312528389
  0
LINE
  5
2DF
100
AcDbEntity
  8
0
100
AcDbLine
 62
7
  6
CONTINUOUS
 10
53.5380365533
 20
83.7936076623
 11
51.8571595897
 21
83.7418851499
  0
LINE
  5
2E0
100
AcDbEntity
  8
0
100
AcDbLine
 62
7
  6
CONTINUOUS
 10
46.223242627
 20
82.1419000353
 11
45.5511215388
 21
82.1419000353
  0
LINE
  5
2E1
100
AcDbEntity
  8
0
100
AcDbLine
 62
7
  6
CONTINUOUS
 10
56.5983138607
 20
82.9418867525
 11
52.740358273
 21
82.9418867525
  0
LINE
  5
2E2
100
AcDbEntity
  8
0
100
AcDbLine
 62
7
  6
CONTINUOUS
 10
53.9449014232
 20
83.4418867525
 11
57.4181512429
 21
83.4418867525
  0
LINE
  5
2E3
100
AcDbEntity
  8
0
100
AcDbLine
 62
7
  6
CONTINUOUS
 10
44.0610186022
 20
84.3418856898
 11
44.7246278124
 21
84.3418856898
  0
LINE
  5
2E4
100
AcDbEntity
  8
0
100
AcDbLine
 62
7
  6
CONTINUOUS
 10
56.8408009738
 20
84.4418867525
 11
54.2794967427
 21
84.4418867525
  0
LINE
  5
2E5
100
AcDbEntity
  8
0
100
AcDbLine
 62
7
  6
CONTINUOUS
 10
53.9526114564
 20
84.4418867525
 11
53.9856228412
 21
84.4418867525
  0
LINE
  5
2E6
100
AcDbEntity
  8
0
100
AcDbLine
 62
7
  6
CONTINUOUS
 10
85.5968590878
 20
76.1290955386
 11
81.9871590878
 21
77.0290948305
  0
LINE
  5
2E7
100
AcDbEntity
  8
0
100
AcDbLine
 62
7
  6
CONTINUOUS
 10
53.5178754564
 20
83.7414072954
 11
53.9920354615
 21
83.5827555769
  0
LINE
  5
2E8
100
AcDbEntity
  8
0
100
AcDbLine
 62
7
  6
CONTINUOUS
 10
58.1571595875
 20
80.2418867525
 11
56.5983138607
 21
82.9418867525
  0
LINE
  5
2E9
100
AcDbEntity
  8
0
100
AcDbLine
 62
7
  6
CONTINUOUS
 10
58.1571595875
 20
82.1618867525
 11
55.8250612231
 21
86.2011996079
  0
LINE
  5
2EA
100
AcDbEntity
  8
0
100
AcDbLine
 62
7
  6
CONTINUOUS
 10
66.4571595875
 20
61.2632476771
 11
66.4571595875
 21
62.2205258278
  0
LINE
  5
2EB
100
AcDbEntity
  8
0
100
AcDbLine
 62
7
  6
CONTINUOUS
 10
66.4571595875
 20
71.2632410354
 11
66.4571595875
 21
72.2205324696
  0
LINE
  5
2EC
100
AcDbEntity
  8
0
100
AcDbLine
 62
7
  6
CONTINUOUS
 10
66.679513874
 20
60.9734613742
 11
66.679513874
 21
62.5103121308
  0
LINE
  5
2ED
100
AcDbEntity
  8
0
100
AcDbLine
 62
7
  6
CONTINUOUS
 10
66.679513874
 20
70.9734613742
 11
66.679513874
 21
72.5103121308
  0
LINE
  5
2EE
100
AcDbEntity
  8
0
100
AcDbLine
 62
7
  6
CONTINUOUS
 10
67.3571595875
 20
72.9918867525
 11
67.3571595875
 21
69.7418867525
  0
LINE
  5
2EF
100
AcDbEntity
  8
0
100
AcDbLine
 62
7
  6
CONTINUOUS
 10
67.3571595875
 20
63.7418867525
 11
67.3571595875
 21
60.4918867525
  0
LINE
  5
2F0
100
AcDbEntity
  8
0
100
AcDbLine
 62
7
  6
CONTINUOUS
 10
67.9571595875
 20
72.9918867525
 11
67.9571595875
 21
71.3918867525
  0
LINE
  5
2F1
100
AcDbEntity
  8
0
100
AcDbLine
 62
7
  6
CONTINUOUS
 10
67.9571595875
 20
60.4918867525
 11
67.9571595875
 21
62.0918867525
  0
LINE
  5
2F2
100
AcDbEntity
  8
0
100
AcDbLine
 62
7
  6
CONTINUOUS
 10
68.2571595875
 20
71.3918867525
 11
68.2571595875
 21
62.0918867525
  0
LINE
  5
2F3
100
AcDbEntity
  8
0
100
AcDbLine
 62
7
  6
CONTINUOUS
 10
68.2571595875
 20
60.3419248094
 11
68.2571595875
 21
60.4918867525
  0
LINE
  5
2F4
100
AcDbEntity
  8
0
100
AcDbLine
 62
7
  6
CONTINUOUS
 10
68.2571595875
 20
72.9918867525
 11
68.2571595875
 21
73.1418486955
  0
LINE
  5
2F5
100
AcDbEntity
  8
0
100
AcDbLine
 62
7
  6
CONTINUOUS
 10
68.5571595875
 20
60.4918867525
 11
68.5571595875
 21
62.0918867525
  0
LINE
  5
2F6
100
AcDbEntity
  8
0
100
AcDbLine
 62
7
  6
CONTINUOUS
 10
68.5571595875
 20
71.3918867525
 11
68.5571595875
 21
72.9918867525
  0
LINE
  5
2F7
100
AcDbEntity
  8
0
100
AcDbLine
 62
7
  6
CONTINUOUS
 10
57.1780210107
 20
87.5532051584
 11
57.160722521
 21
87.550927769
  0
LINE
  5
2F8
100
AcDbEntity
  8
0
100
AcDbLine
 62
7
  6
CONTINUOUS
 10
58.6605899112
 20
87.6829131294
 11
57.1780210853
 21
87.5532051649
  0
LINE
  5
2F9
100
AcDbEntity
  8
0
100
AcDbLine
 62
7
  6
CONTINUOUS
 10
55.1071598813
 20
87.1918867706
 11
53.6590677074
 21
87.102773406
  0
LINE
  5
2FA
100
AcDbEntity
  8
0
100
AcDbLine
 62
7
  6
CONTINUOUS
 10
55.8071598504
 20
86.2011996111
 11
55.8250612231
 21
86.2011996079
  0
LINE
  5
2FB
100
AcDbEntity
  8
0
100
AcDbLine
 62
7
  6
CONTINUOUS
 10
55.8071598565
 20
86.2049673859
 11
55.8228858958
 21
86.2049673853
  0
LINE
  5
2FC
100
AcDbEntity
  8
0
100
AcDbLine
 62
7
  6
CONTINUOUS
 10
42.7571595875
 20
86.5418867525
 11
42.3571595875
 21
86.5418867525
  0
LINE
  5
2FD
100
AcDbEntity
  8
0
100
AcDbLine
 62
7
  6
CONTINUOUS
 10
55.059156348
 20
86.8905807582
 11
55.6571595892
 21
86.8905807591
  0
LINE
  5
2FE
100
AcDbEntity
  8
0
100
AcDbLine
 62
7
  6
CONTINUOUS
 10
55.1071595875
 20
87.1918867525
 11
55.6571595875
 21
87.1918867525
  0
LINE
  5
2FF
100
AcDbEntity
  8
0
100
AcDbLine
 62
7
  6
CONTINUOUS
 10
48.6571595875
 20
87.5418867525
 11
48.3571595875
 21
87.5418867525
  0
LINE
  5
300
100
AcDbEntity
  8
0
100
AcDbLine
 62
7
  6
CONTINUOUS
 10
71.9842538091
 20
62.1118867525
 11
71.9919161859
 21
61.2118867525
  0
LINE
  5
301
100
AcDbEntity
  8
0
100
AcDbLine
 62
7
  6
CONTINUOUS
 10
71.9910101366
 20
61.2118867525
 11
71.9836656584
 21
62.1118867525
  0
LINE
  5
302
100
AcDbEntity
  8
0
100
AcDbLine
 62
7
  6
CONTINUOUS
 10
71.9842322211
 20
62.1118867525
 11
71.9915090904
 21
61.2118867525
  0
LINE
  5
303
100
AcDbEntity
  8
0
100
AcDbLine
 62
7
  6
CONTINUOUS
 10
71.9937460272
 20
61.2118867525
 11
71.9864619663
 21
62.1118867525
  0
LINE
  5
304
100
AcDbEntity
  8
0
100
AcDbLine
 62
7
  6
CONTINUOUS
 10
71.9834552443
 20
63.0118867525
 11
71.9842322211
 21
62.1118867525
  0
LINE
  5
305
100
AcDbEntity
  8
0
100
AcDbLine
 62
7
  6
CONTINUOUS
 10
71.47369564
 20
65.8418867525
 11
71.47369564
 21
67.6418867525
  0
LINE
  5
306
100
AcDbEntity
  8
0
100
AcDbLine
 62
7
  6
CONTINUOUS
 10
71.47369564
 20
70.4718867525
 11
71.47369564
 21
72.2718867525
  0
LINE
  5
307
100
AcDbEntity
  8
0
100
AcDbLine
 62
7
  6
CONTINUOUS
 10
71.4771595875
 20
61.2118867525
 11
71.4771595875
 21
63.0118867525
  0
LINE
  5
308
100
AcDbEntity
  8
0
100
AcDbLine
 62
7
  6
CONTINUOUS
 10
71.77369564
 20
72.2718867525
 11
71.77369564
 21
70.4718867525
  0
LINE
  5
309
100
AcDbEntity
  8
0
100
AcDbLine
 62
7
  6
CONTINUOUS
 10
71.77369564
 20
67.6418867525
 11
71.77369564
 21
65.8418867525
  0
LINE
  5
30A
100
AcDbEntity
  8
0
100
AcDbLine
 62
7
  6
CONTINUOUS
 10
71.7771595875
 20
63.0118867525
 11
71.7771595875
 21
61.2118867525
  0
LINE
  5
30B
100
AcDbEntity
  8
0
100
AcDbLine
 62
7
  6
CONTINUOUS
 10
71.9799912968
 20
71.3718867525
 11
71.9799912968
 21
70.4718867525
  0
LINE
  5
30C
100
AcDbEntity
  8
0
100
AcDbLine
 62
7
  6
CONTINUOUS
 10
71.9799912968
 20
67.6418867525
 11
71.9799912968
 21
67.1918867525
  0
LINE
  5
30D
100
AcDbEntity
  8
0
100
AcDbLine
 62
7
  6
CONTINUOUS
 10
71.9799912968
 20
66.2918867525
 11
71.9799912968
 21
65.8418867525
  0
LINE
  5
30E
100
AcDbEntity
  8
0
100
AcDbLine
 62
7
  6
CONTINUOUS
 10
71.9802017109
 20
66.2918867525
 11
71.9802017109
 21
67.1918867525
  0
LINE
  5
30F
100
AcDbEntity
  8
0
100
AcDbLine
 62
7
  6
CONTINUOUS
 10
71.9807682736
 20
67.1918867525
 11
71.9807682736
 21
66.2918867525
  0
LINE
  5
310
100
AcDbEntity
  8
0
100
AcDbLine
 62
7
  6
CONTINUOUS
 10
71.9829980188
 20
66.2918867525
 11
71.9829980188
 21
67.1918867525
  0
LINE
  5
311
100
AcDbEntity
  8
0
100
AcDbLine
 62
7
  6
CONTINUOUS
 10
71.9834552443
 20
63.0118867525
 11
71.9834552443
 21
62.1118867525
  0
LINE
  5
312
100
AcDbEntity
  8
0
100
AcDbLine
 62
7
  6
CONTINUOUS
 10
71.9807682736
 20
71.3718867424
 11
71.9799912968
 21
70.4718867525
  0
LINE
  5
313
100
AcDbEntity
  8
0
100
AcDbLine
 62
7
  6
CONTINUOUS
 10
71.980201711
 20
71.3718867525
 11
71.9875521021
 21
72.2718867525
  0
LINE
  5
314
100
AcDbEntity
  8
0
100
AcDbLine
 62
7
  6
CONTINUOUS
 10
71.9880443511
 20
72.2718867525
 11
71.9807682736
 21
71.3718867424
  0
LINE
  5
315
100
AcDbEntity
  8
0
100
AcDbLine
 62
7
  6
CONTINUOUS
 10
71.9829980188
 20
71.3718867633
 11
71.9902780437
 21
72.2718867525
  0
LINE
  5
316
100
AcDbEntity
  8
0
100
AcDbLine
 62
7
  6
CONTINUOUS
 10
71.9884638876
 20
72.2718867525
 11
71.9807898616
 21
71.3718867525
  0
LINE
  5
317
100
AcDbEntity
  8
0
100
AcDbLine
 62
7
  6
CONTINUOUS
 10
75.3871595875
 20
62.4079643213
 11
75.0710820187
 21
62.0918867525
  0
LINE
  5
318
100
AcDbEntity
  8
0
100
AcDbLine
 62
7
  6
CONTINUOUS
 10
48.6571595875
 20
90.0418867525
 11
42.7571595875
 21
90.0418867525
  0
LINE
  5
319
100
AcDbEntity
  8
0
100
AcDbLine
 62
7
  6
CONTINUOUS
 10
75.3871595875
 20
71.0758091837
 11
75.0710820187
 21
71.3918867525
  0
LINE
  5
31A
100
AcDbEntity
  8
0
100
AcDbLine
 62
7
  6
CONTINUOUS
 10
73.3371595875
 20
73.1418486955
 11
73.3371595875
 21
72.9918867525
  0
LINE
  5
31B
100
AcDbEntity
  8
0
100
AcDbLine
 62
7
  6
CONTINUOUS
 10
73.3371595875
 20
71.3918867525
 11
73.3371595875
 21
62.0918867525
  0
LINE
  5
31C
100
AcDbEntity
  8
0
100
AcDbLine
 62
7
  6
CONTINUOUS
 10
73.3371595875
 20
60.4918867525
 11
73.3371595875
 21
60.3419248094
  0
LINE
  5
31D
100
AcDbEntity
  8
0
100
AcDbLine
 62
7
  6
CONTINUOUS
 10
74.4871595875
 20
71.3918867525
 11
74.4871595875
 21
62.0918867525
  0
LINE
  5
31E
100
AcDbEntity
  8
0
100
AcDbLine
 62
7
  6
CONTINUOUS
 10
74.7871595875
 20
62.0918867525
 11
74.7871595875
 21
71.3918867525
  0
LINE
  5
31F
100
AcDbEntity
  8
0
100
AcDbLine
 62
7
  6
CONTINUOUS
 10
75.0204118531
 20
72.9918867525
 11
75.0204118531
 21
72.5918867525
  0
LINE
  5
320
100
AcDbEntity
  8
0
100
AcDbLine
 62
7
  6
CONTINUOUS
 10
75.0204118531
 20
60.4918867525
 11
75.0204118531
 21
60.8918867525
  0
LINE
  5
321
100
AcDbEntity
  8
0
100
AcDbLine
 62
7
  6
CONTINUOUS
 10
75.3871590878
 20
77.5290948319
 11
75.3871590878
 21
57.5290948319
  0
LINE
  5
322
100
AcDbEntity
  8
0
100
AcDbLine
 62
7
  6
CONTINUOUS
 10
76.9871590878
 20
77.5290948319
 11
76.9871590878
 21
57.5290948319
  0
LINE
  5
323
100
AcDbEntity
  8
0
100
AcDbLine
 62
7
  6
CONTINUOUS
 10
79.5204118531
 20
72.1418867525
 11
79.5204118531
 21
71.5418867525
  0
LINE
  5
324
100
AcDbEntity
  8
0
100
AcDbLine
 62
7
  6
CONTINUOUS
 10
79.5204118531
 20
61.3418867525
 11
79.5204118531
 21
61.9418867525
  0
LINE
  5
325
100
AcDbEntity
  8
0
100
AcDbLine
 62
7
  6
CONTINUOUS
 10
80.4502793229
 20
66.2918867525
 11
80.4502793229
 21
67.0389608712
  0
LINE
  5
326
100
AcDbEntity
  8
0
100
AcDbLine
 62
7
  6
CONTINUOUS
 10
80.4502793229
 20
71.3718867525
 11
80.4502793229
 21
72.1189608712
  0
LINE
  5
327
100
AcDbEntity
  8
0
100
AcDbLine
 62
7
  6
CONTINUOUS
 10
80.4537432704
 20
61.2118867525
 11
80.4537432704
 21
61.9589608712
  0
LINE
  5
328
100
AcDbEntity
  8
0
100
AcDbLine
 62
7
  6
CONTINUOUS
 10
82.8871590878
 20
70.9428436564
 11
82.8871590878
 21
70.1290948319
  0
LINE
  5
329
100
AcDbEntity
  8
0
100
AcDbLine
 62
7
  6
CONTINUOUS
 10
85.5968590878
 20
71.9290938002
 11
85.5968590878
 21
76.1290955386
  0
ARC
  5
32A
100
AcDbEntity
  8
0
100
AcDbCircle
 62
7
  6
CONTINUOUS
 10
21.7957855216
 20
99.6108606048
 40
35.6126011145
100
AcDbArc
 50
338.2527906326
 51
339.0725946653
  0
ARC
  5
32B
100
AcDbEntity
  8
0
100
AcDbCircle
 62
7
  6
CONTINUOUS
 10
41.4754608272
 20
70.039579137
 40
4.6936943162
100
AcDbArc
 50
79.162957156
 51
81.6489720385
  0
ARC
  5
32C
100
AcDbEntity
  8
0
100
AcDbCircle
 62
7
  6
CONTINUOUS
 10
53.1571595875
 20
72.1563138772
 40
2.0
100
AcDbArc
 50
314.9999999984
 51
319.5277979917
  0
ARC
  5
32D
100
AcDbEntity
  8
0
100
AcDbCircle
 62
7
  6
CONTINUOUS
 10
45.3571652122
 20
83.2418790492
 40
1.7000031305
100
AcDbArc
 50
139.6795809298
 51
240.3195803428
  0
ARC
  5
32E
100
AcDbEntity
  8
0
100
AcDbCircle
 62
7
  6
CONTINUOUS
 10
55.1571595875
 20
64.4918867525
 40
1.5
100
AcDbArc
 50
180.0
 51
255.5224878144
  0
ARC
  5
32F
100
AcDbEntity
  8
0
100
AcDbCircle
 62
7
  6
CONTINUOUS
 10
45.3571652122
 20
83.2418790492
 40
1.4000156855
100
AcDbArc
 50
308.2154144218
 51
83.2308705223
  0
ARC
  5
330
100
AcDbEntity
  8
0
100
AcDbCircle
 62
7
  6
CONTINUOUS
 10
57.1571595875
 20
74.4352906306
 40
1.0
100
AcDbArc
 50
307.4761795614
 51
359.9999999999
  0
ARC
  5
331
100
AcDbEntity
  8
0
100
AcDbCircle
 62
7
  6
CONTINUOUS
 10
58.5571595875
 20
55.3418867525
 40
0.9
100
AcDbArc
 50
270.0
 51
90.0
  0
ARC
  5
332
100
AcDbEntity
  8
0
100
AcDbCircle
 62
7
  6
CONTINUOUS
 10
81.4871590878
 20
77.0290948319
 40
0.5
100
AcDbArc
 50
359.9999998422
 51
90.0
  0
ARC
  5
333
100
AcDbEntity
  8
0
100
AcDbCircle
 62
7
  6
CONTINUOUS
 10
54.6571595875
 20
62.5553950794
 40
0.5
100
AcDbArc
 50
359.9097337638
 51
75.5224878131
  0
ARC
  5
334
100
AcDbEntity
  8
0
100
AcDbCircle
 62
7
  6
CONTINUOUS
 10
54.1571595875
 20
70.2451848134
 40
0.5
100
AcDbArc
 50
127.4761795608
 51
180.0
  0
ARC
  5
335
100
AcDbEntity
  8
0
100
AcDbCircle
 62
7
  6
CONTINUOUS
 10
59.078490812
 20
74.9388946803
 40
0.4439477233
100
AcDbArc
 50
239.8656596407
 51
243.0052774852
  0
ARC
  5
336
100
AcDbEntity
  8
0
100
AcDbCircle
 62
7
  6
CONTINUOUS
 10
11.1071595875
 20
60.9918867525
 40
0.4
100
AcDbArc
 50
180.0
 51
270.0
  0
ARC
  5
337
100
AcDbEntity
  8
0
100
AcDbCircle
 62
7
  6
CONTINUOUS
 10
11.1071595875
 20
72.4918867525
 40
0.4
100
AcDbArc
 50
90.0
 51
180.0
  0
ARC
  5
338
100
AcDbEntity
  8
0
100
AcDbCircle
 62
7
  6
CONTINUOUS
 10
66.7571595875
 20
62.2205343829
 40
0.3
100
AcDbArc
 50
105.0000000001
 51
180.0
  0
ARC
  5
339
100
AcDbEntity
  8
0
100
AcDbCircle
 62
7
  6
CONTINUOUS
 10
66.7571595875
 20
61.2632391221
 40
0.3
100
AcDbArc
 50
180.0
 51
254.9999999999
  0
ARC
  5
33A
100
AcDbEntity
  8
0
100
AcDbCircle
 62
7
  6
CONTINUOUS
 10
66.7571595875
 20
72.2205343829
 40
0.3
100
AcDbArc
 50
105.0000000001
 51
180.0
  0
ARC
  5
33B
100
AcDbEntity
  8
0
100
AcDbCircle
 62
7
  6
CONTINUOUS
 10
66.7571595875
 20
71.2632391221
 40
0.3
100
AcDbArc
 50
180.0
 51
254.9999999999
  0
ARC
  5
33C
100
AcDbEntity
  8
0
100
AcDbCircle
 62
7
  6
CONTINUOUS
 10
75.3204118531
 20
60.8918867525
 40
0.3
100
AcDbArc
 50
90.0
 51
180.0
  0
ARC
  5
33D
100
AcDbEntity
  8
0
100
AcDbCircle
 62
7
  6
CONTINUOUS
 10
75.3204118531
 20
72.5918867525
 40
0.3
100
AcDbArc
 50
180.0
 51
270.0
  0
ARC
  5
33E
100
AcDbEntity
  8
0
100
AcDbCircle
 62
7
  6
CONTINUOUS
 10
57.1954521617
 20
87.3539661889
 40
0.20000003
100
AcDbArc
 50
100.0
 51
190.071596286
  0
LINE
  5
33F
100
AcDbEntity
  8
0
100
AcDbLine
 62
7
  6
CONTINUOUS
 10
59.5484589501
 20
82.6475575907
 11
60.0583287168
 21
82.7859006566
  0
SPLINE
  5
340
100
AcDbEntity
  8
0
100
AcDbSpline
 62
7
  6
CONTINUOUS
 70
0
 71
3
 72
11
 73
7
 74
0
 42
0.0000001
 43
0.0000001
 44
0.0000000001
 40
0.0
 40
0.0
 40
0.0
 40
0.0
 40
0.2501670708
 40
0.5001828774
 40
0.7500968105
 40
1.0
 40
1.0
 40
1.0
 40
1.0
 10
60.2739336089
 20
83.1402027341
 30
0.0
 10
60.2804879447
 20
83.1030312488
 30
0.0
 10
60.2807188194
 20
83.0257570417
 30
0.0
 10
60.2407901891
 20
82.9172729366
 30
0.0
 10
60.1642886227
 20
82.8303739178
 30
0.0
 10
60.094717517
 20
82.7957763785
 30
0.0
 10
60.0583287168
 20
82.7859006566
 30
0.0
  0
LINE
  5
341
100
AcDbEntity
  8
0
100
AcDbLine
 62
7
  6
CONTINUOUS
 10
59.2025691842
 20
87.6391541355
 11
58.6761322117
 21
87.594768363
  0
SPLINE
  5
342
100
AcDbEntity
  8
0
100
AcDbSpline
 62
7
  6
CONTINUOUS
 70
0
 71
3
 72
11
 73
7
 74
0
 42
0.0000001
 43
0.0000001
 44
0.0000000001
 40
0.0
 40
0.0
 40
0.0
 40
0.0
 40
0.2499169786
 40
0.4998197692
 40
0.7498269883
 40
1.0
 40
1.0
 40
1.0
 40
1.0
 10
59.2025691842
 20
87.6391541355
 30
0.0
 10
59.2401432656
 20
87.6423198719
 30
0.0
 10
59.3173527187
 20
87.6336051911
 30
0.0
 10
59.4189599632
 20
87.5781091515
 30
0.0
 10
59.4935806092
 20
87.4898244143
 30
0.0
 10
59.5197954619
 20
87.4171326969
 30
0.0
 10
59.5263499577
 20
87.3799603038
 30
0.0
  0
SPLINE
  5
343
100
AcDbEntity
  8
0
100
AcDbSpline
 62
7
  6
CONTINUOUS
 70
0
 71
3
 72
9
 73
5
 74
0
 42
0.0000001
 43
0.0000001
 44
0.0000000001
 40
0.0
 40
0.0
 40
0.0
 40
0.0
 40
0.4999350846
 40
1.0
 40
1.0
 40
1.0
 40
1.0
 10
59.0571595875
 20
74.4989802803
 30
0.0
 10
59.0260200517
 20
74.4989802803
 30
0.0
 10
58.9634982263
 20
74.5067927086
 30
0.0
 10
58.9047356879
 20
74.5291824447
 30
0.0
 10
58.876979199
 20
74.5433157996
 30
0.0
  0
SPLINE
  5
344
100
AcDbEntity
  8
0
100
AcDbSpline
 62
7
  6
CONTINUOUS
 70
0
 71
3
 72
11
 73
7
 74
0
 42
0.0000001
 43
0.0000001
 44
0.0000000001
 40
0.0
 40
0.0
 40
0.0
 40
0.0
 40
0.2495699837
 40
0.4995676008
 40
0.7497511999
 40
1.0
 40
1.0
 40
1.0
 40
1.0
 10
58.8556161016
 20
74.5549461883
 30
0.0
 10
58.8058249273
 20
74.5838381478
 30
0.0
 10
58.7169177945
 20
74.6612516774
 30
0.0
 10
58.6243203575
 20
74.8094281437
 30
0.0
 10
58.5693708585
 20
74.9750633625
 30
0.0
 10
58.5571595875
 20
75.0908573976
 30
0.0
 10
58.5571595875
 20
75.148580514
 30
0.0
  0
SPLINE
  5
345
100
AcDbEntity
  8
0
100
AcDbSpline
 62
7
  6
CONTINUOUS
 70
0
 71
3
 72
11
 73
7
 74
0
 42
0.0000001
 43
0.0000001
 44
0.0000000001
 40
0.0
 40
0.0
 40
0.0
 40
0.0
 40
0.2793113563
 40
0.5448108596
 40
0.7879600271
 40
1.0
 40
1.0
 40
1.0
 40
1.0
 10
53.9856229511
 20
84.4418867585
 30
0.0
 10
54.0804457001
 20
84.6198175731
 30
0.0
 10
54.2544568647
 20
84.9727038896
 30
0.0
 10
54.4891338074
 20
85.4908586067
 30
0.0
 10
54.6931928647
 20
85.9694354182
 30
0.0
 10
54.8170275329
 20
86.2737961741
 30
0.0
 10
54.873752346
 20
86.4159574635
 30
0.0
  0
SPLINE
  5
346
100
AcDbEntity
  8
0
100
AcDbSpline
 62
7
  6
CONTINUOUS
 70
0
 71
3
 72
14
 73
10
 74
0
 42
0.0000001
 43
0.0000001
 44
0.0000000001
 40
0.0
 40
0.0
 40
0.0
 40
0.0
 40
0.3239405014
 40
0.476058977
 40
0.6156999086
 40
0.7392891566
 40
0.8438216775
 40
0.9288554743
 40
1.0
 40
1.0
 40
1.0
 40
1.0
 10
55.8071598505
 20
86.2011996084
 30
0.0
 10
55.7887138518
 20
86.2011995957
 30
0.0
 10
55.7615319868
 20
86.2030697089
 30
0.0
 10
55.7270743715
 20
86.2097215022
 30
0.0
 10
55.7043432182
 20
86.2164205502
 30
0.0
 10
55.6850630602
 20
86.2247634852
 30
0.0
 10
55.6700062552
 20
86.2345420841
 30
0.0
 10
55.6599010631
 20
86.2457752099
 30
0.0
 10
55.6571596055
 20
86.2547029539
 30
0.0
 10
55.6571595991
 20
86.2587541047
 30
0.0
  0
SPLINE
  5
347
100
AcDbEntity
  8
0
100
AcDbSpline
 62
7
  6
CONTINUOUS
 70
0
 71
3
 72
12
 73
8
 74
0
 42
0.0000001
 43
0.0000001
 44
0.0000000001
 40
0.0
 40
0.0
 40
0.0
 40
0.0
 40
0.2534497586
 40
0.3781682557
 40
0.5020790179
 40
0.7495872566
 40
1.0
 40
1.0
 40
1.0
 40
1.0
 10
55.059156348
 20
86.8905807582
 30
0.0
 10
55.0423445988
 20
86.8466567318
 30
0.0
 10
55.0206701167
 20
86.7797587734
 30
0.0
 10
54.9979687087
 20
86.6893858567
 30
0.0
 10
54.9787147455
 20
86.5993401088
 30
0.0
 10
54.9567139775
 20
86.4860942882
 30
0.0
 10
54.9334872576
 20
86.396458448
 30
0.0
 10
54.9187427972
 20
86.3523918727
 30
0.0
  0
SPLINE
  5
348
100
AcDbEntity
  8
0
100
AcDbSpline
 62
7
  6
CONTINUOUS
 70
0
 71
3
 72
9
 73
5
 74
0
 42
0.0000001
 43
0.0000001
 44
0.0000000001
 40
0.0
 40
0.0
 40
0.0
 40
0.0
 40
0.2489743879
 40
1.0
 40
1.0
 40
1.0
 40
1.0
 10
52.5073837015
 20
80.4259821341
 30
0.0
 10
52.4989714121
 20
80.4235486599
 30
0.0
 10
52.4649384397
 20
80.4147044184
 30
0.0
 10
52.4296606945
 20
80.4101327772
 30
0.0
 10
52.403244823
 20
80.4101326041
 30
0.0
  0
SPLINE
  5
349
100
AcDbEntity
  8
0
100
AcDbSpline
 62
7
  6
CONTINUOUS
 70
0
 71
3
 72
14
 73
10
 74
0
 42
0.0000001
 43
0.0000001
 44
0.0000000001
 40
0.0
 40
0.0
 40
0.0
 40
0.0
 40
0.0873479368
 40
0.1868181548
 40
0.2997734481
 40
0.4250101331
 40
0.5601800208
 40
0.7027430954
 40
1.0
 40
1.0
 40
1.0
 40
1.0
 10
56.6756641299
 20
82.8079121563
 30
0.0
 10
56.6885288627
 20
82.7856297854
 30
0.0
 10
56.7075924656
 20
82.733051663
 30
0.0
 10
56.7179920594
 20
82.6449756478
 30
0.0
 10
56.7155870587
 20
82.5453247347
 30
0.0
 10
56.7032158213
 20
82.4359637078
 30
0.0
 10
56.6832647005
 20
82.3189122344
 30
0.0
 10
56.6489026806
 20
82.15304338
 30
0.0
 10
56.6186794524
 20
82.0270463
 30
0.0
 10
56.5983138607
 20
81.9418867525
 30
0.0
  0
SPLINE
  5
34A
100
AcDbEntity
  8
0
100
AcDbSpline
 62
7
  6
CONTINUOUS
 70
0
 71
3
 72
21
 73
17
 74
0
 42
0.0000001
 43
0.0000001
 44
0.0000000001
 40
0.0
 40
0.0
 40
0.0
 40
0.0
 40
0.1242461374
 40
0.2487657401
 40
0.3735931432
 40
0.4986534176
 40
0.6238840683
 40
0.6865451872
 40
0.7492261607
 40
0.8119193371
 40
0.8746154632
 40
0.9372863497
 40
0.9529648855
 40
0.9686444984
 40
0.9843241899
 40
1.0
 40
1.0
 40
1.0
 40
1.0
 10
53.9526116191
 20
84.4418866542
 30
0.0
 10
53.9371648779
 20
84.4136939051
 30
0.0
 10
53.9065586697
 20
84.3570703068
 30
0.0
 10
53.8612884262
 20
84.2716625359
 30
0.0
 10
53.8145628186
 20
84.1867994824
 30
0.0
 10
53.7669188517
 20
84.1022392652
 30
0.0
 10
53.7259721106
 20
84.0323753834
 30
0.0
 10
53.6921316636
 20
83.9770724452
 30
0.0
 10
53.6660255674
 20
83.936016399
 30
0.0
 10
53.6389369618
 20
83.895577192
 30
0.0
 10
53.6103632341
 20
83.8561997649
 30
0.0
 10
53.5870256454
 20
83.8280062512
 30
0.0
 10
53.5695679018
 20
83.8110465681
 30
0.0
 10
53.5603007092
 20
83.8031344035
 30
0.0
 10
53.5499465189
 20
83.7965908571
 30
0.0
 10
53.542051091
 20
83.7941748556
 30
0.0
 10
53.5380353182
 20
83.7936056721
 30
0.0
  0
LINE
  5
34B
100
AcDbEntity
  8
0
100
AcDbLine
 62
7
  6
CONTINUOUS
 10
51.8571595875
 20
83.7418867525
 11
53.5178717089
 21
83.7413915088
  0
SPLINE
  5
34C
100
AcDbEntity
  8
0
100
AcDbSpline
 62
7
  6
CONTINUOUS
 70
0
 71
3
 72
10
 73
6
 74
0
 42
0.0000001
 43
0.0000001
 44
0.0000000001
 40
0.0
 40
0.0
 40
0.0
 40
0.0
 40
0.3350114922
 40
0.668346631
 40
1.0
 40
1.0
 40
1.0
 40
1.0
 10
71.9864619663
 20
62.1118867525
 30
0.0
 10
71.9863181687
 20
62.2123907142
 30
0.0
 10
71.9858959686
 20
62.4128959237
 30
0.0
 10
71.9840424883
 20
62.7128925364
 30
0.0
 10
71.983606259
 20
62.9123902456
 30
0.0
 10
71.9834552443
 20
63.0118867525
 30
0.0
  0
SPLINE
  5
34D
100
AcDbEntity
  8
0
100
AcDbSpline
 62
7
  6
CONTINUOUS
 70
0
 71
3
 72
10
 73
6
 74
0
 42
0.0000001
 43
0.0000001
 44
0.0000000001
 40
0.0
 40
0.0
 40
0.0
 40
0.0
 40
0.3350087312
 40
0.6683492861
 40
1.0
 40
1.0
 40
1.0
 40
1.0
 10
71.9829980188
 20
67.1918867525
 30
0.0
 10
71.9828542202
 20
67.2421390903
 30
0.0
 10
71.982432
 20
67.3423939233
 30
0.0
 10
71.9805785612
 20
67.4923871491
 30
0.0
 10
71.9801423124
 20
67.5921381531
 30
0.0
 10
71.9799912968
 20
67.6418867525
 30
0.0
  0
SPLINE
  5
34E
100
AcDbEntity
  8
0
100
AcDbSpline
 62
7
  6
CONTINUOUS
 70
0
 71
3
 72
10
 73
6
 74
0
 42
0.0000001
 43
0.0000001
 44
0.0000000001
 40
0.0
 40
0.0
 40
0.0
 40
0.0
 40
0.3316614529
 40
0.6650020078
 40
1.0
 40
1.0
 40
1.0
 40
1.0
 10
71.9799912968
 20
65.8418867525
 30
0.0
 10
71.980142332
 20
65.8916369627
 30
0.0
 10
71.9805785887
 20
65.9913895775
 30
0.0
 10
71.9824320265
 20
66.1413828033
 30
0.0
 10
71.9828542393
 20
66.2416360255
 30
0.0
 10
71.9829980188
 20
66.2918867525
 30
0.0
  0
SPLINE
  5
34F
100
AcDbEntity
  8
0
100
AcDbSpline
 62
7
  6
CONTINUOUS
 70
0
 71
3
 72
10
 73
6
 74
0
 42
0.0000001
 43
0.0000001
 44
0.0000000001
 40
0.0
 40
0.0
 40
0.0
 40
0.0
 40
0.3316641045
 40
0.6649992393
 40
1.0
 40
1.0
 40
1.0
 40
1.0
 10
71.9799912968
 20
70.4718867525
 30
0.0
 10
71.9801423311
 20
70.5713864812
 30
0.0
 10
71.9805785683
 20
70.7708874123
 30
0.0
 10
71.9824320476
 20
71.0708840286
 30
0.0
 10
71.9828542404
 20
71.2713860198
 30
0.0
 10
71.9829980188
 20
71.3718867633
 30
0.0
  0
ENDSEC
  0
SECTION
  2
OBJECTS
  0
DICTIONARY
  5
C
100
AcDbDictionary
280
0
281
1
  3
ACAD_GROUP
350
D
  3
ACAD_MLINESTYLE
350
17
  3
ACAD_LAYOUT
350
1A
  3
ACAD_PLOTSETTINGS
350
19
  3
ACAD_PLOTSTYLENAME
350
E
  0
DICTIONARY
  5
D
102
{ACAD_REACTORS
330
C
102
}
100
AcDbDictionary
280
0
281
1
  0
ACDBDICTIONARYWDFLT
  5
E
102
{ACAD_REACTORS
330
C
102
}
100
AcDbDictionary
281
1
  3
Normal
350
F
100
AcDbDictionaryWithDefault
340
F
  0
DICTIONARY
  5
17
102
{ACAD_REACTORS
330
C
102
}
100
AcDbDictionary
280
0
281
1
  3
Standard
350
18
  0
DICTIONARY
  5
19
102
{ACAD_REACTORS
330
C
102
}
100
AcDbDictionary
281
1
  0
DICTIONARY
  5
1A
102
{ACAD_REACTORS
330
C
102
}
100
AcDbDictionary
281
1
  3
Model
350
350
  3
Layout1
350
351
  0
ACDBPLACEHOLDER
  5
F
102
{ACAD_REACTORS
330
E
102
}
  0
MLINESTYLE
  5
18
102
{ACAD_REACTORS
330
17
102
}
100
AcDbMlineStyle
  2
STANDARD
 70
0
  3

 62
256
 51
90.0
 52
90.0
 71
2
 49
0.5
 62
256
  6
BYLAYER
 49
-0.5
 62
256
  6
BYLAYER
  0
LAYOUT
  5
350
102
{ACAD_REACTORS
330
1A
102
}
100
AcDbPlotSettings
  1

  2
none_device
  4

  6

 40
0.0
 41
0.0
 42
0.0
 43
0.0
 44
210.0
 45
297.0
 46
0.0
 47
0.0
 48
0.0
 49
0.0
140
0.0
141
0.0
142
1.0
143
1.0
 70
1024
 72
1
 73
0
 74
0
  7

 75
0
147
1.0
148
0.0
149
0.0
100
AcDbLayout
  1
Model
 70
0
 71
0
 10
0.0
 20
0.0
 11
210.0
 21
297.0
 12
0.0
 22
0.0
 32
0.0
 14
0.0
 24
0.0
 34
0.0
 15
0.0
 25
0.0
 35
0.0
146
0.0
 13
0.0
 23
0.0
 33
0.0
 16
1.0
 26
0.0
 36
0.0
 17
0.0
 27
1.0
 37
0.0
 76
0
330
210
345
0
346
0
  0
LAYOUT
  5
351
102
{ACAD_REACTORS
330
1A
102
}
100
AcDbPlotSettings
  1

  2
none_device
  4

  6

 40
0.0
 41
0.0
 42
0.0
 43
0.0
 44
210.0
 45
297.0
 46
0.0
 47
0.0
 48
0.0
 49
0.0
140
0.0
141
0.0
142
1.0
143
1.0
 70
0
 72
1
 73
0
 74
0
  7

 75
0
147
1.0
148
0.0
149
0.0
100
AcDbLayout
  1
Layout1
 70
0
 71
1
 10
0.0
 20
0.0
 11
210.0
 21
297.0
 12
0.0
 22
0.0
 32
0.0
 14
0.0
 24
0.0
 34
0.0
 15
0.0
 25
0.0
 35
0.0
146
0.0
 13
0.0
 23
0.0
 33
0.0
 16
1.0
 26
0.0
 36
0.0
 17
0.0
 27
1.0
 37
0.0
 76
0
330
211
345
0
346
0
  0
ENDSEC
  0
EOF
