999
DXF file: C:\Users\sesa63760\Dev\_Creo\CAD\MCADID0001058_3D-CAD\drw0001_5.dxf
999
Pro/ENGINEER 2019471 by Parametric Technology Corporation
  0
SECTION
  2
HEADER
  9
$ACADVER
  1
AC1024
  9
$DWGCODEPAGE
  3
ANSI_1252
  9
$EXTMAX
 10
285.1163265306
 20
403.2359475219
 30
0.0
  9
$EXTMIN
 10
0.0
 20
0.0
 30
0.0
  9
$LIMMIN
 10
0.0
 20
0.0
  9
$LIMMAX
 10
285.1163265306
 20
403.2359475219
  9
$VIEWCTR
 10
142.5581632653
 20
201.6179737609
  9
$VIEWSIZE
 40
403.2359475219
  9
$CLAYER
  8
0
  9
$LTSCALE
 40
26.2850099125
  9
$CELTYPE
  6
BYLAYER
  9
$DIMSCALE
 40
1.0
  9
$DIMASZ
 40
3.3942419825
  9
$DIMEXO
 40
1.0
  9
$DIMDLI
 40
18.1605523032
  9
$DIMEXE
 40
1.0
  9
$DIMCEN
 40
4.3011834402
  9
$DIMLFAC
 40
1.0
  9
$DIMBLK
  1
_FILLED
  9
$DIMALT
 70
0
  9
$DIMALTF
 40
0.0393700787
  9
$DIMTXT
 40
4.7519387755
  9
$DIMTOL
 70
1
  9
$DIMLIM
 70
0
  9
$DIMTFAC
 40
1.0
  9
$DIMTP
 40
0.01
  9
$DIMTM
 40
0.01
  9
$DIMGAP
 40
0.625
  9
$DIMDSEP
 70
46
  9
$AUNITS
 70
0
  9
$PDMODE
 70
3
  9
$PDSIZE
 40
0.3125
  9
$HANDSEED
  5
2C6
  9
$TILEMODE
 70
1
  9
$MEASUREMENT
 70
1
  9
$INSUNITS
 70
4
  0
ENDSEC
  0
SECTION
  2
CLASSES
  0
CLASS
  1
ACDBDICTIONARYWDFLT
  2
AcDbDictionaryWithDefault
  3
AutoCAD 2000
 90
0
 91
1
280
0
281
0
  0
CLASS
  1
ACDBPLACEHOLDER
  2
AcDbPlaceHolder
  3
AutoCAD 2000
 90
0
 91
1
280
0
281
0
  0
CLASS
  1
LAYOUT
  2
AcDbLayout
  3
AutoCAD 2000
 90
0
 91
0
280
0
281
0
  0
ENDSEC
  0
SECTION
  2
TABLES
  0
TABLE
  2
VPORT
  5
8
100
AcDbSymbolTable
 70
2
  0
VPORT
  5
1F4
100
AcDbSymbolTableRecord
100
AcDbViewportTableRecord
  2
*ACTIVE
 70
0
 10
0.0
 20
0.0
 11
1.0
 21
1.0
 12
142.5581632653
 22
201.6179737609
 13
0.0
 23
0.0
 14
1.0
 24
1.0
 15
0.0
 25
0.0
 16
0.0
 26
0.0
 36
1.0
 17
0.0
 27
0.0
 37
0.0
 40
403.2359475219
 41
0.7070707071
 42
50.0
 43
0.0
 44
0.0
 50
0.0
 51
0.0
 71
0
 72
100
 73
1
 74
1
 75
0
 76
0
 77
0
 78
0
  0
ENDTAB
  0
TABLE
  2
LTYPE
  5
5
100
AcDbSymbolTable
 70
6
  0
LTYPE
  5
14
100
AcDbSymbolTableRecord
100
AcDbLinetypeTableRecord
  2
BYBLOCK
 70
0
  3

 72
65
 73
0
 40
0.0
  0
LTYPE
  5
15
100
AcDbSymbolTableRecord
100
AcDbLinetypeTableRecord
  2
BYLAYER
 70
0
  3

 72
65
 73
0
 40
0.0
  0
LTYPE
  5
16
100
AcDbSymbolTableRecord
100
AcDbLinetypeTableRecord
  2
CONTINUOUS
 70
64
  3
Solid line
 72
65
 73
0
 40
0.0
  0
LTYPE
  5
1F5
100
AcDbSymbolTableRecord
100
AcDbLinetypeTableRecord
  2
CENTER
 70
64
  3
____ _ ____ _ ____ _ ____ _ ____ _ ____ _ ____
 72
65
 73
4
 40
0.6
 49
0.375
 74
0
 49
-0.075
 74
0
 49
0.075
 74
0
 49
-0.075
 74
0
  0
LTYPE
  5
1F6
100
AcDbSymbolTableRecord
100
AcDbLinetypeTableRecord
  2
HIDDEN
 70
64
  3
- - - - - - - - - - - - - - - - - - - -
 72
65
 73
2
 40
0.2
 49
0.1
 74
0
 49
-0.1
 74
0
  0
LTYPE
  5
1F7
100
AcDbSymbolTableRecord
100
AcDbLinetypeTableRecord
  2
PHANTOM
 70
64
  3
_____ _ _ _____ _ _ _____ _ _ _____
 72
65
 73
6
 40
0.8
 49
0.45
 74
0
 49
-0.05
 74
0
 49
0.1
 74
0
 49
-0.05
 74
0
 49
0.1
 74
0
 49
-0.05
 74
0
  0
LTYPE
  5
1F8
100
AcDbSymbolTableRecord
100
AcDbLinetypeTableRecord
  2
DOT
 70
64
  3
. . . . . . . . . . . . . . . . . . . .
 72
65
 73
2
 40
0.2
 49
0.1
 74
0
 49
-0.1
 74
0
  0
LTYPE
  5
1F9
100
AcDbSymbolTableRecord
100
AcDbLinetypeTableRecord
  2
DASHED
 70
64
  3
- - - - - - - - - - - - - - - - - - - -
 72
65
 73
2
 40
0.2
 49
0.1
 74
0
 49
-0.1
 74
0
  0
ENDTAB
  0
TABLE
  2
LAYER
  5
2
100
AcDbSymbolTable
 70
36
  0
LAYER
  5
10
100
AcDbSymbolTableRecord
100
AcDbLayerTableRecord
  2
0
 70
0
 62
7
  6
CONTINUOUS
370
-3
390
F
  0
LAYER
  5
1FA
100
AcDbSymbolTableRecord
100
AcDbLayerTableRecord
  2
DEFAULT_1
 70
0
 62
7
  6
CENTER
370
-3
390
F
  0
LAYER
  5
1FB
100
AcDbSymbolTableRecord
100
AcDbLayerTableRecord
  2
DEFAULT_2
 70
0
 62
8
  6
HIDDEN
370
-3
390
F
  0
LAYER
  5
1FC
100
AcDbSymbolTableRecord
100
AcDbLayerTableRecord
  2
DEFAULT_3
 70
0
 62
7
  6
PHANTOM
370
-3
390
F
  0
LAYER
  5
1FD
100
AcDbSymbolTableRecord
100
AcDbLayerTableRecord
  2
00_COMPONENTS
 70
0
 62
7
  6
CONTINUOUS
370
-3
390
F
  0
LAYER
  5
1FE
100
AcDbSymbolTableRecord
100
AcDbLayerTableRecord
  2
01_1_DEFAULT_DATUMS
 70
0
 62
7
  6
CONTINUOUS
370
-3
390
F
  0
LAYER
  5
1FF
100
AcDbSymbolTableRecord
100
AcDbLayerTableRecord
  2
01_PLANES
 70
0
 62
7
  6
CONTINUOUS
370
-3
390
F
  0
LAYER
  5
200
100
AcDbSymbolTableRecord
100
AcDbLayerTableRecord
  2
02_COORD_SYS
 70
0
 62
7
  6
CONTINUOUS
370
-3
390
F
  0
LAYER
  5
201
100
AcDbSymbolTableRecord
100
AcDbLayerTableRecord
  2
03_AXES
 70
0
 62
7
  6
CONTINUOUS
370
-3
390
F
  0
LAYER
  5
202
100
AcDbSymbolTableRecord
100
AcDbLayerTableRecord
  2
04_POINTS
 70
0
 62
7
  6
CONTINUOUS
370
-3
390
F
  0
LAYER
  5
203
100
AcDbSymbolTableRecord
100
AcDbLayerTableRecord
  2
05_CURVES
 70
0
 62
7
  6
CONTINUOUS
370
-3
390
F
  0
LAYER
  5
204
100
AcDbSymbolTableRecord
100
AcDbLayerTableRecord
  2
06_SURFS
 70
0
 62
7
  6
CONTINUOUS
370
-3
390
F
  0
LAYER
  5
205
100
AcDbSymbolTableRecord
100
AcDbLayerTableRecord
  2
07_COSMETICS
 70
0
 62
7
  6
CONTINUOUS
370
-3
390
F
  0
LAYER
  5
206
100
AcDbSymbolTableRecord
100
AcDbLayerTableRecord
  2
10_NOTES
 70
0
 62
7
  6
CONTINUOUS
370
-3
390
F
  0
LAYER
  5
207
100
AcDbSymbolTableRecord
100
AcDbLayerTableRecord
  2
11_NOTES_PUB
 70
0
 62
7
  6
CONTINUOUS
370
-3
390
F
  0
LAYER
  5
208
100
AcDbSymbolTableRecord
100
AcDbLayerTableRecord
  2
13_REF_GTOL
 70
0
 62
7
  6
CONTINUOUS
370
-3
390
F
  0
LAYER
  5
209
100
AcDbSymbolTableRecord
100
AcDbLayerTableRecord
  2
16_MISC
 70
0
 62
7
  6
CONTINUOUS
370
-3
390
F
  0
LAYER
  5
20A
100
AcDbSymbolTableRecord
100
AcDbLayerTableRecord
  2
17_NO_PRINT
 70
0
 62
7
  6
CONTINUOUS
370
-3
390
F
  0
LAYER
  5
20B
100
AcDbSymbolTableRecord
100
AcDbLayerTableRecord
  2
18_DATUM_CAMS_JOINTS
 70
0
 62
7
  6
CONTINUOUS
370
-3
390
F
  0
LAYER
  5
20C
100
AcDbSymbolTableRecord
100
AcDbLayerTableRecord
  2
19_DATUM_FUNCTIONAL
 70
0
 62
7
  6
CONTINUOUS
370
-3
390
F
  0
LAYER
  5
20D
100
AcDbSymbolTableRecord
100
AcDbLayerTableRecord
  2
20_DATUM_KINEMATIC_SCHEME
 70
0
 62
7
  6
CONTINUOUS
370
-3
390
F
  0
ENDTAB
  0
TABLE
  2
STYLE
  5
3
100
AcDbSymbolTable
 70
1
  0
STYLE
  5
11
100
AcDbSymbolTableRecord
100
AcDbTextStyleTableRecord
  2
STANDARD
 70
0
 40
0.0
 41
0.8
 50
0.0
 71
0
 42
0.2
  3
txt
  4

  0
STYLE
  5
20E
100
AcDbSymbolTableRecord
100
AcDbTextStyleTableRecord
  2
TEXTSTYLE_1
 70
0
 40
0.0
 41
0.8
 50
0.0
 71
0
 42
0.2
  3
gdt
  4

  0
ENDTAB
  0
TABLE
  2
VIEW
  5
6
100
AcDbSymbolTable
 70
0
  0
ENDTAB
  0
TABLE
  2
UCS
  5
7
100
AcDbSymbolTable
 70
0
  0
ENDTAB
  0
TABLE
  2
APPID
  5
9
100
AcDbSymbolTable
 70
1
  0
APPID
  5
20F
100
AcDbSymbolTableRecord
100
AcDbRegAppTableRecord
  2
ACAD
 70
0
  0
ENDTAB
  0
TABLE
  2
BLOCK_RECORD
  5
1
100
AcDbSymbolTable
 70
0
  0
BLOCK_RECORD
  5
210
100
AcDbSymbolTableRecord
100
AcDbBlockTableRecord
  2
*Model_Space
  0
BLOCK_RECORD
  5
211
100
AcDbSymbolTableRecord
100
AcDbBlockTableRecord
  2
*Paper_Space
  0
BLOCK_RECORD
  5
212
100
AcDbSymbolTableRecord
100
AcDbBlockTableRecord
  2
_FILLED
  0
ENDTAB
  0
TABLE
  2
DIMSTYLE
  5
A
100
AcDbSymbolTable
 70
1
100
AcDbDimStyleTable
 71
0
  0
DIMSTYLE
105
213
100
AcDbSymbolTableRecord
100
AcDbDimStyleTableRecord
  2
STANDARD
 70
0
  3

  4

 40
1.0
 41
3.3942419825
 42
1.0
 43
0.38
 44
1.0
 45
0.0
 46
0.0
 47
0.01
 48
0.01
140
4.7519387755
141
0.09
142
0.0
143
25.4
144
1.0
145
0.0
146
1.0
147
0.625
 71
1
 72
0
 73
0
 74
0
 75
0
 76
0
 77
1
 78
8
 79
2
170
0
171
1
172
0
173
0
174
0
175
0
176
0
177
0
178
0
270
2
179
2
271
2
272
2
273
2
274
2
275
0
280
0
281
0
282
0
283
1
284
8
285
0
286
0
287
3
288
0
340
11
278
46
341
212
342
212
343
212
344
212
  0
ENDTAB
  0
ENDSEC
  0
SECTION
  2
BLOCKS
  0
BLOCK
  5
20
100
AcDbEntity
  8
0
100
AcDbBlockBegin
  2
*Model_Space
 70
0
 10
0.0
 20
0.0
 30
0.0
  3
*Model_Space
  1

  0
ENDBLK
  5
21
100
AcDbEntity
  8
0
100
AcDbBlockEnd
  0
BLOCK
  5
1C
100
AcDbEntity
  8
0
100
AcDbBlockBegin
  2
*Paper_Space
 70
0
 10
0.0
 20
0.0
 30
0.0
  3
*Paper_Space
  1

  0
ENDBLK
  5
1D
100
AcDbEntity
  8
0
100
AcDbBlockEnd
  0
BLOCK
  5
214
100
AcDbEntity
  8
0
100
AcDbBlockBegin
  2
_FILLED
 70
64
 10
0.0
 20
0.0
  3
_FILLED
  1

  0
SOLID
  5
215
100
AcDbEntity
  8
0
  6
BYBLOCK
 62
0
100
AcDbTrace
 10
0.0
 20
0.0
 11
-1.0
 21
0.25
 12
-1.0
 22
-0.25
 13
-1.0
 23
-0.25
  0
ENDBLK
  5
216
100
AcDbEntity
  8
0
  6
BYBLOCK
 62
0
100
AcDbBlockEnd
  0
ENDSEC
  0
SECTION
  2
ENTITIES
  0
LINE
  5
217
100
AcDbEntity
  8
0
100
AcDbLine
 62
7
  6
CONTINUOUS
 10
242.3366180758
 20
32.8215306122
 11
128.5066180758
 21
32.8215306122
  0
LINE
  5
218
100
AcDbEntity
  8
0
100
AcDbLine
 62
7
  6
CONTINUOUS
 10
213.9378077835
 20
46.1247979058
 11
137.6452125797
 21
46.1247979058
  0
LINE
  5
219
100
AcDbEntity
  8
0
100
AcDbLine
 62
7
  6
CONTINUOUS
 10
137.6452125797
 20
51.8215306122
 11
213.9378077835
 21
51.8215306122
  0
LINE
  5
21A
100
AcDbEntity
  8
0
100
AcDbLine
 62
7
  6
CONTINUOUS
 10
213.9378077835
 20
57.1247979058
 11
137.6452125797
 21
57.1247979058
  0
LINE
  5
21B
100
AcDbEntity
  8
0
100
AcDbLine
 62
7
  6
CONTINUOUS
 10
137.6452125797
 20
62.8215306122
 11
213.9378077835
 21
62.8215306122
  0
LINE
  5
21C
100
AcDbEntity
  8
0
100
AcDbLine
 62
7
  6
CONTINUOUS
 10
213.9378077835
 20
68.1247979058
 11
137.6452125797
 21
68.1247979058
  0
LINE
  5
21D
100
AcDbEntity
  8
0
100
AcDbLine
 62
7
  6
CONTINUOUS
 10
137.6452125797
 20
73.8215306122
 11
213.9378077835
 21
73.8215306122
  0
LINE
  5
21E
100
AcDbEntity
  8
0
100
AcDbLine
 62
7
  6
CONTINUOUS
 10
128.5066180758
 20
74.8215306122
 11
115.5066180758
 21
74.8215306122
  0
LINE
  5
21F
100
AcDbEntity
  8
0
100
AcDbLine
 62
7
  6
CONTINUOUS
 10
213.9378077835
 20
79.1247979058
 11
137.6452125797
 21
79.1247979058
  0
LINE
  5
220
100
AcDbEntity
  8
0
100
AcDbLine
 62
7
  6
CONTINUOUS
 10
45.5066180758
 20
79.8215306122
 11
115.5066180758
 21
79.8215306122
  0
LINE
  5
221
100
AcDbEntity
  8
0
100
AcDbLine
 62
7
  6
CONTINUOUS
 10
55.5066180758
 20
82.8215306122
 11
45.5066180758
 21
82.8215306122
  0
LINE
  5
222
100
AcDbEntity
  8
0
100
AcDbLine
 62
7
  6
CONTINUOUS
 10
137.6452125797
 20
84.8215306122
 11
213.9378077835
 21
84.8215306122
  0
LINE
  5
223
100
AcDbEntity
  8
0
100
AcDbLine
 62
7
  6
CONTINUOUS
 10
213.9378077835
 20
90.1247979058
 11
137.6452125797
 21
90.1247979058
  0
LINE
  5
224
100
AcDbEntity
  8
0
100
AcDbLine
 62
7
  6
CONTINUOUS
 10
128.5066180758
 20
90.8215306122
 11
115.5066180758
 21
90.8215306122
  0
LINE
  5
225
100
AcDbEntity
  8
0
100
AcDbLine
 62
7
  6
CONTINUOUS
 10
135.8564757364
 20
90.8215589275
 11
136.557977868
 21
90.8215589275
  0
LINE
  5
226
100
AcDbEntity
  8
0
100
AcDbLine
 62
7
  6
CONTINUOUS
 10
135.7677131375
 20
90.9437160667
 11
136.5704209873
 21
90.9437160667
  0
LINE
  5
227
100
AcDbEntity
  8
0
100
AcDbLine
 62
7
  6
CONTINUOUS
 10
55.5066180758
 20
91.0483268436
 11
115.5066180758
 21
91.0483268436
  0
LINE
  5
228
100
AcDbEntity
  8
0
100
AcDbLine
 62
7
  6
CONTINUOUS
 10
128.5066180758
 20
91.1096915
 11
115.5066180758
 21
91.1096915
  0
LINE
  5
229
100
AcDbEntity
  8
0
100
AcDbLine
 62
7
  6
CONTINUOUS
 10
128.5066180758
 20
91.6096153475
 11
115.5066180758
 21
91.6096153475
  0
LINE
  5
22A
100
AcDbEntity
  8
0
100
AcDbLine
 62
7
  6
CONTINUOUS
 10
115.5066180758
 20
94.8389830186
 11
55.5066180758
 21
94.8389830186
  0
LINE
  5
22B
100
AcDbEntity
  8
0
100
AcDbLine
 62
7
  6
CONTINUOUS
 10
137.6452125797
 20
95.8215306122
 11
213.9378077835
 21
95.8215306122
  0
LINE
  5
22C
100
AcDbEntity
  8
0
100
AcDbLine
 62
7
  6
CONTINUOUS
 10
45.5066180758
 20
79.8215306122
 11
45.5066180758
 21
358.8215306122
  0
LINE
  5
22D
100
AcDbEntity
  8
0
100
AcDbLine
 62
7
  6
CONTINUOUS
 10
55.5066180758
 20
358.8215306122
 11
55.5066180758
 21
329.0795932685
  0
LINE
  5
22E
100
AcDbEntity
  8
0
100
AcDbLine
 62
7
  6
CONTINUOUS
 10
55.5066180758
 20
94.8389830186
 11
55.5066180758
 21
79.8215306122
  0
LINE
  5
22F
100
AcDbEntity
  8
0
100
AcDbLine
 62
7
  6
CONTINUOUS
 10
213.9378077835
 20
101.1247979058
 11
137.6452125797
 21
101.1247979058
  0
LINE
  5
230
100
AcDbEntity
  8
0
100
AcDbLine
 62
7
  6
CONTINUOUS
 10
137.6452125797
 20
106.8215306122
 11
213.9378077835
 21
106.8215306122
  0
LINE
  5
231
100
AcDbEntity
  8
0
100
AcDbLine
 62
7
  6
CONTINUOUS
 10
66.5066180758
 20
344.8591055148
 11
66.5066180758
 21
337.3871383252
  0
LINE
  5
232
100
AcDbEntity
  8
0
100
AcDbLine
 62
7
  6
CONTINUOUS
 10
210.5066180758
 20
122.3165306122
 11
226.0589752951
 21
122.5879980173
  0
LINE
  5
233
100
AcDbEntity
  8
0
100
AcDbLine
 62
7
  6
CONTINUOUS
 10
128.5066180758
 20
122.3165306122
 11
229.0066180758
 21
122.3165306122
  0
LINE
  5
234
100
AcDbEntity
  8
0
100
AcDbLine
 62
7
  6
CONTINUOUS
 10
71.5066180758
 20
337.3790631317
 11
71.5066180758
 21
344.8510304636
  0
LINE
  5
235
100
AcDbEntity
  8
0
100
AcDbLine
 62
7
  6
CONTINUOUS
 10
75.5066143101
 20
344.8583470474
 11
75.5066143101
 21
337.3863798577
  0
LINE
  5
236
100
AcDbEntity
  8
0
100
AcDbLine
 62
7
  6
CONTINUOUS
 10
80.5066143101
 20
337.3783046643
 11
80.5066143101
 21
344.8502719962
  0
LINE
  5
237
100
AcDbEntity
  8
0
100
AcDbLine
 62
7
  6
CONTINUOUS
 10
84.5066105444
 20
344.8575885799
 11
84.5066105444
 21
337.3856213903
  0
LINE
  5
238
100
AcDbEntity
  8
0
100
AcDbLine
 62
7
  6
CONTINUOUS
 10
89.5066105444
 20
337.3775461968
 11
89.5066105444
 21
344.8495135287
  0
LINE
  5
239
100
AcDbEntity
  8
0
100
AcDbLine
 62
7
  6
CONTINUOUS
 10
233.9266180758
 20
161.1517319873
 11
229.0066180758
 21
160.0766926172
  0
LINE
  5
23A
100
AcDbEntity
  8
0
100
AcDbLine
 62
7
  6
CONTINUOUS
 10
229.0066180758
 20
160.1278626068
 11
233.6066180758
 21
161.1287948561
  0
LINE
  5
23B
100
AcDbEntity
  8
0
100
AcDbLine
 62
7
  6
CONTINUOUS
 10
213.9378077834
 20
141.7084244449
 11
137.6452125798
 21
141.7084244449
  0
LINE
  5
23C
100
AcDbEntity
  8
0
100
AcDbLine
 62
7
  6
CONTINUOUS
 10
137.6452125798
 20
147.4051571514
 11
213.9378077834
 21
147.4051571514
  0
LINE
  5
23D
100
AcDbEntity
  8
0
100
AcDbLine
 62
7
  6
CONTINUOUS
 10
101.0066180758
 20
314.7515306122
 11
101.0066180758
 21
371.4015306122
  0
LINE
  5
23E
100
AcDbEntity
  8
0
100
AcDbLine
 62
7
  6
CONTINUOUS
 10
213.9378077834
 20
151.7084244449
 11
137.6452125798
 21
151.7084244449
  0
LINE
  5
23F
100
AcDbEntity
  8
0
100
AcDbLine
 62
7
  6
CONTINUOUS
 10
137.6452125798
 20
157.4051571514
 11
213.9378077834
 21
157.4051571514
  0
LINE
  5
240
100
AcDbEntity
  8
0
100
AcDbLine
 62
7
  6
CONTINUOUS
 10
213.9378077834
 20
161.7084244449
 11
137.6452125798
 21
161.7084244449
  0
LINE
  5
241
100
AcDbEntity
  8
0
100
AcDbLine
 62
7
  6
CONTINUOUS
 10
115.5066180758
 20
74.8215306122
 11
115.5066180758
 21
314.7515306122
  0
LINE
  5
242
100
AcDbEntity
  8
0
100
AcDbLine
 62
7
  6
CONTINUOUS
 10
137.6452125798
 20
167.4051571514
 11
213.9378077834
 21
167.4051571514
  0
LINE
  5
243
100
AcDbEntity
  8
0
100
AcDbLine
 62
7
  6
CONTINUOUS
 10
213.9378077834
 20
171.7084244449
 11
137.6452125798
 21
171.7084244449
  0
LINE
  5
244
100
AcDbEntity
  8
0
100
AcDbLine
 62
7
  6
CONTINUOUS
 10
137.6452125798
 20
177.4051571514
 11
213.9378077834
 21
177.4051571514
  0
LINE
  5
245
100
AcDbEntity
  8
0
100
AcDbLine
 62
7
  6
CONTINUOUS
 10
128.5066180758
 20
32.8215306122
 11
128.5066180758
 21
122.3165306122
  0
LINE
  5
246
100
AcDbEntity
  8
0
100
AcDbLine
 62
7
  6
CONTINUOUS
 10
233.6066180758
 20
194.850849183
 11
241.3066180758
 21
195.2543890835
  0
LINE
  5
247
100
AcDbEntity
  8
0
100
AcDbLine
 62
7
  6
CONTINUOUS
 10
213.9378077834
 20
181.7084244449
 11
137.6452125798
 21
181.7084244449
  0
LINE
  5
248
100
AcDbEntity
  8
0
100
AcDbLine
 62
7
  6
CONTINUOUS
 10
137.6452125798
 20
187.4051571514
 11
213.9378077834
 21
187.4051571514
  0
LINE
  5
249
100
AcDbEntity
  8
0
100
AcDbLine
 62
7
  6
CONTINUOUS
 10
136.557977868
 20
90.8215589275
 11
136.5667183678
 21
90.9073665482
  0
LINE
  5
24A
100
AcDbEntity
  8
0
100
AcDbLine
 62
7
  6
CONTINUOUS
 10
136.5704209873
 20
90.9437160667
 11
136.5873275072
 21
91.1096915
  0
LINE
  5
24B
100
AcDbEntity
  8
0
100
AcDbLine
 62
7
  6
CONTINUOUS
 10
242.3466180758
 20
191.1286041759
 11
241.7566180758
 21
191.1286041759
  0
LINE
  5
24C
100
AcDbEntity
  8
0
100
AcDbLine
 62
7
  6
CONTINUOUS
 10
213.9378077834
 20
191.7084244449
 11
137.6452125798
 21
191.7084244449
  0
LINE
  5
24D
100
AcDbEntity
  8
0
100
AcDbLine
 62
7
  6
CONTINUOUS
 10
241.7566180758
 20
194.9365306122
 11
233.9266180758
 21
194.9365306122
  0
LINE
  5
24E
100
AcDbEntity
  8
0
100
AcDbLine
 62
7
  6
CONTINUOUS
 10
137.6452125798
 20
197.4051571514
 11
213.9378077834
 21
197.4051571514
  0
LINE
  5
24F
100
AcDbEntity
  8
0
100
AcDbLine
 62
7
  6
CONTINUOUS
 10
213.9378077834
 20
201.7084244449
 11
137.6452125798
 21
201.7084244449
  0
LINE
  5
250
100
AcDbEntity
  8
0
100
AcDbLine
 62
7
  6
CONTINUOUS
 10
137.6452125798
 20
207.4051571514
 11
213.9378077834
 21
207.4051571514
  0
LINE
  5
251
100
AcDbEntity
  8
0
100
AcDbLine
 62
7
  6
CONTINUOUS
 10
213.9378077834
 20
211.7084244449
 11
137.6452125798
 21
211.7084244449
  0
LINE
  5
252
100
AcDbEntity
  8
0
100
AcDbLine
 62
7
  6
CONTINUOUS
 10
241.3066180758
 20
214.270258685
 11
244.3200079461
 21
214.270258685
  0
LINE
  5
253
100
AcDbEntity
  8
0
100
AcDbLine
 62
7
  6
CONTINUOUS
 10
137.6452125798
 20
217.4051571514
 11
213.9378077834
 21
217.4051571514
  0
LINE
  5
254
100
AcDbEntity
  8
0
100
AcDbLine
 62
7
  6
CONTINUOUS
 10
244.7336273204
 20
221.0408943634
 11
241.3066180758
 21
221.0408943634
  0
LINE
  5
255
100
AcDbEntity
  8
0
100
AcDbLine
 62
7
  6
CONTINUOUS
 10
213.9378077834
 20
221.7084244449
 11
137.6452125798
 21
221.7084244449
  0
LINE
  5
256
100
AcDbEntity
  8
0
100
AcDbLine
 62
7
  6
CONTINUOUS
 10
137.6452125798
 20
227.4051571514
 11
213.9378077834
 21
227.4051571514
  0
LINE
  5
257
100
AcDbEntity
  8
0
100
AcDbLine
 62
7
  6
CONTINUOUS
 10
213.9378077834
 20
231.7084244449
 11
137.6452125798
 21
231.7084244449
  0
LINE
  5
258
100
AcDbEntity
  8
0
100
AcDbLine
 62
7
  6
CONTINUOUS
 10
137.6452125798
 20
237.4051571514
 11
213.9378077834
 21
237.4051571514
  0
LINE
  5
259
100
AcDbEntity
  8
0
100
AcDbLine
 62
7
  6
CONTINUOUS
 10
213.9378077834
 20
241.7084244449
 11
137.6452125798
 21
241.7084244449
  0
LINE
  5
25A
100
AcDbEntity
  8
0
100
AcDbLine
 62
7
  6
CONTINUOUS
 10
136.5873275072
 20
91.1096915
 11
139.307709087
 21
95.8215306122
  0
LINE
  5
25B
100
AcDbEntity
  8
0
100
AcDbLine
 62
7
  6
CONTINUOUS
 10
137.6452125798
 20
247.4051571514
 11
213.9378077834
 21
247.4051571514
  0
LINE
  5
25C
100
AcDbEntity
  8
0
100
AcDbLine
 62
7
  6
CONTINUOUS
 10
213.9378077834
 20
251.7084244449
 11
137.6452125798
 21
251.7084244449
  0
LINE
  5
25D
100
AcDbEntity
  8
0
100
AcDbLine
 62
7
  6
CONTINUOUS
 10
137.6452125798
 20
257.4051571514
 11
213.9378077834
 21
257.4051571514
  0
LINE
  5
25E
100
AcDbEntity
  8
0
100
AcDbLine
 62
7
  6
CONTINUOUS
 10
213.9378077834
 20
261.7084244449
 11
137.6452125798
 21
261.7084244449
  0
LINE
  5
25F
100
AcDbEntity
  8
0
100
AcDbLine
 62
7
  6
CONTINUOUS
 10
137.6452125798
 20
267.4051571514
 11
213.9378077834
 21
267.4051571514
  0
LINE
  5
260
100
AcDbEntity
  8
0
100
AcDbLine
 62
7
  6
CONTINUOUS
 10
213.9378077834
 20
271.7084244449
 11
137.6452125798
 21
271.7084244449
  0
LINE
  5
261
100
AcDbEntity
  8
0
100
AcDbLine
 62
7
  6
CONTINUOUS
 10
137.6452125798
 20
277.4051571514
 11
213.9378077834
 21
277.4051571514
  0
LINE
  5
262
100
AcDbEntity
  8
0
100
AcDbLine
 62
7
  6
CONTINUOUS
 10
213.9378077834
 20
281.7084244449
 11
137.6452125798
 21
281.7084244449
  0
LINE
  5
263
100
AcDbEntity
  8
0
100
AcDbLine
 62
7
  6
CONTINUOUS
 10
229.0066180758
 20
122.3165576131
 11
229.0066180758
 21
160.1278626068
  0
LINE
  5
264
100
AcDbEntity
  8
0
100
AcDbLine
 62
7
  6
CONTINUOUS
 10
233.6066180758
 20
194.850849183
 11
233.6066180758
 21
161.1287948561
  0
LINE
  5
265
100
AcDbEntity
  8
0
100
AcDbLine
 62
7
  6
CONTINUOUS
 10
233.9266180758
 20
194.9365306122
 11
233.9266180758
 21
161.1517319873
  0
LINE
  5
266
100
AcDbEntity
  8
0
100
AcDbLine
 62
7
  6
CONTINUOUS
 10
137.6452125798
 20
287.4051571514
 11
213.9378077834
 21
287.4051571514
  0
LINE
  5
267
100
AcDbEntity
  8
0
100
AcDbLine
 62
7
  6
CONTINUOUS
 10
213.9378077834
 20
291.7084244449
 11
137.6452125798
 21
291.7084244449
  0
LINE
  5
268
100
AcDbEntity
  8
0
100
AcDbLine
 62
7
  6
CONTINUOUS
 10
241.3066180758
 20
195.2543890835
 11
241.3066180758
 21
314.7515306122
  0
LINE
  5
269
100
AcDbEntity
  8
0
100
AcDbLine
 62
7
  6
CONTINUOUS
 10
241.7566180758
 20
191.1286041759
 11
241.7566180758
 21
194.9365306122
  0
LINE
  5
26A
100
AcDbEntity
  8
0
100
AcDbLine
 62
7
  6
CONTINUOUS
 10
242.3366180758
 20
32.8215306122
 11
242.3366180758
 21
177.508604176
  0
LINE
  5
26B
100
AcDbEntity
  8
0
100
AcDbLine
 62
7
  6
CONTINUOUS
 10
244.7336273204
 20
314.7515306122
 11
244.7336273204
 21
221.0408943634
  0
LINE
  5
26C
100
AcDbEntity
  8
0
100
AcDbLine
 62
7
  6
CONTINUOUS
 10
247.5066180758
 20
314.7515306122
 11
247.5066180758
 21
371.4015306122
  0
LINE
  5
26D
100
AcDbEntity
  8
0
100
AcDbLine
 62
7
  6
CONTINUOUS
 10
242.3366180758
 20
177.508604176
 11
242.3466180758
 21
191.1286041759
  0
LINE
  5
26E
100
AcDbEntity
  8
0
100
AcDbLine
 62
7
  6
CONTINUOUS
 10
137.6452125798
 20
297.4051571514
 11
213.9378077834
 21
297.4051571514
  0
LINE
  5
26F
100
AcDbEntity
  8
0
100
AcDbLine
 62
7
  6
CONTINUOUS
 10
213.9378077834
 20
301.7084244449
 11
137.6452125798
 21
301.7084244449
  0
LINE
  5
270
100
AcDbEntity
  8
0
100
AcDbLine
 62
7
  6
CONTINUOUS
 10
137.6452125798
 20
307.4051571514
 11
213.9378077834
 21
307.4051571514
  0
LINE
  5
271
100
AcDbEntity
  8
0
100
AcDbLine
 62
7
  6
CONTINUOUS
 10
93.0066180758
 20
305.8329840145
 11
63.0066180758
 21
305.8787976236
  0
LINE
  5
272
100
AcDbEntity
  8
0
100
AcDbLine
 62
7
  6
CONTINUOUS
 10
63.0066180758
 20
310.7642636009
 11
93.0066180758
 21
310.81007721
  0
LINE
  5
273
100
AcDbEntity
  8
0
100
AcDbLine
 62
7
  6
CONTINUOUS
 10
63.0066180754
 20
318.7642636009
 11
93.0066180758
 21
318.8100772099
  0
LINE
  5
274
100
AcDbEntity
  8
0
100
AcDbLine
 62
7
  6
CONTINUOUS
 10
213.9378077834
 20
311.7084244449
 11
137.6452125798
 21
311.7084244449
  0
LINE
  5
275
100
AcDbEntity
  8
0
100
AcDbLine
 62
7
  6
CONTINUOUS
 10
247.5066180758
 20
314.7515306122
 11
101.0066180758
 21
314.7515306122
  0
LINE
  5
276
100
AcDbEntity
  8
0
100
AcDbLine
 62
7
  6
CONTINUOUS
 10
93.0066180758
 20
313.8329840145
 11
63.0066180758
 21
313.8787976236
  0
LINE
  5
277
100
AcDbEntity
  8
0
100
AcDbLine
 62
7
  6
CONTINUOUS
 10
101.0066180758
 20
329.0795932685
 11
55.5066180758
 21
329.0795932685
  0
LINE
  5
278
100
AcDbEntity
  8
0
100
AcDbLine
 62
7
  6
CONTINUOUS
 10
55.5066180758
 20
329.6065435536
 11
101.0066180758
 21
329.6065435536
  0
LINE
  5
279
100
AcDbEntity
  8
0
100
AcDbLine
 62
7
  6
CONTINUOUS
 10
101.0066180758
 20
334.3484421353
 11
55.5066180758
 21
334.3484421353
  0
LINE
  5
27A
100
AcDbEntity
  8
0
100
AcDbLine
 62
7
  6
CONTINUOUS
 10
247.5066180758
 20
347.5915306122
 11
101.0066180758
 21
347.5915306122
  0
LINE
  5
27B
100
AcDbEntity
  8
0
100
AcDbLine
 62
7
  6
CONTINUOUS
 10
55.5066180758
 20
349.9436123852
 11
101.0066180758
 21
349.9436123852
  0
LINE
  5
27C
100
AcDbEntity
  8
0
100
AcDbLine
 62
7
  6
CONTINUOUS
 10
101.0066180758
 20
351.3651084836
 11
55.5066180758
 21
351.3651084836
  0
LINE
  5
27D
100
AcDbEntity
  8
0
100
AcDbLine
 62
7
  6
CONTINUOUS
 10
45.5066180758
 20
355.8215306122
 11
55.5066180758
 21
355.8215306122
  0
LINE
  5
27E
100
AcDbEntity
  8
0
100
AcDbLine
 62
7
  6
CONTINUOUS
 10
55.5066180758
 20
358.8215306122
 11
45.5066180758
 21
358.8215306122
  0
LINE
  5
27F
100
AcDbEntity
  8
0
100
AcDbLine
 62
7
  6
CONTINUOUS
 10
247.5066180758
 20
371.4015306122
 11
101.0066180758
 21
371.4015306122
  0
ARC
  5
280
100
AcDbEntity
  8
0
100
AcDbCircle
 62
7
  6
CONTINUOUS
 10
146.5118938924
 20
111.3125806321
 40
13.6999495485
100
AcDbArc
 50
309.594186592
 51
337.8338202981
  0
ARC
  5
281
100
AcDbEntity
  8
0
100
AcDbCircle
 62
7
  6
CONTINUOUS
 10
137.6452125798
 20
103.973164259
 40
2.8483663532
100
AcDbArc
 50
90.0000000024
 51
269.9999999976
  0
ARC
  5
282
100
AcDbEntity
  8
0
100
AcDbCircle
 62
7
  6
CONTINUOUS
 10
137.6452125798
 20
92.973164259
 40
2.8483663532
100
AcDbArc
 50
90.0000000024
 51
269.9999999976
  0
ARC
  5
283
100
AcDbEntity
  8
0
100
AcDbCircle
 62
7
  6
CONTINUOUS
 10
137.6452125798
 20
81.973164259
 40
2.8483663532
100
AcDbArc
 50
90.0000000024
 51
269.9999999976
  0
ARC
  5
284
100
AcDbEntity
  8
0
100
AcDbCircle
 62
7
  6
CONTINUOUS
 10
137.6452125798
 20
70.973164259
 40
2.8483663532
100
AcDbArc
 50
90.0000000024
 51
269.9999999976
  0
ARC
  5
285
100
AcDbEntity
  8
0
100
AcDbCircle
 62
7
  6
CONTINUOUS
 10
137.6452125798
 20
59.973164259
 40
2.8483663532
100
AcDbArc
 50
90.0000000024
 51
269.9999999976
  0
ARC
  5
286
100
AcDbEntity
  8
0
100
AcDbCircle
 62
7
  6
CONTINUOUS
 10
137.6452125798
 20
48.973164259
 40
2.8483663532
100
AcDbArc
 50
90.0000000024
 51
269.9999999976
  0
ARC
  5
287
100
AcDbEntity
  8
0
100
AcDbCircle
 62
7
  6
CONTINUOUS
 10
137.6452125798
 20
174.5567907982
 40
2.8483663532
100
AcDbArc
 50
89.9999999999
 51
270.0000000001
  0
ARC
  5
288
100
AcDbEntity
  8
0
100
AcDbCircle
 62
7
  6
CONTINUOUS
 10
137.6452125798
 20
164.5567907982
 40
2.8483663532
100
AcDbArc
 50
89.9999999999
 51
270.0000000001
  0
ARC
  5
289
100
AcDbEntity
  8
0
100
AcDbCircle
 62
7
  6
CONTINUOUS
 10
137.6452125798
 20
154.5567907982
 40
2.8483663532
100
AcDbArc
 50
89.9999999999
 51
270.0000000001
  0
ARC
  5
28A
100
AcDbEntity
  8
0
100
AcDbCircle
 62
7
  6
CONTINUOUS
 10
137.6452125798
 20
144.5567907982
 40
2.8483663532
100
AcDbArc
 50
89.9999999999
 51
270.0000000001
  0
ARC
  5
28B
100
AcDbEntity
  8
0
100
AcDbCircle
 62
7
  6
CONTINUOUS
 10
137.6452125798
 20
314.5567907982
 40
2.8483663532
100
AcDbArc
 50
172.6967238353
 51
270.0000000001
  0
ARC
  5
28C
100
AcDbEntity
  8
0
100
AcDbCircle
 62
7
  6
CONTINUOUS
 10
137.6452125798
 20
304.5567907982
 40
2.8483663532
100
AcDbArc
 50
89.9999999999
 51
270.0000000001
  0
ARC
  5
28D
100
AcDbEntity
  8
0
100
AcDbCircle
 62
7
  6
CONTINUOUS
 10
137.6452125798
 20
294.5567907982
 40
2.8483663532
100
AcDbArc
 50
89.9999999999
 51
270.0000000001
  0
ARC
  5
28E
100
AcDbEntity
  8
0
100
AcDbCircle
 62
7
  6
CONTINUOUS
 10
137.6452125798
 20
284.5567907982
 40
2.8483663532
100
AcDbArc
 50
89.9999999999
 51
270.0000000001
  0
ARC
  5
28F
100
AcDbEntity
  8
0
100
AcDbCircle
 62
7
  6
CONTINUOUS
 10
137.6452125798
 20
274.5567907982
 40
2.8483663532
100
AcDbArc
 50
89.9999999999
 51
270.0000000001
  0
ARC
  5
290
100
AcDbEntity
  8
0
100
AcDbCircle
 62
7
  6
CONTINUOUS
 10
137.6452125798
 20
264.5567907982
 40
2.8483663532
100
AcDbArc
 50
89.9999999999
 51
270.0000000001
  0
ARC
  5
291
100
AcDbEntity
  8
0
100
AcDbCircle
 62
7
  6
CONTINUOUS
 10
137.6452125798
 20
254.5567907982
 40
2.8483663532
100
AcDbArc
 50
89.9999999999
 51
270.0000000001
  0
ARC
  5
292
100
AcDbEntity
  8
0
100
AcDbCircle
 62
7
  6
CONTINUOUS
 10
137.6452125798
 20
244.5567907982
 40
2.8483663532
100
AcDbArc
 50
89.9999999999
 51
270.0000000001
  0
ARC
  5
293
100
AcDbEntity
  8
0
100
AcDbCircle
 62
7
  6
CONTINUOUS
 10
137.6452125798
 20
234.5567907982
 40
2.8483663532
100
AcDbArc
 50
89.9999999999
 51
270.0000000001
  0
ARC
  5
294
100
AcDbEntity
  8
0
100
AcDbCircle
 62
7
  6
CONTINUOUS
 10
137.6452125798
 20
224.5567907982
 40
2.8483663532
100
AcDbArc
 50
89.9999999999
 51
270.0
  0
ARC
  5
295
100
AcDbEntity
  8
0
100
AcDbCircle
 62
7
  6
CONTINUOUS
 10
137.6452125798
 20
214.5567907982
 40
2.8483663532
100
AcDbArc
 50
90.0000000001
 51
270.0
  0
ARC
  5
296
100
AcDbEntity
  8
0
100
AcDbCircle
 62
7
  6
CONTINUOUS
 10
137.6452125798
 20
204.5567907982
 40
2.8483663532
100
AcDbArc
 50
90.0000000001
 51
270.0000000001
  0
ARC
  5
297
100
AcDbEntity
  8
0
100
AcDbCircle
 62
7
  6
CONTINUOUS
 10
137.6452125798
 20
194.5567907982
 40
2.8483663532
100
AcDbArc
 50
89.9999999999
 51
270.0000000001
  0
ARC
  5
298
100
AcDbEntity
  8
0
100
AcDbCircle
 62
7
  6
CONTINUOUS
 10
137.6452125798
 20
184.5567907982
 40
2.8483663532
100
AcDbArc
 50
89.9999999999
 51
270.0000000001
  0
ARC
  5
299
100
AcDbEntity
  8
0
100
AcDbCircle
 62
7
  6
CONTINUOUS
 10
226.0066180758
 20
125.5875411028
 40
3.0
100
AcDbArc
 50
270.9999999999
 51
360.0
  0
ARC
  5
29A
100
AcDbEntity
  8
0
100
AcDbCircle
 62
7
  6
CONTINUOUS
 10
213.9378077834
 20
103.973164259
 40
2.8483663532
100
AcDbArc
 50
270.0000000024
 51
89.9999999976
  0
ARC
  5
29B
100
AcDbEntity
  8
0
100
AcDbCircle
 62
7
  6
CONTINUOUS
 10
213.9378077834
 20
92.973164259
 40
2.8483663532
100
AcDbArc
 50
270.0000000024
 51
89.9999999976
  0
ARC
  5
29C
100
AcDbEntity
  8
0
100
AcDbCircle
 62
7
  6
CONTINUOUS
 10
213.9378077834
 20
81.973164259
 40
2.8483663532
100
AcDbArc
 50
270.0000000024
 51
89.9999999976
  0
ARC
  5
29D
100
AcDbEntity
  8
0
100
AcDbCircle
 62
7
  6
CONTINUOUS
 10
213.9378077834
 20
70.973164259
 40
2.8483663532
100
AcDbArc
 50
270.0000000024
 51
89.9999999976
  0
ARC
  5
29E
100
AcDbEntity
  8
0
100
AcDbCircle
 62
7
  6
CONTINUOUS
 10
213.9378077834
 20
59.973164259
 40
2.8483663532
100
AcDbArc
 50
270.0000000024
 51
89.9999999976
  0
ARC
  5
29F
100
AcDbEntity
  8
0
100
AcDbCircle
 62
7
  6
CONTINUOUS
 10
213.9378077834
 20
48.973164259
 40
2.8483663532
100
AcDbArc
 50
270.0000000024
 51
89.9999999976
  0
ARC
  5
2A0
100
AcDbEntity
  8
0
100
AcDbCircle
 62
7
  6
CONTINUOUS
 10
213.9378077834
 20
174.5567907982
 40
2.8483663532
100
AcDbArc
 50
269.9999999999
 51
90.0000000001
  0
ARC
  5
2A1
100
AcDbEntity
  8
0
100
AcDbCircle
 62
7
  6
CONTINUOUS
 10
213.9378077834
 20
164.5567907982
 40
2.8483663532
100
AcDbArc
 50
269.9999999999
 51
90.0000000001
  0
ARC
  5
2A2
100
AcDbEntity
  8
0
100
AcDbCircle
 62
7
  6
CONTINUOUS
 10
213.9378077834
 20
154.5567907982
 40
2.8483663532
100
AcDbArc
 50
269.9999999999
 51
90.0000000001
  0
ARC
  5
2A3
100
AcDbEntity
  8
0
100
AcDbCircle
 62
7
  6
CONTINUOUS
 10
213.9378077834
 20
144.5567907982
 40
2.8483663532
100
AcDbArc
 50
269.9999999999
 51
90.0000000001
  0
ARC
  5
2A4
100
AcDbEntity
  8
0
100
AcDbCircle
 62
7
  6
CONTINUOUS
 10
213.9378077834
 20
314.5567907982
 40
2.8483663532
100
AcDbArc
 50
269.9999999999
 51
6.943019046
  0
ARC
  5
2A5
100
AcDbEntity
  8
0
100
AcDbCircle
 62
7
  6
CONTINUOUS
 10
213.9378077834
 20
304.5567907982
 40
2.8483663532
100
AcDbArc
 50
269.9999999999
 51
90.0000000001
  0
ARC
  5
2A6
100
AcDbEntity
  8
0
100
AcDbCircle
 62
7
  6
CONTINUOUS
 10
213.9378077834
 20
294.5567907982
 40
2.8483663532
100
AcDbArc
 50
269.9999999999
 51
90.0000000001
  0
ARC
  5
2A7
100
AcDbEntity
  8
0
100
AcDbCircle
 62
7
  6
CONTINUOUS
 10
213.9378077834
 20
284.5567907982
 40
2.8483663532
100
AcDbArc
 50
269.9999999999
 51
90.0000000001
  0
ARC
  5
2A8
100
AcDbEntity
  8
0
100
AcDbCircle
 62
7
  6
CONTINUOUS
 10
213.9378077834
 20
274.5567907982
 40
2.8483663532
100
AcDbArc
 50
269.9999999999
 51
90.0000000001
  0
ARC
  5
2A9
100
AcDbEntity
  8
0
100
AcDbCircle
 62
7
  6
CONTINUOUS
 10
213.9378077834
 20
264.5567907982
 40
2.8483663532
100
AcDbArc
 50
269.9999999999
 51
90.0000000001
  0
ARC
  5
2AA
100
AcDbEntity
  8
0
100
AcDbCircle
 62
7
  6
CONTINUOUS
 10
213.9378077834
 20
254.5567907982
 40
2.8483663532
100
AcDbArc
 50
269.9999999999
 51
90.0000000001
  0
ARC
  5
2AB
100
AcDbEntity
  8
0
100
AcDbCircle
 62
7
  6
CONTINUOUS
 10
213.9378077834
 20
244.5567907982
 40
2.8483663532
100
AcDbArc
 50
269.9999999999
 51
90.0000000001
  0
ARC
  5
2AC
100
AcDbEntity
  8
0
100
AcDbCircle
 62
7
  6
CONTINUOUS
 10
213.9378077834
 20
234.5567907982
 40
2.8483663532
100
AcDbArc
 50
269.9999999999
 51
90.0000000001
  0
ARC
  5
2AD
100
AcDbEntity
  8
0
100
AcDbCircle
 62
7
  6
CONTINUOUS
 10
213.9378077834
 20
224.5567907982
 40
2.8483663532
100
AcDbArc
 50
270.0
 51
90.0000000001
  0
ARC
  5
2AE
100
AcDbEntity
  8
0
100
AcDbCircle
 62
7
  6
CONTINUOUS
 10
213.9378077834
 20
214.5567907982
 40
2.8483663532
100
AcDbArc
 50
270.0
 51
89.9999999999
  0
ARC
  5
2AF
100
AcDbEntity
  8
0
100
AcDbCircle
 62
7
  6
CONTINUOUS
 10
213.9378077834
 20
204.5567907982
 40
2.8483663532
100
AcDbArc
 50
269.9999999999
 51
89.9999999999
  0
ARC
  5
2B0
100
AcDbEntity
  8
0
100
AcDbCircle
 62
7
  6
CONTINUOUS
 10
213.9378077834
 20
194.5567907982
 40
2.8483663532
100
AcDbArc
 50
269.9999999999
 51
90.0000000001
  0
ARC
  5
2B1
100
AcDbEntity
  8
0
100
AcDbCircle
 62
7
  6
CONTINUOUS
 10
213.9378077834
 20
184.5567907982
 40
2.8483663532
100
AcDbArc
 50
269.9999999999
 51
90.0000000001
  0
SPLINE
  5
2B2
100
AcDbEntity
  8
0
100
AcDbSpline
 62
7
  6
CONTINUOUS
 70
0
 71
3
 72
18
 73
14
 74
0
 42
0.0000001
 43
0.0000001
 44
0.0000000001
 40
0.0
 40
0.0
 40
0.0
 40
0.0
 40
0.0072509283
 40
0.0225656706
 40
0.0468727253
 40
0.08014286
 40
0.1221406409
 40
0.1725081544
 40
0.2964065934
 40
0.4472274213
 40
0.6192287534
 40
0.805903453
 40
1.0
 40
1.0
 40
1.0
 40
1.0
 10
244.3200079461
 20
214.2702586851
 30
0.0
 10
244.3364692141
 20
214.2702586851
 30
0.0
 10
244.3720922261
 20
214.3219347259
 30
0.0
 10
244.4005979029
 20
214.4170363421
 30
0.0
 10
244.4385416108
 20
214.5821007301
 30
0.0
 10
244.4730697939
 20
214.8040088192
 30
0.0
 10
244.5087877806
 20
215.0875980256
 30
0.0
 10
244.5576953815
 20
215.575897095
 30
0.0
 10
244.6116258176
 20
216.3122203491
 30
0.0
 10
244.6636183763
 20
217.3250255087
 30
0.0
 10
244.7032416605
 20
218.4810944136
 30
0.0
 10
244.7280286438
 20
219.73579973
 30
0.0
 10
244.7336273192
 20
220.6002507451
 30
0.0
 10
244.7336273204
 20
221.0408943634
 30
0.0
  0
SPLINE
  5
2B3
100
AcDbEntity
  8
0
100
AcDbSpline
 62
7
  6
CONTINUOUS
 70
0
 71
3
 72
15
 73
11
 74
0
 42
0.0000001
 43
0.0000001
 44
0.0000000001
 40
0.0
 40
0.0
 40
0.0
 40
0.0
 40
0.125073932
 40
0.2501469883
 40
0.3754006041
 40
0.5006740026
 40
0.6258088824
 40
0.7507306747
 40
0.8754280872
 40
1.0
 40
1.0
 40
1.0
 40
1.0
 10
89.4935658997
 20
344.824602239
 30
0.0
 10
89.4623873981
 20
345.1270309795
 30
0.0
 10
89.2868023258
 20
345.7262552245
 30
0.0
 10
88.7180991407
 20
346.4652801798
 30
0.0
 10
87.9218764173
 20
346.9530679876
 30
0.0
 10
87.0037456753
 20
347.1231999389
 30
0.0
 10
86.0862697032
 20
346.9540568959
 30
0.0
 10
85.2915031242
 20
346.4676453403
 30
0.0
 10
84.7253106562
 20
345.7304732956
 30
0.0
 10
84.5502911975
 20
345.1333822224
 30
0.0
 10
84.519491908
 20
344.8321412798
 30
0.0
  0
SPLINE
  5
2B4
100
AcDbEntity
  8
0
100
AcDbSpline
 62
7
  6
CONTINUOUS
 70
0
 71
3
 72
15
 73
11
 74
0
 42
0.0000001
 43
0.0000001
 44
0.0000000001
 40
0.0
 40
0.0
 40
0.0
 40
0.0
 40
0.125073932
 40
0.2501469883
 40
0.3754006041
 40
0.5006740026
 40
0.6258088824
 40
0.7507306747
 40
0.8754280872
 40
1.0
 40
1.0
 40
1.0
 40
1.0
 10
80.4935696654
 20
344.8253607065
 30
0.0
 10
80.4623911638
 20
345.127789447
 30
0.0
 10
80.2868060915
 20
345.727013692
 30
0.0
 10
79.7181029064
 20
346.4660386473
 30
0.0
 10
78.921880183
 20
346.9538264551
 30
0.0
 10
78.003749441
 20
347.1239584064
 30
0.0
 10
77.0862734689
 20
346.9548153634
 30
0.0
 10
76.2915068899
 20
346.4684038078
 30
0.0
 10
75.7253144219
 20
345.7312317631
 30
0.0
 10
75.5502949632
 20
345.1341406899
 30
0.0
 10
75.5194956737
 20
344.8328997473
 30
0.0
  0
SPLINE
  5
2B5
100
AcDbEntity
  8
0
100
AcDbSpline
 62
7
  6
CONTINUOUS
 70
0
 71
3
 72
15
 73
11
 74
0
 42
0.0000001
 43
0.0000001
 44
0.0000000001
 40
0.0
 40
0.0
 40
0.0
 40
0.0
 40
0.125073932
 40
0.2501469883
 40
0.3754006041
 40
0.5006740026
 40
0.6258088824
 40
0.7507306747
 40
0.8754280872
 40
1.0
 40
1.0
 40
1.0
 40
1.0
 10
71.4935734311
 20
344.8261191739
 30
0.0
 10
71.4623949296
 20
345.1285479144
 30
0.0
 10
71.2868098573
 20
345.7277721594
 30
0.0
 10
70.7181066721
 20
346.4667971147
 30
0.0
 10
69.9218839487
 20
346.9545849226
 30
0.0
 10
69.0037532067
 20
347.1247168739
 30
0.0
 10
68.0862772346
 20
346.9555738309
 30
0.0
 10
67.2915106556
 20
346.4691622752
 30
0.0
 10
66.7253181876
 20
345.7319902305
 30
0.0
 10
66.5502987289
 20
345.1348991573
 30
0.0
 10
66.5194994394
 20
344.8336582147
 30
0.0
  0
SPLINE
  5
2B6
100
AcDbEntity
  8
0
100
AcDbSpline
 62
7
  6
CONTINUOUS
 70
0
 71
3
 72
15
 73
11
 74
0
 42
0.0000001
 43
0.0000001
 44
0.0000000001
 40
0.0
 40
0.0
 40
0.0
 40
0.0
 40
0.1250753547
 40
0.2501452394
 40
0.3753959215
 40
0.5006651951
 40
0.6257983227
 40
0.7507227165
 40
0.8754257876
 40
1.0
 40
1.0
 40
1.0
 40
1.0
 10
66.5226212867
 20
344.832430566
 30
0.0
 10
66.5568772669
 20
345.1322772285
 30
0.0
 10
66.7370160019
 20
345.725180515
 30
0.0
 10
67.307786513
 20
346.4537698934
 30
0.0
 10
68.1017502639
 20
346.9317528233
 30
0.0
 10
69.0139089712
 20
347.0948975448
 30
0.0
 10
69.923649967
 20
346.9238724217
 30
0.0
 10
70.7123866568
 20
346.441668169
 30
0.0
 10
71.2777989666
 20
345.7131473866
 30
0.0
 10
71.4570002659
 20
345.1223988952
 30
0.0
 10
71.4908236561
 20
344.8237200424
 30
0.0
  0
SPLINE
  5
2B7
100
AcDbEntity
  8
0
100
AcDbSpline
 62
7
  6
CONTINUOUS
 70
0
 71
3
 72
15
 73
11
 74
0
 42
0.0000001
 43
0.0000001
 44
0.0000000001
 40
0.0
 40
0.0
 40
0.0
 40
0.0
 40
0.1250752443
 40
0.2501451257
 40
0.3753958333
 40
0.5006651739
 40
0.625798345
 40
0.7507227308
 40
0.8754257609
 40
1.0
 40
1.0
 40
1.0
 40
1.0
 10
75.5225399502
 20
344.8317177092
 30
0.0
 10
75.5567162685
 20
345.1316322533
 30
0.0
 10
75.7367411783
 20
345.7247022225
 30
0.0
 10
76.3074957517
 20
346.4535426067
 30
0.0
 10
77.1015693092
 20
346.9317087927
 30
0.0
 10
78.0139077168
 20
347.0949197225
 30
0.0
 10
78.9238277183
 20
346.9238278586
 30
0.0
 10
79.7126729849
 20
346.4414413745
 30
0.0
 10
80.2780705115
 20
345.7126722258
 30
0.0
 10
80.457159345
 20
345.1217576937
 30
0.0
 10
80.4909038435
 20
344.8230110366
 30
0.0
  0
SPLINE
  5
2B8
100
AcDbEntity
  8
0
100
AcDbSpline
 62
7
  6
CONTINUOUS
 70
0
 71
3
 72
15
 73
11
 74
0
 42
0.0000001
 43
0.0000001
 44
0.0000000001
 40
0.0
 40
0.0
 40
0.0
 40
0.0
 40
0.1250751333
 40
0.2501450115
 40
0.3753957448
 40
0.5006651525
 40
0.6257983673
 40
0.7507227452
 40
0.8754257344
 40
1.0
 40
1.0
 40
1.0
 40
1.0
 10
84.52245883
 20
344.8310049263
 30
0.0
 10
84.5565554572
 20
345.1309873198
 30
0.0
 10
84.73646649
 20
345.7242239297
 30
0.0
 10
85.3072050528
 20
346.4533153074
 30
0.0
 10
86.1013883756
 20
346.9316647574
 30
0.0
 10
87.0139064594
 20
347.094941902
 30
0.0
 10
87.9240054431
 20
346.9237832936
 30
0.0
 10
88.7129592463
 20
346.4412145727
 30
0.0
 10
89.2783419222
 20
345.7121970704
 30
0.0
 10
89.4573182359
 20
345.1211165375
 30
0.0
 10
89.490983817
 20
344.8223021066
 30
0.0
  0
SPLINE
  5
2B9
100
AcDbEntity
  8
0
100
AcDbSpline
 62
7
  6
CONTINUOUS
 70
0
 71
3
 72
15
 73
11
 74
0
 42
0.0000001
 43
0.0000001
 44
0.0000000001
 40
0.0
 40
0.0
 40
0.0
 40
0.0
 40
0.1247658018
 40
0.2496451904
 40
0.3747541262
 40
0.5000026829
 40
0.6252525783
 40
0.7503647839
 40
0.8752442235
 40
1.0
 40
1.0
 40
1.0
 40
1.0
 10
71.5066180758
 20
337.3790631317
 30
0.0
 10
71.5066180758
 20
337.0551289483
 30
0.0
 10
71.3763495116
 20
336.3997843213
 30
0.0
 10
70.8193204334
 20
335.5722985186
 30
0.0
 10
69.9861854055
 20
335.0195574361
 30
0.0
 10
69.0043214858
 20
334.8275989373
 30
0.0
 10
68.0235041079
 20
335.0243658543
 30
0.0
 10
67.1925077885
 20
335.5798968336
 30
0.0
 10
66.6368541773
 20
336.4079830814
 30
0.0
 10
66.5066180758
 20
337.0632301706
 30
0.0
 10
66.5066180758
 20
337.3871383252
 30
0.0
  0
SPLINE
  5
2BA
100
AcDbEntity
  8
0
100
AcDbSpline
 62
7
  6
CONTINUOUS
 70
0
 71
3
 72
15
 73
11
 74
0
 42
0.0000001
 43
0.0000001
 44
0.0000000001
 40
0.0
 40
0.0
 40
0.0
 40
0.0
 40
0.1247658018
 40
0.2496451904
 40
0.3747541262
 40
0.5000026829
 40
0.6252525783
 40
0.7503647839
 40
0.8752442235
 40
1.0
 40
1.0
 40
1.0
 40
1.0
 10
89.5066105444
 20
337.3775461968
 30
0.0
 10
89.5066105444
 20
337.0536120133
 30
0.0
 10
89.3763419801
 20
336.3982673863
 30
0.0
 10
88.819312902
 20
335.5707815837
 30
0.0
 10
87.9861778741
 20
335.0180405011
 30
0.0
 10
87.0043139544
 20
334.8260820024
 30
0.0
 10
86.0234965765
 20
335.0228489194
 30
0.0
 10
85.192500257
 20
335.5783798987
 30
0.0
 10
84.6368466458
 20
336.4064661465
 30
0.0
 10
84.5066105444
 20
337.0617132357
 30
0.0
 10
84.5066105444
 20
337.3856213903
 30
0.0
  0
SPLINE
  5
2BB
100
AcDbEntity
  8
0
100
AcDbSpline
 62
7
  6
CONTINUOUS
 70
0
 71
3
 72
15
 73
11
 74
0
 42
0.0000001
 43
0.0000001
 44
0.0000000001
 40
0.0
 40
0.0
 40
0.0
 40
0.0
 40
0.1247658018
 40
0.2496451904
 40
0.3747541262
 40
0.5000026829
 40
0.6252525783
 40
0.7503647839
 40
0.8752442235
 40
1.0
 40
1.0
 40
1.0
 40
1.0
 10
80.5066143101
 20
337.3783046643
 30
0.0
 10
80.5066143101
 20
337.0543704809
 30
0.0
 10
80.3763457459
 20
336.3990258538
 30
0.0
 10
79.8193166677
 20
335.5715400512
 30
0.0
 10
78.9861816398
 20
335.0187989686
 30
0.0
 10
78.0043177201
 20
334.8268404699
 30
0.0
 10
77.0235003422
 20
335.0236073869
 30
0.0
 10
76.1925040228
 20
335.5791383661
 30
0.0
 10
75.6368504116
 20
336.4072246139
 30
0.0
 10
75.5066143101
 20
337.0624717031
 30
0.0
 10
75.5066143101
 20
337.3863798577
 30
0.0
  0
SPLINE
  5
2BC
100
AcDbEntity
  8
0
100
AcDbSpline
 62
7
  6
CONTINUOUS
 70
0
 71
3
 72
15
 73
11
 74
0
 42
0.0000001
 43
0.0000001
 44
0.0000000001
 40
0.0
 40
0.0
 40
0.0
 40
0.0
 40
0.1245614596
 40
0.2492562722
 40
0.3741876451
 40
0.4993506021
 40
0.6246611151
 40
0.7499363187
 40
0.8750313286
 40
1.0
 40
1.0
 40
1.0
 40
1.0
 10
66.5066180758
 20
344.8591055148
 30
0.0
 10
66.5066180758
 20
345.1825102852
 30
0.0
 10
66.6364864114
 20
345.8367989267
 30
0.0
 10
67.1917525346
 20
346.6635602876
 30
0.0
 10
68.0230227471
 20
347.2168742293
 30
0.0
 10
69.0039677243
 20
347.4104807981
 30
0.0
 10
69.9855632805
 20
347.2156539913
 30
0.0
 10
70.8185046436
 20
346.6607870904
 30
0.0
 10
71.3759550686
 20
345.8318975879
 30
0.0
 10
71.5066180758
 20
345.1754924971
 30
0.0
 10
71.5066180758
 20
344.8510304636
 30
0.0
  0
SPLINE
  5
2BD
100
AcDbEntity
  8
0
100
AcDbSpline
 62
7
  6
CONTINUOUS
 70
0
 71
3
 72
15
 73
11
 74
0
 42
0.0000001
 43
0.0000001
 44
0.0000000001
 40
0.0
 40
0.0
 40
0.0
 40
0.0
 40
0.1245614596
 40
0.2492562722
 40
0.3741876451
 40
0.4993506021
 40
0.6246611151
 40
0.7499363187
 40
0.8750313286
 40
1.0
 40
1.0
 40
1.0
 40
1.0
 10
84.5066105444
 20
344.8575885799
 30
0.0
 10
84.5066105444
 20
345.1809933503
 30
0.0
 10
84.63647888
 20
345.8352819918
 30
0.0
 10
85.1917450032
 20
346.6620433527
 30
0.0
 10
86.0230152156
 20
347.2153572943
 30
0.0
 10
87.0039601929
 20
347.4089638632
 30
0.0
 10
87.9855557491
 20
347.2141370564
 30
0.0
 10
88.8184971121
 20
346.6592701555
 30
0.0
 10
89.3759475371
 20
345.8303806529
 30
0.0
 10
89.5066105444
 20
345.1739755622
 30
0.0
 10
89.5066105444
 20
344.8495135287
 30
0.0
  0
SPLINE
  5
2BE
100
AcDbEntity
  8
0
100
AcDbSpline
 62
7
  6
CONTINUOUS
 70
0
 71
3
 72
15
 73
11
 74
0
 42
0.0000001
 43
0.0000001
 44
0.0000000001
 40
0.0
 40
0.0
 40
0.0
 40
0.0
 40
0.1245614596
 40
0.2492562722
 40
0.3741876451
 40
0.4993506021
 40
0.6246611151
 40
0.7499363187
 40
0.8750313286
 40
1.0
 40
1.0
 40
1.0
 40
1.0
 10
75.5066143101
 20
344.8583470474
 30
0.0
 10
75.5066143101
 20
345.1817518178
 30
0.0
 10
75.6364826457
 20
345.8360404593
 30
0.0
 10
76.191748769
 20
346.6628018201
 30
0.0
 10
77.0230189814
 20
347.2161157618
 30
0.0
 10
78.0039639586
 20
347.4097223306
 30
0.0
 10
78.9855595148
 20
347.2148955238
 30
0.0
 10
79.8185008778
 20
346.660028623
 30
0.0
 10
80.3759513028
 20
345.8311391204
 30
0.0
 10
80.5066143101
 20
345.1747340297
 30
0.0
 10
80.5066143101
 20
344.8502719962
 30
0.0
  0
ELLIPSE
  5
2BF
100
AcDbEntity
  8
0
100
AcDbEllipse
 62
7
  6
CONTINUOUS
 10
63.2858565681
 20
308.3023340375
 30
0.0
 11
1.7817132693
 21
1.7537181974
 31
0.0
 40
0.9999951732
 41
0.900314776
 42
3.8224931675
  0
ELLIPSE
  5
2C0
100
AcDbEntity
  8
0
100
AcDbEllipse
 62
7
  6
CONTINUOUS
 10
93.0104183947
 20
316.3215306122
 30
0.0
 11
2.4885524013
 21
-0.0
 31
0.0
 40
0.9999988339
 41
-1.5723234477
 42
1.5723234477
  0
ELLIPSE
  5
2C1
100
AcDbEntity
  8
0
100
AcDbEllipse
 62
7
  6
CONTINUOUS
 10
63.0103484316
 20
316.3215306122
 30
0.0
 11
2.4427386854
 21
-0.0
 31
0.0
 40
0.9999988339
 41
1.5723234479
 42
4.7108618595
  0
ELLIPSE
  5
2C2
100
AcDbEntity
  8
0
100
AcDbEllipse
 62
7
  6
CONTINUOUS
 10
93.0104183947
 20
308.3215306122
 30
0.0
 11
2.4885524013
 21
-0.0
 31
0.0
 40
0.9999988339
 41
-1.5723234477
 42
1.5723234477
  0
ELLIPSE
  5
2C3
100
AcDbEntity
  8
0
100
AcDbEllipse
 62
7
  6
CONTINUOUS
 10
63.0103484316
 20
308.3215306122
 30
0.0
 11
2.4427386854
 21
-0.0
 31
0.0
 40
0.9999988339
 41
1.5723234477
 42
4.7108618595
  0
ENDSEC
  0
SECTION
  2
OBJECTS
  0
DICTIONARY
  5
C
100
AcDbDictionary
280
0
281
1
  3
ACAD_GROUP
350
D
  3
ACAD_MLINESTYLE
350
17
  3
ACAD_LAYOUT
350
1A
  3
ACAD_PLOTSETTINGS
350
19
  3
ACAD_PLOTSTYLENAME
350
E
  0
DICTIONARY
  5
D
102
{ACAD_REACTORS
330
C
102
}
100
AcDbDictionary
280
0
281
1
  0
ACDBDICTIONARYWDFLT
  5
E
102
{ACAD_REACTORS
330
C
102
}
100
AcDbDictionary
281
1
  3
Normal
350
F
100
AcDbDictionaryWithDefault
340
F
  0
DICTIONARY
  5
17
102
{ACAD_REACTORS
330
C
102
}
100
AcDbDictionary
280
0
281
1
  3
Standard
350
18
  0
DICTIONARY
  5
19
102
{ACAD_REACTORS
330
C
102
}
100
AcDbDictionary
281
1
  0
DICTIONARY
  5
1A
102
{ACAD_REACTORS
330
C
102
}
100
AcDbDictionary
281
1
  3
Model
350
2C4
  3
Layout1
350
2C5
  0
ACDBPLACEHOLDER
  5
F
102
{ACAD_REACTORS
330
E
102
}
  0
MLINESTYLE
  5
18
102
{ACAD_REACTORS
330
17
102
}
100
AcDbMlineStyle
  2
STANDARD
 70
0
  3

 62
256
 51
90.0
 52
90.0
 71
2
 49
0.5
 62
256
  6
BYLAYER
 49
-0.5
 62
256
  6
BYLAYER
  0
LAYOUT
  5
2C4
102
{ACAD_REACTORS
330
1A
102
}
100
AcDbPlotSettings
  1

  2
none_device
  4

  6

 40
0.0
 41
0.0
 42
0.0
 43
0.0
 44
210.0
 45
297.0
 46
0.0
 47
0.0
 48
0.0
 49
0.0
140
0.0
141
0.0
142
1.0
143
1.0
 70
1024
 72
1
 73
0
 74
0
  7

 75
0
147
1.0
148
0.0
149
0.0
100
AcDbLayout
  1
Model
 70
0
 71
0
 10
0.0
 20
0.0
 11
210.0
 21
297.0
 12
0.0
 22
0.0
 32
0.0
 14
0.0
 24
0.0
 34
0.0
 15
0.0
 25
0.0
 35
0.0
146
0.0
 13
0.0
 23
0.0
 33
0.0
 16
1.0
 26
0.0
 36
0.0
 17
0.0
 27
1.0
 37
0.0
 76
0
330
210
345
0
346
0
  0
LAYOUT
  5
2C5
102
{ACAD_REACTORS
330
1A
102
}
100
AcDbPlotSettings
  1

  2
none_device
  4

  6

 40
0.0
 41
0.0
 42
0.0
 43
0.0
 44
210.0
 45
297.0
 46
0.0
 47
0.0
 48
0.0
 49
0.0
140
0.0
141
0.0
142
1.0
143
1.0
 70
0
 72
1
 73
0
 74
0
  7

 75
0
147
1.0
148
0.0
149
0.0
100
AcDbLayout
  1
Layout1
 70
0
 71
1
 10
0.0
 20
0.0
 11
210.0
 21
297.0
 12
0.0
 22
0.0
 32
0.0
 14
0.0
 24
0.0
 34
0.0
 15
0.0
 25
0.0
 35
0.0
146
0.0
 13
0.0
 23
0.0
 33
0.0
 16
1.0
 26
0.0
 36
0.0
 17
0.0
 27
1.0
 37
0.0
 76
0
330
211
345
0
346
0
  0
ENDSEC
  0
EOF
