999
DXF file: C:\Users\sesa63760\Dev\_Creo\CAD\MCADPD0004097_3D-CAD\drw0001_6.dxf
999
Pro/ENGINEER 2019471 by Parametric Technology Corporation
  0
SECTION
  2
HEADER
  9
$ACADVER
  1
AC1024
  9
$DWGCODEPAGE
  3
ANSI_1252
  9
$EXTMAX
 10
157.3758371461
 20
222.5743982495
 30
0.0
  9
$EXTMIN
 10
0.0
 20
0.0
 30
0.0
  9
$LIMMIN
 10
0.0
 20
0.0
  9
$LIMMAX
 10
157.3758371461
 20
222.5743982495
  9
$VIEWCTR
 10
78.687918573
 20
111.2871991247
  9
$VIEWSIZE
 40
222.5743982495
  9
$CLAYER
  8
0
  9
$LTSCALE
 40
14.5085533674
  9
$CELTYPE
  6
BYLAYER
  9
$DIMSCALE
 40
1.0
  9
$DIMASZ
 40
1.8735218708
  9
$DIMEXO
 40
1.0
  9
$DIMDLI
 40
10.0240914175
  9
$DIMEXE
 40
1.0
  9
$DIMCEN
 40
2.3741269147
  9
$DIMLFAC
 40
1.0
  9
$DIMBLK
  1
_FILLED
  9
$DIMALT
 70
0
  9
$DIMALTF
 40
0.0393700787
  9
$DIMTXT
 40
2.6229306191
  9
$DIMTOL
 70
1
  9
$DIMLIM
 70
0
  9
$DIMTFAC
 40
1.0
  9
$DIMTP
 40
0.01
  9
$DIMTM
 40
0.01
  9
$DIMGAP
 40
0.625
  9
$DIMDSEP
 70
46
  9
$AUNITS
 70
0
  9
$PDMODE
 70
3
  9
$PDSIZE
 40
0.3125
  9
$HANDSEED
  5
276
  9
$TILEMODE
 70
1
  9
$MEASUREMENT
 70
1
  9
$INSUNITS
 70
4
  0
ENDSEC
  0
SECTION
  2
CLASSES
  0
CLASS
  1
ACDBDICTIONARYWDFLT
  2
AcDbDictionaryWithDefault
  3
AutoCAD 2000
 90
0
 91
1
280
0
281
0
  0
CLASS
  1
ACDBPLACEHOLDER
  2
AcDbPlaceHolder
  3
AutoCAD 2000
 90
0
 91
1
280
0
281
0
  0
CLASS
  1
LAYOUT
  2
AcDbLayout
  3
AutoCAD 2000
 90
0
 91
0
280
0
281
0
  0
ENDSEC
  0
SECTION
  2
TABLES
  0
TABLE
  2
VPORT
  5
8
100
AcDbSymbolTable
 70
2
  0
VPORT
  5
1F4
100
AcDbSymbolTableRecord
100
AcDbViewportTableRecord
  2
*ACTIVE
 70
0
 10
0.0
 20
0.0
 11
1.0
 21
1.0
 12
78.687918573
 22
111.2871991247
 13
0.0
 23
0.0
 14
1.0
 24
1.0
 15
0.0
 25
0.0
 16
0.0
 26
0.0
 36
1.0
 17
0.0
 27
0.0
 37
0.0
 40
222.5743982495
 41
0.7070707071
 42
50.0
 43
0.0
 44
0.0
 50
0.0
 51
0.0
 71
0
 72
100
 73
1
 74
1
 75
0
 76
0
 77
0
 78
0
  0
ENDTAB
  0
TABLE
  2
LTYPE
  5
5
100
AcDbSymbolTable
 70
6
  0
LTYPE
  5
14
100
AcDbSymbolTableRecord
100
AcDbLinetypeTableRecord
  2
BYBLOCK
 70
0
  3

 72
65
 73
0
 40
0.0
  0
LTYPE
  5
15
100
AcDbSymbolTableRecord
100
AcDbLinetypeTableRecord
  2
BYLAYER
 70
0
  3

 72
65
 73
0
 40
0.0
  0
LTYPE
  5
16
100
AcDbSymbolTableRecord
100
AcDbLinetypeTableRecord
  2
CONTINUOUS
 70
64
  3
Solid line
 72
65
 73
0
 40
0.0
  0
LTYPE
  5
1F5
100
AcDbSymbolTableRecord
100
AcDbLinetypeTableRecord
  2
CENTER
 70
64
  3
____ _ ____ _ ____ _ ____ _ ____ _ ____ _ ____
 72
65
 73
4
 40
0.6
 49
0.375
 74
0
 49
-0.075
 74
0
 49
0.075
 74
0
 49
-0.075
 74
0
  0
LTYPE
  5
1F6
100
AcDbSymbolTableRecord
100
AcDbLinetypeTableRecord
  2
HIDDEN
 70
64
  3
- - - - - - - - - - - - - - - - - - - -
 72
65
 73
2
 40
0.2
 49
0.1
 74
0
 49
-0.1
 74
0
  0
LTYPE
  5
1F7
100
AcDbSymbolTableRecord
100
AcDbLinetypeTableRecord
  2
PHANTOM
 70
64
  3
_____ _ _ _____ _ _ _____ _ _ _____
 72
65
 73
6
 40
0.8
 49
0.45
 74
0
 49
-0.05
 74
0
 49
0.1
 74
0
 49
-0.05
 74
0
 49
0.1
 74
0
 49
-0.05
 74
0
  0
LTYPE
  5
1F8
100
AcDbSymbolTableRecord
100
AcDbLinetypeTableRecord
  2
DOT
 70
64
  3
. . . . . . . . . . . . . . . . . . . .
 72
65
 73
2
 40
0.2
 49
0.1
 74
0
 49
-0.1
 74
0
  0
LTYPE
  5
1F9
100
AcDbSymbolTableRecord
100
AcDbLinetypeTableRecord
  2
DASHED
 70
64
  3
- - - - - - - - - - - - - - - - - - - -
 72
65
 73
2
 40
0.2
 49
0.1
 74
0
 49
-0.1
 74
0
  0
ENDTAB
  0
TABLE
  2
LAYER
  5
2
100
AcDbSymbolTable
 70
36
  0
LAYER
  5
10
100
AcDbSymbolTableRecord
100
AcDbLayerTableRecord
  2
0
 70
0
 62
7
  6
CONTINUOUS
370
-3
390
F
  0
LAYER
  5
1FA
100
AcDbSymbolTableRecord
100
AcDbLayerTableRecord
  2
DEFAULT_1
 70
0
 62
7
  6
CENTER
370
-3
390
F
  0
LAYER
  5
1FB
100
AcDbSymbolTableRecord
100
AcDbLayerTableRecord
  2
DEFAULT_2
 70
0
 62
7
  6
HIDDEN
370
-3
390
F
  0
LAYER
  5
1FC
100
AcDbSymbolTableRecord
100
AcDbLayerTableRecord
  2
DEFAULT_3
 70
0
 62
7
  6
PHANTOM
370
-3
390
F
  0
LAYER
  5
1FD
100
AcDbSymbolTableRecord
100
AcDbLayerTableRecord
  2
00_COMPONENTS
 70
0
 62
7
  6
CONTINUOUS
370
-3
390
F
  0
LAYER
  5
1FE
100
AcDbSymbolTableRecord
100
AcDbLayerTableRecord
  2
01_1_DEFAULT_DATUMS
 70
0
 62
7
  6
CONTINUOUS
370
-3
390
F
  0
LAYER
  5
1FF
100
AcDbSymbolTableRecord
100
AcDbLayerTableRecord
  2
01_PLANES
 70
0
 62
7
  6
CONTINUOUS
370
-3
390
F
  0
LAYER
  5
200
100
AcDbSymbolTableRecord
100
AcDbLayerTableRecord
  2
02_COORD_SYS
 70
0
 62
7
  6
CONTINUOUS
370
-3
390
F
  0
LAYER
  5
201
100
AcDbSymbolTableRecord
100
AcDbLayerTableRecord
  2
03_AXES
 70
0
 62
7
  6
CONTINUOUS
370
-3
390
F
  0
LAYER
  5
202
100
AcDbSymbolTableRecord
100
AcDbLayerTableRecord
  2
04_POINTS
 70
0
 62
7
  6
CONTINUOUS
370
-3
390
F
  0
LAYER
  5
203
100
AcDbSymbolTableRecord
100
AcDbLayerTableRecord
  2
05_CURVES
 70
0
 62
7
  6
CONTINUOUS
370
-3
390
F
  0
LAYER
  5
204
100
AcDbSymbolTableRecord
100
AcDbLayerTableRecord
  2
06_SURFS
 70
0
 62
7
  6
CONTINUOUS
370
-3
390
F
  0
LAYER
  5
205
100
AcDbSymbolTableRecord
100
AcDbLayerTableRecord
  2
07_COSMETICS
 70
0
 62
7
  6
CONTINUOUS
370
-3
390
F
  0
LAYER
  5
206
100
AcDbSymbolTableRecord
100
AcDbLayerTableRecord
  2
10_NOTES
 70
0
 62
7
  6
CONTINUOUS
370
-3
390
F
  0
LAYER
  5
207
100
AcDbSymbolTableRecord
100
AcDbLayerTableRecord
  2
11_NOTES_PUB
 70
0
 62
7
  6
CONTINUOUS
370
-3
390
F
  0
LAYER
  5
208
100
AcDbSymbolTableRecord
100
AcDbLayerTableRecord
  2
13_REF_GTOL
 70
0
 62
7
  6
CONTINUOUS
370
-3
390
F
  0
LAYER
  5
209
100
AcDbSymbolTableRecord
100
AcDbLayerTableRecord
  2
16_MISC
 70
0
 62
7
  6
CONTINUOUS
370
-3
390
F
  0
LAYER
  5
20A
100
AcDbSymbolTableRecord
100
AcDbLayerTableRecord
  2
17_NO_PRINT
 70
0
 62
7
  6
CONTINUOUS
370
-3
390
F
  0
LAYER
  5
20B
100
AcDbSymbolTableRecord
100
AcDbLayerTableRecord
  2
18_DATUM_CAMS_JOINTS
 70
0
 62
7
  6
CONTINUOUS
370
-3
390
F
  0
LAYER
  5
20C
100
AcDbSymbolTableRecord
100
AcDbLayerTableRecord
  2
19_DATUM_FUNCTIONAL
 70
0
 62
7
  6
CONTINUOUS
370
-3
390
F
  0
LAYER
  5
20D
100
AcDbSymbolTableRecord
100
AcDbLayerTableRecord
  2
20_DATUM_KINEMATIC_SCHEME
 70
0
 62
7
  6
CONTINUOUS
370
-3
390
F
  0
ENDTAB
  0
TABLE
  2
STYLE
  5
3
100
AcDbSymbolTable
 70
1
  0
STYLE
  5
11
100
AcDbSymbolTableRecord
100
AcDbTextStyleTableRecord
  2
STANDARD
 70
0
 40
0.0
 41
1.0
 50
0.0
 71
0
 42
0.2
  3
ARIAL.TTF
  4

  0
STYLE
  5
20E
100
AcDbSymbolTableRecord
100
AcDbTextStyleTableRecord
  2
TEXTSTYLE_1
 70
0
 40
0.0
 41
0.8
 50
0.0
 71
0
 42
0.2
  3
gdt
  4

  0
ENDTAB
  0
TABLE
  2
VIEW
  5
6
100
AcDbSymbolTable
 70
0
  0
ENDTAB
  0
TABLE
  2
UCS
  5
7
100
AcDbSymbolTable
 70
0
  0
ENDTAB
  0
TABLE
  2
APPID
  5
9
100
AcDbSymbolTable
 70
1
  0
APPID
  5
20F
100
AcDbSymbolTableRecord
100
AcDbRegAppTableRecord
  2
ACAD
 70
0
  0
ENDTAB
  0
TABLE
  2
BLOCK_RECORD
  5
1
100
AcDbSymbolTable
 70
0
  0
BLOCK_RECORD
  5
210
100
AcDbSymbolTableRecord
100
AcDbBlockTableRecord
  2
*Model_Space
  0
BLOCK_RECORD
  5
211
100
AcDbSymbolTableRecord
100
AcDbBlockTableRecord
  2
*Paper_Space
  0
BLOCK_RECORD
  5
212
100
AcDbSymbolTableRecord
100
AcDbBlockTableRecord
  2
_FILLED
  0
ENDTAB
  0
TABLE
  2
DIMSTYLE
  5
A
100
AcDbSymbolTable
 70
1
100
AcDbDimStyleTable
 71
0
  0
DIMSTYLE
105
213
100
AcDbSymbolTableRecord
100
AcDbDimStyleTableRecord
  2
STANDARD
 70
0
  3

  4

 40
1.0
 41
1.8735218708
 42
1.0
 43
0.38
 44
1.0
 45
0.0
 46
0.0
 47
0.01
 48
0.01
140
2.6229306191
141
0.09
142
0.0
143
25.4
144
1.0
145
0.0
146
1.0
147
0.625
 71
1
 72
0
 73
0
 74
0
 75
0
 76
0
 77
1
 78
8
 79
2
170
0
171
1
172
0
173
0
174
0
175
0
176
0
177
0
178
0
270
2
179
2
271
2
272
2
273
2
274
2
275
0
280
0
281
0
282
0
283
1
284
8
285
0
286
0
287
3
288
0
340
11
278
46
341
212
342
212
343
212
344
212
  0
ENDTAB
  0
ENDSEC
  0
SECTION
  2
BLOCKS
  0
BLOCK
  5
20
100
AcDbEntity
  8
0
100
AcDbBlockBegin
  2
*Model_Space
 70
0
 10
0.0
 20
0.0
 30
0.0
  3
*Model_Space
  1

  0
ENDBLK
  5
21
100
AcDbEntity
  8
0
100
AcDbBlockEnd
  0
BLOCK
  5
1C
100
AcDbEntity
  8
0
100
AcDbBlockBegin
  2
*Paper_Space
 70
0
 10
0.0
 20
0.0
 30
0.0
  3
*Paper_Space
  1

  0
ENDBLK
  5
1D
100
AcDbEntity
  8
0
100
AcDbBlockEnd
  0
BLOCK
  5
214
100
AcDbEntity
  8
0
100
AcDbBlockBegin
  2
_FILLED
 70
64
 10
0.0
 20
0.0
  3
_FILLED
  1

  0
SOLID
  5
215
100
AcDbEntity
  8
0
  6
BYBLOCK
 62
0
100
AcDbTrace
 10
0.0
 20
0.0
 11
-1.0
 21
0.25
 12
-1.0
 22
-0.25
 13
-1.0
 23
-0.25
  0
ENDBLK
  5
216
100
AcDbEntity
  8
0
  6
BYBLOCK
 62
0
100
AcDbBlockEnd
  0
ENDSEC
  0
SECTION
  2
ENTITIES
  0
LINE
  5
217
100
AcDbEntity
  8
0
100
AcDbLine
 62
7
  6
BYLAYER
 10
17.8000629932
 20
105.4395947831
 11
17.8000629932
 21
130.5581511528
  0
LINE
  5
218
100
AcDbEntity
  8
0
100
AcDbLine
 62
7
  6
BYLAYER
 10
19.3000629932
 20
117.696305873
 11
19.3000629932
 21
130.5581318239
  0
LINE
  5
219
100
AcDbEntity
  8
0
100
AcDbLine
 62
7
  6
BYLAYER
 10
22.3000629932
 20
114.8037616294
 11
22.3000629932
 21
102.5470505395
  0
LINE
  5
21A
100
AcDbEntity
  8
0
100
AcDbLine
 62
7
  6
BYLAYER
 10
133.8000629932
 20
92.0338024603
 11
132.3000629932
 21
92.0338024603
  0
LINE
  5
21B
100
AcDbEntity
  8
0
100
AcDbLine
 62
7
  6
BYLAYER
 10
132.3000629932
 20
93.4227526698
 11
131.0434916218
 21
93.4227526698
  0
LINE
  5
21C
100
AcDbEntity
  8
0
100
AcDbLine
 62
7
  6
BYLAYER
 10
133.8000629932
 20
95.0363486928
 11
134.5500629932
 21
95.0363486928
  0
LINE
  5
21D
100
AcDbEntity
  8
0
100
AcDbLine
 62
7
  6
BYLAYER
 10
142.0000629932
 20
95.2827526698
 11
134.5500629932
 21
95.2827526698
  0
LINE
  5
21E
100
AcDbEntity
  8
0
100
AcDbLine
 62
7
  6
BYLAYER
 10
129.9473479366
 20
95.9427526698
 11
130.1296117067
 21
95.9427526698
  0
LINE
  5
21F
100
AcDbEntity
  8
0
100
AcDbLine
 62
7
  6
BYLAYER
 10
130.1296117067
 20
96.5027526698
 11
129.9473472826
 21
96.5027526698
  0
LINE
  5
220
100
AcDbEntity
  8
0
100
AcDbLine
 62
7
  6
BYLAYER
 10
132.3000629932
 20
96.728395171
 11
133.8000629932
 21
96.728395171
  0
LINE
  5
221
100
AcDbEntity
  8
0
100
AcDbLine
 62
7
  6
BYLAYER
 10
142.0000629932
 20
97.1627526698
 11
134.5500629932
 21
97.1627526698
  0
LINE
  5
222
100
AcDbEntity
  8
0
100
AcDbLine
 62
7
  6
BYLAYER
 10
133.8000629932
 20
97.7863486928
 11
134.5500629932
 21
97.7863486928
  0
LINE
  5
223
100
AcDbEntity
  8
0
100
AcDbLine
 62
7
  6
BYLAYER
 10
133.8000629932
 20
98.535561572
 11
132.3000629932
 21
98.535561572
  0
LINE
  5
224
100
AcDbEntity
  8
0
100
AcDbLine
 62
7
  6
BYLAYER
 10
132.3000629932
 20
99.0227526698
 11
131.0434916218
 21
99.0227526698
  0
LINE
  5
225
100
AcDbEntity
  8
0
100
AcDbLine
 62
7
  6
BYLAYER
 10
130.8000629932
 20
102.5470505395
 11
22.3000629932
 21
102.5470505395
  0
LINE
  5
226
100
AcDbEntity
  8
0
100
AcDbLine
 62
7
  6
BYLAYER
 10
133.8000629932
 20
104.4038024603
 11
132.3000629932
 21
104.4038024603
  0
LINE
  5
227
100
AcDbEntity
  8
0
100
AcDbLine
 62
7
  6
BYLAYER
 10
132.3000629932
 20
106.0395802149
 11
131.0434916218
 21
106.0395802149
  0
LINE
  5
228
100
AcDbEntity
  8
0
100
AcDbLine
 62
7
  6
BYLAYER
 10
133.8000629932
 20
106.6395802149
 11
135.0000629932
 21
106.6395802149
  0
LINE
  5
229
100
AcDbEntity
  8
0
100
AcDbLine
 62
7
  6
BYLAYER
 10
142.0000629932
 20
107.8995802149
 11
135.0000629932
 21
107.8995802149
  0
LINE
  5
22A
100
AcDbEntity
  8
0
100
AcDbLine
 62
7
  6
BYLAYER
 10
129.9473479366
 20
108.5595802149
 11
130.1296117067
 21
108.5595802149
  0
LINE
  5
22B
100
AcDbEntity
  8
0
100
AcDbLine
 62
7
  6
BYLAYER
 10
130.1296117067
 20
109.1195802149
 11
129.9473472826
 21
109.1195802149
  0
LINE
  5
22C
100
AcDbEntity
  8
0
100
AcDbLine
 62
7
  6
BYLAYER
 10
142.0000629932
 20
109.7795802149
 11
135.0000629932
 21
109.7795802149
  0
LINE
  5
22D
100
AcDbEntity
  8
0
100
AcDbLine
 62
7
  6
BYLAYER
 10
133.8000629932
 20
111.0395802149
 11
135.0000629932
 21
111.0395802149
  0
LINE
  5
22E
100
AcDbEntity
  8
0
100
AcDbLine
 62
7
  6
BYLAYER
 10
132.3000629932
 20
111.6395802149
 11
131.0434916218
 21
111.6395802149
  0
LINE
  5
22F
100
AcDbEntity
  8
0
100
AcDbLine
 62
7
  6
BYLAYER
 10
133.8000629932
 20
113.8395802149
 11
132.3000629932
 21
113.8395802149
  0
LINE
  5
230
100
AcDbEntity
  8
0
100
AcDbLine
 62
7
  6
BYLAYER
 10
22.3000629932
 20
114.8037616294
 11
130.8000629932
 21
114.8037616294
  0
LINE
  5
231
100
AcDbEntity
  8
0
100
AcDbLine
 62
7
  6
BYLAYER
 10
22.3000629932
 20
115.7679430439
 11
130.8000629932
 21
115.7679430439
  0
LINE
  5
232
100
AcDbEntity
  8
0
100
AcDbLine
 62
7
  6
BYLAYER
 10
19.3000629932
 20
128.6864383916
 11
17.8000629932
 21
128.6864383916
  0
LINE
  5
233
100
AcDbEntity
  8
0
100
AcDbLine
 62
7
  6
BYLAYER
 10
19.3000629932
 20
130.5580828467
 11
17.8000629932
 21
130.5580828467
  0
LINE
  5
234
100
AcDbEntity
  8
0
100
AcDbLine
 62
7
  6
BYLAYER
 10
142.3000629932
 20
96.8227526698
 11
142.0000629932
 21
97.1627526698
  0
LINE
  5
235
100
AcDbEntity
  8
0
100
AcDbLine
 62
7
  6
BYLAYER
 10
142.3000629932
 20
109.4395802149
 11
142.0000629932
 21
109.7795802149
  0
LINE
  5
236
100
AcDbEntity
  8
0
100
AcDbLine
 62
7
  6
BYLAYER
 10
130.1296117067
 20
94.8872014365
 11
130.1296117067
 21
94.9168824248
  0
LINE
  5
237
100
AcDbEntity
  8
0
100
AcDbLine
 62
7
  6
BYLAYER
 10
130.1296117067
 20
95.9427526698
 11
130.1296117067
 21
96.5027526698
  0
LINE
  5
238
100
AcDbEntity
  8
0
100
AcDbLine
 62
7
  6
BYLAYER
 10
130.1296117067
 20
97.5286229147
 11
130.1296117067
 21
97.558303903
  0
LINE
  5
239
100
AcDbEntity
  8
0
100
AcDbLine
 62
7
  6
BYLAYER
 10
130.1296117067
 20
107.5040289816
 11
130.1296117067
 21
107.5337099699
  0
LINE
  5
23A
100
AcDbEntity
  8
0
100
AcDbLine
 62
7
  6
BYLAYER
 10
130.1296117067
 20
108.5595802149
 11
130.1296117067
 21
109.1195802149
  0
LINE
  5
23B
100
AcDbEntity
  8
0
100
AcDbLine
 62
7
  6
BYLAYER
 10
130.1296117067
 20
110.1454504598
 11
130.1296117067
 21
110.1751314481
  0
LINE
  5
23C
100
AcDbEntity
  8
0
100
AcDbLine
 62
7
  6
BYLAYER
 10
130.8000629932
 20
102.5470505395
 11
130.8000629932
 21
106.3134691247
  0
LINE
  5
23D
100
AcDbEntity
  8
0
100
AcDbLine
 62
7
  6
BYLAYER
 10
130.8000629932
 20
111.3539136755
 11
130.8000629932
 21
114.8037616294
  0
LINE
  5
23E
100
AcDbEntity
  8
0
100
AcDbLine
 62
7
  6
BYLAYER
 10
131.0434916218
 20
111.6395802123
 11
131.0434916218
 21
106.039580215
  0
LINE
  5
23F
100
AcDbEntity
  8
0
100
AcDbLine
 62
7
  6
BYLAYER
 10
131.0434916218
 20
99.0227526671
 11
131.0434916218
 21
93.4227526699
  0
LINE
  5
240
100
AcDbEntity
  8
0
100
AcDbLine
 62
7
  6
BYLAYER
 10
132.3000629932
 20
113.8395802149
 11
132.3000629932
 21
92.0338024603
  0
LINE
  5
241
100
AcDbEntity
  8
0
100
AcDbLine
 62
7
  6
BYLAYER
 10
142.3000629932
 20
108.2395802149
 11
142.0000629932
 21
107.8995802149
  0
LINE
  5
242
100
AcDbEntity
  8
0
100
AcDbLine
 62
7
  6
BYLAYER
 10
133.8000629932
 20
92.0338024603
 11
133.8000629932
 21
113.8395802149
  0
LINE
  5
243
100
AcDbEntity
  8
0
100
AcDbLine
 62
7
  6
BYLAYER
 10
134.5500629932
 20
95.0363490318
 11
134.5500629932
 21
97.7863483539
  0
LINE
  5
244
100
AcDbEntity
  8
0
100
AcDbLine
 62
7
  6
BYLAYER
 10
135.0000629932
 20
106.6396312513
 11
135.0000629932
 21
111.0395291785
  0
LINE
  5
245
100
AcDbEntity
  8
0
100
AcDbLine
 62
7
  6
BYLAYER
 10
142.3000629932
 20
95.6227526698
 11
142.0000629932
 21
95.2827526698
  0
LINE
  5
246
100
AcDbEntity
  8
0
100
AcDbLine
 62
7
  6
BYLAYER
 10
142.0000629932
 20
95.2827526698
 11
142.0000629932
 21
97.1627526698
  0
LINE
  5
247
100
AcDbEntity
  8
0
100
AcDbLine
 62
7
  6
BYLAYER
 10
142.0000629932
 20
107.8995802149
 11
142.0000629932
 21
109.7795802149
  0
LINE
  5
248
100
AcDbEntity
  8
0
100
AcDbLine
 62
7
  6
BYLAYER
 10
142.3000629932
 20
95.6227526698
 11
142.3000629932
 21
96.8227526698
  0
LINE
  5
249
100
AcDbEntity
  8
0
100
AcDbLine
 62
7
  6
BYLAYER
 10
142.3000629932
 20
108.2395802149
 11
142.3000629932
 21
109.4395802149
  0
ARC
  5
24A
100
AcDbEntity
  8
0
100
AcDbCircle
 62
7
  6
BYLAYER
 10
133.9184797957
 20
96.5893488254
 40
4.029274432
100
AcDbArc
 50
192.101002938
 51
196.6168028095
  0
ARC
  5
24B
100
AcDbEntity
  8
0
100
AcDbCircle
 62
7
  6
BYLAYER
 10
133.9184797957
 20
109.2061763705
 40
4.029274432
100
AcDbArc
 50
192.1010029379
 51
196.6168028095
  0
ARC
  5
24C
100
AcDbEntity
  8
0
100
AcDbCircle
 62
7
  6
BYLAYER
 10
133.9000629932
 20
96.2227526698
 40
4.0
100
AcDbArc
 50
135.572996026
 51
160.4950798499
  0
ARC
  5
24D
100
AcDbEntity
  8
0
100
AcDbCircle
 62
7
  6
BYLAYER
 10
133.9000629932
 20
96.2227526698
 40
4.0
100
AcDbArc
 50
199.504920319
 51
224.4270039991
  0
ARC
  5
24E
100
AcDbEntity
  8
0
100
AcDbCircle
 62
7
  6
BYLAYER
 10
133.9000629932
 20
108.8395802149
 40
4.0
100
AcDbArc
 50
135.572996026
 51
160.4950798499
  0
ARC
  5
24F
100
AcDbEntity
  8
0
100
AcDbCircle
 62
7
  6
BYLAYER
 10
133.9000629932
 20
108.8395802149
 40
4.0
100
AcDbArc
 50
199.504920319
 51
224.4270039991
  0
ARC
  5
250
100
AcDbEntity
  8
0
100
AcDbCircle
 62
7
  6
BYLAYER
 10
133.9000629932
 20
96.2227526698
 40
3.9901879655
100
AcDbArc
 50
187.8584467242
 51
199.103180832
  0
ARC
  5
251
100
AcDbEntity
  8
0
100
AcDbCircle
 62
7
  6
BYLAYER
 10
133.9000629932
 20
96.2227526698
 40
3.9901879655
100
AcDbArc
 50
160.896819168
 51
172.1415202726
  0
ARC
  5
252
100
AcDbEntity
  8
0
100
AcDbCircle
 62
7
  6
BYLAYER
 10
133.9000629932
 20
108.8395802149
 40
3.9901879655
100
AcDbArc
 50
187.8584467242
 51
199.103180832
  0
ARC
  5
253
100
AcDbEntity
  8
0
100
AcDbCircle
 62
7
  6
BYLAYER
 10
133.9000629932
 20
108.8395802149
 40
3.9901879655
100
AcDbArc
 50
160.896819168
 51
172.1415202726
  0
ARC
  5
254
100
AcDbEntity
  8
0
100
AcDbCircle
 62
7
  6
BYLAYER
 10
133.8309233401
 20
95.8785702479
 40
3.9389664108
100
AcDbArc
 50
163.3314027747
 51
167.950789135
  0
ARC
  5
255
100
AcDbEntity
  8
0
100
AcDbCircle
 62
7
  6
BYLAYER
 10
133.8309233401
 20
108.495397793
 40
3.9389664108
100
AcDbArc
 50
163.3314027747
 51
167.950789135
  0
ARC
  5
256
100
AcDbEntity
  8
0
100
AcDbCircle
 62
7
  6
BYLAYER
 10
133.4482064244
 20
96.4843996212
 40
3.5474519312
100
AcDbArc
 50
188.8707541557
 51
192.03589546
  0
ARC
  5
257
100
AcDbEntity
  8
0
100
AcDbCircle
 62
7
  6
BYLAYER
 10
133.4482064243
 20
109.1012271663
 40
3.5474519312
100
AcDbArc
 50
188.8707541557
 51
192.03589546
  0
ARC
  5
258
100
AcDbEntity
  8
0
100
AcDbCircle
 62
7
  6
BYLAYER
 10
133.3870034553
 20
95.9723974584
 40
3.4852401985
100
AcDbArc
 50
167.9358459946
 51
171.1575065304
  0
ARC
  5
259
100
AcDbEntity
  8
0
100
AcDbCircle
 62
7
  6
BYLAYER
 10
133.3870034553
 20
108.5892250035
 40
3.4852401985
100
AcDbArc
 50
167.9358459946
 51
171.1575065304
  0
ARC
  5
25A
100
AcDbEntity
  8
0
100
AcDbCircle
 62
7
  6
BYLAYER
 10
131.035797509
 20
96.6179065164
 40
1.0987930717
100
AcDbArc
 50
172.1322941773
 51
173.9193265531
  0
ARC
  5
25B
100
AcDbEntity
  8
0
100
AcDbCircle
 62
7
  6
BYLAYER
 10
131.035797509
 20
109.2347340615
 40
1.0987930717
100
AcDbArc
 50
172.1322941773
 51
173.9193265531
  0
ARC
  5
25C
100
AcDbEntity
  8
0
100
AcDbCircle
 62
7
  6
BYLAYER
 10
130.9918321296
 20
95.9642486328
 40
1.0787439103
100
AcDbArc
 50
193.5664042252
 51
195.3954838918
  0
ARC
  5
25D
100
AcDbEntity
  8
0
100
AcDbCircle
 62
7
  6
BYLAYER
 10
130.9918321296
 20
108.581076178
 40
1.0787439103
100
AcDbArc
 50
193.5664042252
 51
195.3954838918
  0
ARC
  5
25E
100
AcDbEntity
  8
0
100
AcDbCircle
 62
7
  6
BYLAYER
 10
131.0095914615
 20
95.8243849871
 40
1.0723940256
100
AcDbArc
 50
186.0582368277
 51
187.8892714609
  0
ARC
  5
25F
100
AcDbEntity
  8
0
100
AcDbCircle
 62
7
  6
BYLAYER
 10
131.0095914615
 20
108.4412125322
 40
1.0723940256
100
AcDbArc
 50
186.0582368277
 51
187.8892714608
  0
ARC
  5
260
100
AcDbEntity
  8
0
100
AcDbCircle
 62
7
  6
BYLAYER
 10
130.9826813449
 20
96.4836202909
 40
1.0692940222
100
AcDbArc
 50
164.5963238247
 51
166.4416841745
  0
ARC
  5
261
100
AcDbEntity
  8
0
100
AcDbCircle
 62
7
  6
BYLAYER
 10
130.9826813449
 20
109.100447836
 40
1.0692940222
100
AcDbArc
 50
164.5963238247
 51
166.4416841746
  0
SPLINE
  5
262
100
AcDbEntity
  8
0
100
AcDbSpline
 62
7
  6
BYLAYER
 70
0
 71
3
 72
9
 73
5
 74
0
 42
0.0000001
 43
0.0000001
 44
0.0000000001
 40
0.0
 40
0.0
 40
0.0
 40
0.0
 40
0.2424712844
 40
1.0
 40
1.0
 40
1.0
 40
1.0
 10
129.9803830874
 20
96.7007850258
 30
0.0
 10
129.9772022083
 20
96.7032891807
 30
0.0
 10
129.9642630725
 20
96.7138431319
 30
0.0
 10
129.9520243442
 20
96.7252525495
 30
0.0
 10
129.9431866059
 20
96.7343001537
 30
0.0
  0
SPLINE
  5
263
100
AcDbEntity
  8
0
100
AcDbSpline
 62
7
  6
BYLAYER
 70
0
 71
3
 72
9
 73
5
 74
0
 42
0.0000001
 43
0.0000001
 44
0.0000000001
 40
0.0
 40
0.0
 40
0.0
 40
0.0
 40
0.242471765
 40
1.0
 40
1.0
 40
1.0
 40
1.0
 10
129.9803830666
 20
95.744720283
 30
0.0
 10
129.9772021927
 20
95.7422161236
 30
0.0
 10
129.9642631101
 20
95.731662172
 30
0.0
 10
129.9520242826
 20
95.7202529194
 30
0.0
 10
129.9431865653
 20
95.7112053473
 30
0.0
  0
SPLINE
  5
264
100
AcDbEntity
  8
0
100
AcDbSpline
 62
7
  6
BYLAYER
 70
0
 71
3
 72
9
 73
5
 74
0
 42
0.0000001
 43
0.0000001
 44
0.0000000001
 40
0.0
 40
0.0
 40
0.0
 40
0.0
 40
0.3691630467
 40
1.0
 40
1.0
 40
1.0
 40
1.0
 10
129.9473476081
 20
95.9427526697
 30
0.0
 10
129.946475257
 20
95.9427527667
 30
0.0
 10
129.9443659495
 20
95.9410102766
 30
0.0
 10
129.9436478696
 20
95.9387785759
 30
0.0
 10
129.943186541
 20
95.9373610562
 30
0.0
  0
SPLINE
  5
265
100
AcDbEntity
  8
0
100
AcDbSpline
 62
7
  6
BYLAYER
 70
0
 71
3
 72
9
 73
5
 74
0
 42
0.0000001
 43
0.0000001
 44
0.0000000001
 40
0.0
 40
0.0
 40
0.0
 40
0.0
 40
0.630826703
 40
1.0
 40
1.0
 40
1.0
 40
1.0
 10
129.9431866078
 20
96.5081443448
 30
0.0
 10
129.9436479144
 20
96.5067268824
 30
0.0
 10
129.9443659456
 20
96.5044952248
 30
0.0
 10
129.9464750406
 20
96.5027526934
 30
0.0
 10
129.9473473942
 20
96.5027526698
 30
0.0
  0
SPLINE
  5
266
100
AcDbEntity
  8
0
100
AcDbSpline
 62
7
  6
BYLAYER
 70
0
 71
3
 72
9
 73
5
 74
0
 42
0.0000001
 43
0.0000001
 44
0.0000000001
 40
0.0
 40
0.0
 40
0.0
 40
0.0
 40
0.4842559223
 40
1.0
 40
1.0
 40
1.0
 40
1.0
 10
130.0574728964
 20
97.0084056937
 30
0.0
 10
130.0342321018
 20
96.9727408609
 30
0.0
 10
129.9927440531
 20
96.894720805
 30
0.0
 10
129.9638435169
 20
96.8113515086
 30
0.0
 10
129.9517981135
 20
96.7676440033
 30
0.0
  0
SPLINE
  5
267
100
AcDbEntity
  8
0
100
AcDbSpline
 62
7
  6
BYLAYER
 70
0
 71
3
 72
9
 73
5
 74
0
 42
0.0000001
 43
0.0000001
 44
0.0000000001
 40
0.0
 40
0.0
 40
0.0
 40
0.0
 40
0.5157442383
 40
1.0
 40
1.0
 40
1.0
 40
1.0
 10
129.951797507
 20
95.6778635639
 30
0.0
 10
129.9638429262
 20
95.6341556377
 30
0.0
 10
129.992743543
 20
95.5507855498
 30
0.0
 10
130.0342319066
 20
95.4727647781
 30
0.0
 10
130.0574728964
 20
95.4370996459
 30
0.0
  0
SPLINE
  5
268
100
AcDbEntity
  8
0
100
AcDbSpline
 62
7
  6
BYLAYER
 70
0
 71
3
 72
9
 73
5
 74
0
 42
0.0000001
 43
0.0000001
 44
0.0000000001
 40
0.0
 40
0.0
 40
0.0
 40
0.0
 40
0.2424712844
 40
1.0
 40
1.0
 40
1.0
 40
1.0
 10
129.9803830874
 20
109.3176125709
 30
0.0
 10
129.9772022083
 20
109.3201167259
 30
0.0
 10
129.9642630725
 20
109.330670677
 30
0.0
 10
129.9520243442
 20
109.3420800946
 30
0.0
 10
129.9431866059
 20
109.3511276988
 30
0.0
  0
SPLINE
  5
269
100
AcDbEntity
  8
0
100
AcDbSpline
 62
7
  6
BYLAYER
 70
0
 71
3
 72
9
 73
5
 74
0
 42
0.0000001
 43
0.0000001
 44
0.0000000001
 40
0.0
 40
0.0
 40
0.0
 40
0.0
 40
0.242471765
 40
1.0
 40
1.0
 40
1.0
 40
1.0
 10
129.9803830666
 20
108.3615478281
 30
0.0
 10
129.9772021927
 20
108.3590436687
 30
0.0
 10
129.9642631101
 20
108.3484897171
 30
0.0
 10
129.9520242826
 20
108.3370804645
 30
0.0
 10
129.9431865653
 20
108.3280328924
 30
0.0
  0
SPLINE
  5
26A
100
AcDbEntity
  8
0
100
AcDbSpline
 62
7
  6
BYLAYER
 70
0
 71
3
 72
9
 73
5
 74
0
 42
0.0000001
 43
0.0000001
 44
0.0000000001
 40
0.0
 40
0.0
 40
0.0
 40
0.0
 40
0.3691630467
 40
1.0
 40
1.0
 40
1.0
 40
1.0
 10
129.9473476081
 20
108.5595802149
 30
0.0
 10
129.946475257
 20
108.5595803118
 30
0.0
 10
129.9443659495
 20
108.5578378217
 30
0.0
 10
129.9436478696
 20
108.5556061211
 30
0.0
 10
129.943186541
 20
108.5541886014
 30
0.0
  0
SPLINE
  5
26B
100
AcDbEntity
  8
0
100
AcDbSpline
 62
7
  6
BYLAYER
 70
0
 71
3
 72
9
 73
5
 74
0
 42
0.0000001
 43
0.0000001
 44
0.0000000001
 40
0.0
 40
0.0
 40
0.0
 40
0.0
 40
0.630826703
 40
1.0
 40
1.0
 40
1.0
 40
1.0
 10
129.9431866078
 20
109.1249718899
 30
0.0
 10
129.9436479144
 20
109.1235544275
 30
0.0
 10
129.9443659456
 20
109.1213227699
 30
0.0
 10
129.9464750406
 20
109.1195802385
 30
0.0
 10
129.9473473942
 20
109.1195802149
 30
0.0
  0
SPLINE
  5
26C
100
AcDbEntity
  8
0
100
AcDbSpline
 62
7
  6
BYLAYER
 70
0
 71
3
 72
9
 73
5
 74
0
 42
0.0000001
 43
0.0000001
 44
0.0000000001
 40
0.0
 40
0.0
 40
0.0
 40
0.0
 40
0.4842559223
 40
1.0
 40
1.0
 40
1.0
 40
1.0
 10
130.0574728964
 20
109.6252332388
 30
0.0
 10
130.0342321018
 20
109.5895684061
 30
0.0
 10
129.9927440531
 20
109.5115483501
 30
0.0
 10
129.9638435169
 20
109.4281790537
 30
0.0
 10
129.9517981135
 20
109.3844715485
 30
0.0
  0
SPLINE
  5
26D
100
AcDbEntity
  8
0
100
AcDbSpline
 62
7
  6
BYLAYER
 70
0
 71
3
 72
9
 73
5
 74
0
 42
0.0000001
 43
0.0000001
 44
0.0000000001
 40
0.0
 40
0.0
 40
0.0
 40
0.0
 40
0.5157442383
 40
1.0
 40
1.0
 40
1.0
 40
1.0
 10
129.951797507
 20
108.294691109
 30
0.0
 10
129.9638429262
 20
108.2509831829
 30
0.0
 10
129.992743543
 20
108.1676130949
 30
0.0
 10
130.0342319066
 20
108.0895923233
 30
0.0
 10
130.0574728964
 20
108.053927191
 30
0.0
  0
SPLINE
  5
26E
100
AcDbEntity
  8
0
100
AcDbSpline
 62
7
  6
BYLAYER
 70
0
 71
3
 72
14
 73
10
 74
0
 42
0.0000001
 43
0.0000001
 44
0.0000000001
 40
0.0
 40
0.0
 40
0.0
 40
0.0
 40
0.0973632194
 40
0.1997654708
 40
0.3107000087
 40
0.4319692299
 40
0.5635006826
 40
0.7038058475
 40
1.0
 40
1.0
 40
1.0
 40
1.0
 10
19.3000629932
 20
117.696305873
 30
0.0
 10
19.3000629932
 20
117.5694783467
 30
0.0
 10
19.3413188709
 20
117.307752256
 30
0.0
 10
19.5197715386
 20
116.9390845074
 30
0.0
 10
19.8045463999
 20
116.6039187826
 30
0.0
 10
20.1822621461
 20
116.3131476109
 30
0.0
 10
20.6387769913
 20
116.0759540541
 30
0.0
 10
21.3413093538
 20
115.8376396852
 30
0.0
 10
21.9142338074
 20
115.7679430439
 30
0.0
 10
22.3000629932
 20
115.7679430439
 30
0.0
  0
SPLINE
  5
26F
100
AcDbEntity
  8
0
100
AcDbSpline
 62
7
  6
BYLAYER
 70
0
 71
3
 72
14
 73
10
 74
0
 42
0.0000001
 43
0.0000001
 44
0.0000000001
 40
0.0
 40
0.0
 40
0.0
 40
0.0
 40
0.2961940358
 40
0.4364991852
 40
0.5680306413
 40
0.6892998805
 40
0.8002344443
 40
0.9026367505
 40
1.0
 40
1.0
 40
1.0
 40
1.0
 10
130.8000629932
 20
115.7679430439
 30
0.0
 10
131.1858920261
 20
115.7679430439
 30
0.0
 10
131.7588163027
 20
115.6982464591
 30
0.0
 10
132.4613485288
 20
115.459932221
 30
0.0
 10
132.9178634212
 20
115.2227387425
 30
0.0
 10
133.2955792712
 20
114.9319676111
 30
0.0
 10
133.5803542982
 20
114.5968018485
 30
0.0
 10
133.7588070222
 20
114.2281339696
 30
0.0
 10
133.8000629932
 20
113.9664077801
 30
0.0
 10
133.8000629932
 20
113.8395802149
 30
0.0
  0
SPLINE
  5
270
100
AcDbEntity
  8
0
100
AcDbSpline
 62
7
  6
BYLAYER
 70
0
 71
3
 72
13
 73
9
 74
0
 42
0.0000001
 43
0.0000001
 44
0.0000000001
 40
0.0
 40
0.0
 40
0.0
 40
0.0
 40
0.2964528954
 40
0.5676707349
 40
0.6890408501
 40
0.8000690374
 40
0.9026039519
 40
1.0
 40
1.0
 40
1.0
 40
1.0
 10
130.8000629932
 20
102.5470505395
 30
0.0
 10
130.9929875894
 20
102.5470505395
 30
0.0
 10
131.3638966207
 20
102.5020172024
 30
0.0
 10
131.7864117966
 20
102.329962727
 30
0.0
 10
132.0478306045
 20
102.1291234462
 30
0.0
 10
132.190249906
 20
101.9614779992
 30
0.0
 10
132.2793449383
 20
101.77709596
 30
0.0
 10
132.3000629932
 20
101.6462521903
 30
0.0
 10
132.3000629932
 20
101.582869125
 30
0.0
  0
SPLINE
  5
271
100
AcDbEntity
  8
0
100
AcDbSpline
 62
7
  6
BYLAYER
 70
0
 71
3
 72
14
 73
10
 74
0
 42
0.0000001
 43
0.0000001
 44
0.0000000001
 40
0.0
 40
0.0
 40
0.0
 40
0.0
 40
0.0973844943
 40
0.199757758
 40
0.3107050352
 40
0.4319719425
 40
0.5634972392
 40
0.7038197682
 40
1.0
 40
1.0
 40
1.0
 40
1.0
 10
17.8000629932
 20
105.4395947831
 30
0.0
 10
17.8000629932
 20
105.2493110705
 30
0.0
 10
17.8618462669
 20
104.8567107258
 30
0.0
 10
18.1296628365
 20
104.3037557868
 30
0.0
 10
18.5567516604
 20
103.8010004451
 30
0.0
 10
19.1233756554
 20
103.364881572
 30
0.0
 10
19.8081376989
 20
103.0090373434
 30
0.0
 10
20.8619516611
 20
102.6515932517
 30
0.0
 10
21.7213438192
 20
102.5470505395
 30
0.0
 10
22.3000629932
 20
102.5470505395
 30
0.0
  0
SPLINE
  5
272
100
AcDbEntity
  8
0
100
AcDbSpline
 62
7
  6
BYLAYER
 70
0
 71
3
 72
13
 73
9
 74
0
 42
0.0000001
 43
0.0000001
 44
0.0000000001
 40
0.0
 40
0.0
 40
0.0
 40
0.0
 40
0.097396111
 40
0.1999311609
 40
0.3109594369
 40
0.4323295765
 40
0.7035473805
 40
1.0
 40
1.0
 40
1.0
 40
1.0
 10
132.3000629932
 20
113.8395802149
 30
0.0
 10
132.3000629932
 20
113.9029633207
 30
0.0
 10
132.2793447978
 20
114.0338071972
 30
0.0
 10
132.1902497422
 20
114.2181894275
 30
0.0
 10
132.0478301991
 20
114.3858348994
 30
0.0
 10
131.7864112822
 20
114.5866740989
 30
0.0
 10
131.3638962246
 20
114.7587283547
 30
0.0
 10
130.9929874084
 20
114.8037616294
 30
0.0
 10
130.8000629932
 20
114.8037616294
 30
0.0
  0
SPLINE
  5
273
100
AcDbEntity
  8
0
100
AcDbSpline
 62
7
  6
BYLAYER
 70
0
 71
3
 72
14
 73
10
 74
0
 42
0.0000001
 43
0.0000001
 44
0.0000000001
 40
0.0
 40
0.0
 40
0.0
 40
0.0
 40
0.2961802318
 40
0.4365027608
 40
0.5680280575
 40
0.6892949648
 40
0.800242242
 40
0.9026155057
 40
1.0
 40
1.0
 40
1.0
 40
1.0
 10
22.3000629932
 20
114.8037616294
 30
0.0
 10
21.7213438192
 20
114.8037616294
 30
0.0
 10
20.8619516611
 20
114.9083043416
 30
0.0
 10
19.8081376989
 20
115.2657484333
 30
0.0
 10
19.1233756554
 20
115.621592662
 30
0.0
 10
18.5567516604
 20
116.057711535
 30
0.0
 10
18.1296628365
 20
116.5604668767
 30
0.0
 10
17.8618462669
 20
117.1134218157
 30
0.0
 10
17.8000629932
 20
117.5060221604
 30
0.0
 10
17.8000629932
 20
117.696305873
 30
0.0
  0
ENDSEC
  0
SECTION
  2
OBJECTS
  0
DICTIONARY
  5
C
100
AcDbDictionary
280
0
281
1
  3
ACAD_GROUP
350
D
  3
ACAD_MLINESTYLE
350
17
  3
ACAD_LAYOUT
350
1A
  3
ACAD_PLOTSETTINGS
350
19
  3
ACAD_PLOTSTYLENAME
350
E
  0
DICTIONARY
  5
D
102
{ACAD_REACTORS
330
C
102
}
100
AcDbDictionary
280
0
281
1
  0
ACDBDICTIONARYWDFLT
  5
E
102
{ACAD_REACTORS
330
C
102
}
100
AcDbDictionary
281
1
  3
Normal
350
F
100
AcDbDictionaryWithDefault
340
F
  0
DICTIONARY
  5
17
102
{ACAD_REACTORS
330
C
102
}
100
AcDbDictionary
280
0
281
1
  3
Standard
350
18
  0
DICTIONARY
  5
19
102
{ACAD_REACTORS
330
C
102
}
100
AcDbDictionary
281
1
  0
DICTIONARY
  5
1A
102
{ACAD_REACTORS
330
C
102
}
100
AcDbDictionary
281
1
  3
Model
350
274
  3
Layout1
350
275
  0
ACDBPLACEHOLDER
  5
F
102
{ACAD_REACTORS
330
E
102
}
  0
MLINESTYLE
  5
18
102
{ACAD_REACTORS
330
17
102
}
100
AcDbMlineStyle
  2
STANDARD
 70
0
  3

 62
256
 51
90.0
 52
90.0
 71
2
 49
0.5
 62
256
  6
BYLAYER
 49
-0.5
 62
256
  6
BYLAYER
  0
LAYOUT
  5
274
102
{ACAD_REACTORS
330
1A
102
}
100
AcDbPlotSettings
  1

  2
none_device
  4

  6

 40
0.0
 41
0.0
 42
0.0
 43
0.0
 44
210.0
 45
297.0
 46
0.0
 47
0.0
 48
0.0
 49
0.0
140
0.0
141
0.0
142
1.0
143
1.0
 70
1024
 72
1
 73
0
 74
0
  7

 75
0
147
1.0
148
0.0
149
0.0
100
AcDbLayout
  1
Model
 70
0
 71
0
 10
0.0
 20
0.0
 11
210.0
 21
297.0
 12
0.0
 22
0.0
 32
0.0
 14
0.0
 24
0.0
 34
0.0
 15
0.0
 25
0.0
 35
0.0
146
0.0
 13
0.0
 23
0.0
 33
0.0
 16
1.0
 26
0.0
 36
0.0
 17
0.0
 27
1.0
 37
0.0
 76
0
330
210
345
0
346
0
  0
LAYOUT
  5
275
102
{ACAD_REACTORS
330
1A
102
}
100
AcDbPlotSettings
  1

  2
none_device
  4

  6

 40
0.0
 41
0.0
 42
0.0
 43
0.0
 44
210.0
 45
297.0
 46
0.0
 47
0.0
 48
0.0
 49
0.0
140
0.0
141
0.0
142
1.0
143
1.0
 70
0
 72
1
 73
0
 74
0
  7

 75
0
147
1.0
148
0.0
149
0.0
100
AcDbLayout
  1
Layout1
 70
0
 71
1
 10
0.0
 20
0.0
 11
210.0
 21
297.0
 12
0.0
 22
0.0
 32
0.0
 14
0.0
 24
0.0
 34
0.0
 15
0.0
 25
0.0
 35
0.0
146
0.0
 13
0.0
 23
0.0
 33
0.0
 16
1.0
 26
0.0
 36
0.0
 17
0.0
 27
1.0
 37
0.0
 76
0
330
211
345
0
346
0
  0
ENDSEC
  0
EOF
