999
DXF file: C:\Users\sesa63760\Dev\_Creo\CAD\MCADUE0002457_3D-CAD\drw0001_4.dxf
999
Pro/ENGINEER 2019471 by Parametric Technology Corporation
  0
SECTION
  2
HEADER
  9
$ACADVER
  1
AC1024
  9
$DWGCODEPAGE
  3
ANSI_1252
  9
$EXTMAX
 10
92.1294845002
 20
130.2974137931
 30
0.0
  9
$EXTMIN
 10
0.0
 20
0.0
 30
0.0
  9
$LIMMIN
 10
0.0
 20
0.0
  9
$LIMMAX
 10
92.1294845002
 20
130.2974137931
  9
$VIEWCTR
 10
46.0647422501
 20
65.1487068966
  9
$VIEWSIZE
 40
130.2974137931
  9
$CLAYER
  8
0
  9
$LTSCALE
 40
8.4934610473
  9
$CELTYPE
  6
BYLAYER
  9
$DIMSCALE
 40
1.0
  9
$DIMASZ
 40
1.0967795774
  9
$DIMEXO
 40
1.0
  9
$DIMDLI
 40
5.8682094508
  9
$DIMEXE
 40
1.0
  9
$DIMCEN
 40
1.3898390805
  9
$DIMLFAC
 40
1.0
  9
$DIMBLK
  1
_FILLED
  9
$DIMALT
 70
0
  9
$DIMALTF
 40
0.0393700787
  9
$DIMTXT
 40
1.5354914083
  9
$DIMTOL
 70
1
  9
$DIMLIM
 70
0
  9
$DIMTFAC
 40
1.0
  9
$DIMTP
 40
0.01
  9
$DIMTM
 40
0.01
  9
$DIMGAP
 40
0.625
  9
$DIMDSEP
 70
46
  9
$AUNITS
 70
0
  9
$PDMODE
 70
3
  9
$PDSIZE
 40
0.3125
  9
$HANDSEED
  5
2CF
  9
$TILEMODE
 70
1
  9
$MEASUREMENT
 70
1
  9
$INSUNITS
 70
4
  0
ENDSEC
  0
SECTION
  2
CLASSES
  0
CLASS
  1
ACDBDICTIONARYWDFLT
  2
AcDbDictionaryWithDefault
  3
AutoCAD 2000
 90
0
 91
1
280
0
281
0
  0
CLASS
  1
ACDBPLACEHOLDER
  2
AcDbPlaceHolder
  3
AutoCAD 2000
 90
0
 91
1
280
0
281
0
  0
CLASS
  1
LAYOUT
  2
AcDbLayout
  3
AutoCAD 2000
 90
0
 91
0
280
0
281
0
  0
ENDSEC
  0
SECTION
  2
TABLES
  0
TABLE
  2
VPORT
  5
8
100
AcDbSymbolTable
 70
2
  0
VPORT
  5
1F4
100
AcDbSymbolTableRecord
100
AcDbViewportTableRecord
  2
*ACTIVE
 70
0
 10
0.0
 20
0.0
 11
1.0
 21
1.0
 12
46.0647422501
 22
65.1487068966
 13
0.0
 23
0.0
 14
1.0
 24
1.0
 15
0.0
 25
0.0
 16
0.0
 26
0.0
 36
1.0
 17
0.0
 27
0.0
 37
0.0
 40
130.2974137931
 41
0.7070707071
 42
50.0
 43
0.0
 44
0.0
 50
0.0
 51
0.0
 71
0
 72
100
 73
1
 74
1
 75
0
 76
0
 77
0
 78
0
  0
ENDTAB
  0
TABLE
  2
LTYPE
  5
5
100
AcDbSymbolTable
 70
6
  0
LTYPE
  5
14
100
AcDbSymbolTableRecord
100
AcDbLinetypeTableRecord
  2
BYBLOCK
 70
0
  3

 72
65
 73
0
 40
0.0
  0
LTYPE
  5
15
100
AcDbSymbolTableRecord
100
AcDbLinetypeTableRecord
  2
BYLAYER
 70
0
  3

 72
65
 73
0
 40
0.0
  0
LTYPE
  5
16
100
AcDbSymbolTableRecord
100
AcDbLinetypeTableRecord
  2
CONTINUOUS
 70
64
  3
Solid line
 72
65
 73
0
 40
0.0
  0
LTYPE
  5
1F5
100
AcDbSymbolTableRecord
100
AcDbLinetypeTableRecord
  2
CENTER
 70
64
  3
____ _ ____ _ ____ _ ____ _ ____ _ ____ _ ____
 72
65
 73
4
 40
0.6
 49
0.375
 74
0
 49
-0.075
 74
0
 49
0.075
 74
0
 49
-0.075
 74
0
  0
LTYPE
  5
1F6
100
AcDbSymbolTableRecord
100
AcDbLinetypeTableRecord
  2
HIDDEN
 70
64
  3
- - - - - - - - - - - - - - - - - - - -
 72
65
 73
2
 40
0.2
 49
0.1
 74
0
 49
-0.1
 74
0
  0
LTYPE
  5
1F7
100
AcDbSymbolTableRecord
100
AcDbLinetypeTableRecord
  2
PHANTOM
 70
64
  3
_____ _ _ _____ _ _ _____ _ _ _____
 72
65
 73
6
 40
0.8
 49
0.45
 74
0
 49
-0.05
 74
0
 49
0.1
 74
0
 49
-0.05
 74
0
 49
0.1
 74
0
 49
-0.05
 74
0
  0
LTYPE
  5
1F8
100
AcDbSymbolTableRecord
100
AcDbLinetypeTableRecord
  2
DOT
 70
64
  3
. . . . . . . . . . . . . . . . . . . .
 72
65
 73
2
 40
0.2
 49
0.1
 74
0
 49
-0.1
 74
0
  0
LTYPE
  5
1F9
100
AcDbSymbolTableRecord
100
AcDbLinetypeTableRecord
  2
DASHED
 70
64
  3
- - - - - - - - - - - - - - - - - - - -
 72
65
 73
2
 40
0.2
 49
0.1
 74
0
 49
-0.1
 74
0
  0
ENDTAB
  0
TABLE
  2
LAYER
  5
2
100
AcDbSymbolTable
 70
36
  0
LAYER
  5
10
100
AcDbSymbolTableRecord
100
AcDbLayerTableRecord
  2
0
 70
0
 62
7
  6
CONTINUOUS
370
-3
390
F
  0
LAYER
  5
1FA
100
AcDbSymbolTableRecord
100
AcDbLayerTableRecord
  2
DEFAULT_1
 70
0
 62
7
  6
CENTER
370
-3
390
F
  0
LAYER
  5
1FB
100
AcDbSymbolTableRecord
100
AcDbLayerTableRecord
  2
DEFAULT_2
 70
0
 62
8
  6
HIDDEN
370
-3
390
F
  0
LAYER
  5
1FC
100
AcDbSymbolTableRecord
100
AcDbLayerTableRecord
  2
DEFAULT_3
 70
0
 62
7
  6
PHANTOM
370
-3
390
F
  0
LAYER
  5
1FD
100
AcDbSymbolTableRecord
100
AcDbLayerTableRecord
  2
00_COMPONENTS
 70
0
 62
7
  6
CONTINUOUS
370
-3
390
F
  0
LAYER
  5
1FE
100
AcDbSymbolTableRecord
100
AcDbLayerTableRecord
  2
01_1_DEFAULT_DATUMS
 70
0
 62
7
  6
CONTINUOUS
370
-3
390
F
  0
LAYER
  5
1FF
100
AcDbSymbolTableRecord
100
AcDbLayerTableRecord
  2
01_PLANES
 70
0
 62
7
  6
CONTINUOUS
370
-3
390
F
  0
LAYER
  5
200
100
AcDbSymbolTableRecord
100
AcDbLayerTableRecord
  2
02_COORD_SYS
 70
0
 62
7
  6
CONTINUOUS
370
-3
390
F
  0
LAYER
  5
201
100
AcDbSymbolTableRecord
100
AcDbLayerTableRecord
  2
03_AXES
 70
0
 62
7
  6
CONTINUOUS
370
-3
390
F
  0
LAYER
  5
202
100
AcDbSymbolTableRecord
100
AcDbLayerTableRecord
  2
04_POINTS
 70
0
 62
7
  6
CONTINUOUS
370
-3
390
F
  0
LAYER
  5
203
100
AcDbSymbolTableRecord
100
AcDbLayerTableRecord
  2
05_CURVES
 70
0
 62
7
  6
CONTINUOUS
370
-3
390
F
  0
LAYER
  5
204
100
AcDbSymbolTableRecord
100
AcDbLayerTableRecord
  2
06_SURFS
 70
0
 62
7
  6
CONTINUOUS
370
-3
390
F
  0
LAYER
  5
205
100
AcDbSymbolTableRecord
100
AcDbLayerTableRecord
  2
07_COSMETICS
 70
0
 62
7
  6
CONTINUOUS
370
-3
390
F
  0
LAYER
  5
206
100
AcDbSymbolTableRecord
100
AcDbLayerTableRecord
  2
10_NOTES
 70
0
 62
7
  6
CONTINUOUS
370
-3
390
F
  0
LAYER
  5
207
100
AcDbSymbolTableRecord
100
AcDbLayerTableRecord
  2
11_NOTES_PUB
 70
0
 62
7
  6
CONTINUOUS
370
-3
390
F
  0
LAYER
  5
208
100
AcDbSymbolTableRecord
100
AcDbLayerTableRecord
  2
13_REF_GTOL
 70
0
 62
7
  6
CONTINUOUS
370
-3
390
F
  0
LAYER
  5
209
100
AcDbSymbolTableRecord
100
AcDbLayerTableRecord
  2
16_MISC
 70
0
 62
7
  6
CONTINUOUS
370
-3
390
F
  0
LAYER
  5
20A
100
AcDbSymbolTableRecord
100
AcDbLayerTableRecord
  2
17_NO_PRINT
 70
0
 62
7
  6
CONTINUOUS
370
-3
390
F
  0
LAYER
  5
20B
100
AcDbSymbolTableRecord
100
AcDbLayerTableRecord
  2
18_DATUM_CAMS_JOINTS
 70
0
 62
7
  6
CONTINUOUS
370
-3
390
F
  0
LAYER
  5
20C
100
AcDbSymbolTableRecord
100
AcDbLayerTableRecord
  2
19_DATUM_FUNCTIONAL
 70
0
 62
7
  6
CONTINUOUS
370
-3
390
F
  0
LAYER
  5
20D
100
AcDbSymbolTableRecord
100
AcDbLayerTableRecord
  2
20_DATUM_KINEMATIC_SCHEME
 70
0
 62
7
  6
CONTINUOUS
370
-3
390
F
  0
ENDTAB
  0
TABLE
  2
STYLE
  5
3
100
AcDbSymbolTable
 70
1
  0
STYLE
  5
11
100
AcDbSymbolTableRecord
100
AcDbTextStyleTableRecord
  2
STANDARD
 70
0
 40
0.0
 41
0.8
 50
0.0
 71
0
 42
0.2
  3
txt
  4

  0
STYLE
  5
20E
100
AcDbSymbolTableRecord
100
AcDbTextStyleTableRecord
  2
TEXTSTYLE_1
 70
0
 40
0.0
 41
0.8
 50
0.0
 71
0
 42
0.2
  3
gdt
  4

  0
ENDTAB
  0
TABLE
  2
VIEW
  5
6
100
AcDbSymbolTable
 70
0
  0
ENDTAB
  0
TABLE
  2
UCS
  5
7
100
AcDbSymbolTable
 70
0
  0
ENDTAB
  0
TABLE
  2
APPID
  5
9
100
AcDbSymbolTable
 70
1
  0
APPID
  5
20F
100
AcDbSymbolTableRecord
100
AcDbRegAppTableRecord
  2
ACAD
 70
0
  0
ENDTAB
  0
TABLE
  2
BLOCK_RECORD
  5
1
100
AcDbSymbolTable
 70
0
  0
BLOCK_RECORD
  5
210
100
AcDbSymbolTableRecord
100
AcDbBlockTableRecord
  2
*Model_Space
  0
BLOCK_RECORD
  5
211
100
AcDbSymbolTableRecord
100
AcDbBlockTableRecord
  2
*Paper_Space
  0
BLOCK_RECORD
  5
212
100
AcDbSymbolTableRecord
100
AcDbBlockTableRecord
  2
_FILLED
  0
ENDTAB
  0
TABLE
  2
DIMSTYLE
  5
A
100
AcDbSymbolTable
 70
1
100
AcDbDimStyleTable
 71
0
  0
DIMSTYLE
105
213
100
AcDbSymbolTableRecord
100
AcDbDimStyleTableRecord
  2
STANDARD
 70
0
  3

  4

 40
1.0
 41
1.0967795774
 42
1.0
 43
0.38
 44
1.0
 45
0.0
 46
0.0
 47
0.01
 48
0.01
140
1.5354914083
141
0.09
142
0.0
143
25.4
144
1.0
145
0.0
146
1.0
147
0.625
 71
1
 72
0
 73
0
 74
0
 75
0
 76
0
 77
1
 78
8
 79
2
170
0
171
1
172
0
173
0
174
0
175
0
176
0
177
0
178
0
270
2
179
2
271
2
272
2
273
2
274
2
275
0
280
0
281
0
282
0
283
1
284
8
285
0
286
0
287
3
288
0
340
11
278
46
341
212
342
212
343
212
344
212
  0
ENDTAB
  0
ENDSEC
  0
SECTION
  2
BLOCKS
  0
BLOCK
  5
20
100
AcDbEntity
  8
0
100
AcDbBlockBegin
  2
*Model_Space
 70
0
 10
0.0
 20
0.0
 30
0.0
  3
*Model_Space
  1

  0
ENDBLK
  5
21
100
AcDbEntity
  8
0
100
AcDbBlockEnd
  0
BLOCK
  5
1C
100
AcDbEntity
  8
0
100
AcDbBlockBegin
  2
*Paper_Space
 70
0
 10
0.0
 20
0.0
 30
0.0
  3
*Paper_Space
  1

  0
ENDBLK
  5
1D
100
AcDbEntity
  8
0
100
AcDbBlockEnd
  0
BLOCK
  5
214
100
AcDbEntity
  8
0
100
AcDbBlockBegin
  2
_FILLED
 70
64
 10
0.0
 20
0.0
  3
_FILLED
  1

  0
SOLID
  5
215
100
AcDbEntity
  8
0
  6
BYBLOCK
 62
0
100
AcDbTrace
 10
0.0
 20
0.0
 11
-1.0
 21
0.25
 12
-1.0
 22
-0.25
 13
-1.0
 23
-0.25
  0
ENDBLK
  5
216
100
AcDbEntity
  8
0
  6
BYBLOCK
 62
0
100
AcDbBlockEnd
  0
ENDSEC
  0
SECTION
  2
ENTITIES
  0
LINE
  5
217
100
AcDbEntity
  8
0
100
AcDbLine
 62
7
  6
CONTINUOUS
 10
10.2608629397
 20
49.75
 11
10.2608629397
 21
77.75
  0
LINE
  5
218
100
AcDbEntity
  8
0
100
AcDbLine
 62
7
  6
CONTINUOUS
 10
10.2608629397
 20
77.7602217462
 11
10.2608629397
 21
79.75
  0
LINE
  5
219
100
AcDbEntity
  8
0
100
AcDbLine
 62
7
  6
CONTINUOUS
 10
10.7577701101
 20
77.75
 11
10.7577701101
 21
77.55
  0
LINE
  5
21A
100
AcDbEntity
  8
0
100
AcDbLine
 62
7
  6
CONTINUOUS
 10
10.7577701101
 20
51.95
 11
10.7577701101
 21
51.75
  0
LINE
  5
21B
100
AcDbEntity
  8
0
100
AcDbLine
 62
7
  6
CONTINUOUS
 10
11.03518467
 20
51.75
 11
11.03518467
 21
51.45
  0
LINE
  5
21C
100
AcDbEntity
  8
0
100
AcDbLine
 62
7
  6
CONTINUOUS
 10
11.0351846822
 20
77.75
 11
11.0351846822
 21
78.05
  0
LINE
  5
21D
100
AcDbEntity
  8
0
100
AcDbLine
 62
7
  6
CONTINUOUS
 10
10.7577700616
 20
77.5499999459
 11
10.8801782877
 21
77.692608364
  0
LINE
  5
21E
100
AcDbEntity
  8
0
100
AcDbLine
 62
7
  6
CONTINUOUS
 10
11.2538922746
 20
77.6905980167
 11
11.4410264822
 21
77.9014363182
  0
LINE
  5
21F
100
AcDbEntity
  8
0
100
AcDbLine
 62
7
  6
CONTINUOUS
 10
11.2539203675
 20
51.809426912
 11
11.4410305195
 21
51.5985672645
  0
LINE
  5
220
100
AcDbEntity
  8
0
100
AcDbLine
 62
7
  6
CONTINUOUS
 10
10.7577701101
 20
51.95
 11
10.8801782381
 21
51.8073916585
  0
LINE
  5
221
100
AcDbEntity
  8
0
100
AcDbLine
 62
7
  6
CONTINUOUS
 10
23.7608629397
 20
49.75
 11
23.7608629397
 21
46.75
  0
LINE
  5
222
100
AcDbEntity
  8
0
100
AcDbLine
 62
7
  6
CONTINUOUS
 10
23.7608629397
 20
79.75
 11
23.7608629397
 21
82.75
  0
LINE
  5
223
100
AcDbEntity
  8
0
100
AcDbLine
 62
7
  6
CONTINUOUS
 10
37.3151962473
 20
43.75
 11
35.7608629397
 21
43.75
  0
LINE
  5
224
100
AcDbEntity
  8
0
100
AcDbLine
 62
7
  6
CONTINUOUS
 10
20.7608629397
 20
43.75
 11
16.2608629397
 21
43.75
  0
LINE
  5
225
100
AcDbEntity
  8
0
100
AcDbLine
 62
7
  6
CONTINUOUS
 10
44.2065296322
 20
47.25
 11
48.2608629397
 21
47.25
  0
LINE
  5
226
100
AcDbEntity
  8
0
100
AcDbLine
 62
7
  6
CONTINUOUS
 10
65.603192159
 20
47.25
 11
76.2608629397
 21
47.25
  0
LINE
  5
227
100
AcDbEntity
  8
0
100
AcDbLine
 62
7
  6
CONTINUOUS
 10
32.7608629397
 20
49.75
 11
32.7608629397
 21
46.75
  0
LINE
  5
228
100
AcDbEntity
  8
0
100
AcDbLine
 62
7
  6
CONTINUOUS
 10
32.7608629397
 20
79.75
 11
32.7608629397
 21
82.75
  0
LINE
  5
229
100
AcDbEntity
  8
0
100
AcDbLine
 62
7
  6
CONTINUOUS
 10
48.2608629397
 20
49.25
 11
45.2608629397
 21
49.25
  0
LINE
  5
22A
100
AcDbEntity
  8
0
100
AcDbLine
 62
7
  6
CONTINUOUS
 10
45.2608629397
 20
50.25
 11
48.2608629397
 21
50.25
  0
LINE
  5
22B
100
AcDbEntity
  8
0
100
AcDbLine
 62
7
  6
CONTINUOUS
 10
10.8801798299
 20
51.8073930248
 11
11.2539203644
 21
51.8094269092
  0
LINE
  5
22C
100
AcDbEntity
  8
0
100
AcDbLine
 62
7
  6
CONTINUOUS
 10
10.2608629397
 20
51.45
 11
11.035184672
 21
51.45
  0
LINE
  5
22D
100
AcDbEntity
  8
0
100
AcDbLine
 62
7
  6
CONTINUOUS
 10
11.0351846706
 20
51.75
 11
10.2608629397
 21
51.75
  0
LINE
  5
22E
100
AcDbEntity
  8
0
100
AcDbLine
 62
7
  6
CONTINUOUS
 10
10.7577664563
 20
51.95
 11
10.2608629397
 21
51.95
  0
LINE
  5
22F
100
AcDbEntity
  8
0
100
AcDbLine
 62
7
  6
CONTINUOUS
 10
48.2608629397
 20
52.25
 11
45.2608629397
 21
52.25
  0
LINE
  5
230
100
AcDbEntity
  8
0
100
AcDbLine
 62
7
  6
CONTINUOUS
 10
48.2608629397
 20
53.25
 11
45.2608629397
 21
53.25
  0
LINE
  5
231
100
AcDbEntity
  8
0
100
AcDbLine
 62
7
  6
CONTINUOUS
 10
45.2608629397
 20
54.25
 11
48.2608629397
 21
54.25
  0
LINE
  5
232
100
AcDbEntity
  8
0
100
AcDbLine
 62
7
  6
CONTINUOUS
 10
58.4888610671
 20
55.25
 11
45.3447831566
 21
55.25
  0
LINE
  5
233
100
AcDbEntity
  8
0
100
AcDbLine
 62
7
  6
CONTINUOUS
 10
43.2608629397
 20
82.4029463463
 11
43.2608629397
 21
47.0970536537
  0
LINE
  5
234
100
AcDbEntity
  8
0
100
AcDbLine
 62
7
  6
CONTINUOUS
 10
45.2608629397
 20
74.25
 11
45.2608629397
 21
55.25
  0
LINE
  5
235
100
AcDbEntity
  8
0
100
AcDbLine
 62
7
  6
CONTINUOUS
 10
45.2608629397
 20
47.25
 11
45.2608629397
 21
54.25
  0
LINE
  5
236
100
AcDbEntity
  8
0
100
AcDbLine
 62
7
  6
CONTINUOUS
 10
45.2608629397
 20
75.25
 11
45.2608629397
 21
82.25
  0
LINE
  5
237
100
AcDbEntity
  8
0
100
AcDbLine
 62
7
  6
CONTINUOUS
 10
74.8650167113
 20
64.7499999485
 11
74.698362454
 21
64.7499999045
  0
LINE
  5
238
100
AcDbEntity
  8
0
100
AcDbLine
 62
7
  6
CONTINUOUS
 10
64.8233634255
 20
64.7499999045
 11
64.6567091682
 21
64.7499999485
  0
LINE
  5
239
100
AcDbEntity
  8
0
100
AcDbLine
 62
7
  6
CONTINUOUS
 10
48.2608629397
 20
47.25
 11
48.2608629397
 21
54.25
  0
LINE
  5
23A
100
AcDbEntity
  8
0
100
AcDbLine
 62
7
  6
CONTINUOUS
 10
48.2608629397
 20
75.25
 11
48.2608629397
 21
82.25
  0
LINE
  5
23B
100
AcDbEntity
  8
0
100
AcDbLine
 62
7
  6
CONTINUOUS
 10
68.2005705833
 20
69.4344762712
 11
68.2015262969
 21
69.4348021553
  0
LINE
  5
23C
100
AcDbEntity
  8
0
100
AcDbLine
 62
7
  6
CONTINUOUS
 10
68.2005694075
 20
60.0655201936
 11
68.201563567
 21
60.065182383
  0
LINE
  5
23D
100
AcDbEntity
  8
0
100
AcDbLine
 62
7
  6
CONTINUOUS
 10
51.2608629397
 20
55.25
 11
51.2608629397
 21
74.25
  0
LINE
  5
23E
100
AcDbEntity
  8
0
100
AcDbLine
 62
7
  6
CONTINUOUS
 10
73.8066561014
 20
66.8258584181
 11
74.0337370483
 21
66.9085091235
  0
LINE
  5
23F
100
AcDbEntity
  8
0
100
AcDbLine
 62
7
  6
CONTINUOUS
 10
65.7150697781
 20
62.6741415819
 11
65.4879888312
 21
62.5914908765
  0
LINE
  5
240
100
AcDbEntity
  8
0
100
AcDbLine
 62
7
  6
CONTINUOUS
 10
74.0337370483
 20
62.5914908765
 11
73.7850177569
 21
62.6820172953
  0
LINE
  5
241
100
AcDbEntity
  8
0
100
AcDbLine
 62
7
  6
CONTINUOUS
 10
65.4879888312
 20
66.9085091235
 11
65.7367081226
 21
66.8179827047
  0
LINE
  5
242
100
AcDbEntity
  8
0
100
AcDbLine
 62
7
  6
CONTINUOUS
 10
62.6927646585
 20
79.9776068752
 11
62.0183273147
 21
77.2798574999
  0
LINE
  5
243
100
AcDbEntity
  8
0
100
AcDbLine
 62
7
  6
CONTINUOUS
 10
63.5308768115
 20
80.3033703248
 11
62.2341777774
 21
76.8455062336
  0
LINE
  5
244
100
AcDbEntity
  8
0
100
AcDbLine
 62
7
  6
CONTINUOUS
 10
66.3765926228
 20
68.345222354
 11
66.3770003152
 21
68.3456009218
  0
LINE
  5
245
100
AcDbEntity
  8
0
100
AcDbLine
 62
7
  6
CONTINUOUS
 10
65.096774628
 20
63.1297572805
 11
65.2046117172
 21
63.1840851057
  0
LINE
  5
246
100
AcDbEntity
  8
0
100
AcDbLine
 62
7
  6
CONTINUOUS
 10
73.7674461277
 20
67.4946521014
 11
73.8404059035
 21
67.5314088979
  0
LINE
  5
247
100
AcDbEntity
  8
0
100
AcDbLine
 62
7
  6
CONTINUOUS
 10
65.7542797518
 20
62.0053478986
 11
65.681319976
 21
61.9685911021
  0
LINE
  5
248
100
AcDbEntity
  8
0
100
AcDbLine
 62
7
  6
CONTINUOUS
 10
74.4249512515
 20
66.3702427195
 11
74.3171141462
 21
66.3159148862
  0
LINE
  5
249
100
AcDbEntity
  8
0
100
AcDbLine
 62
7
  6
CONTINUOUS
 10
45.3447831566
 20
74.25
 11
58.4888610671
 21
74.25
  0
LINE
  5
24A
100
AcDbEntity
  8
0
100
AcDbLine
 62
7
  6
CONTINUOUS
 10
48.2608629397
 20
75.25
 11
45.2608629397
 21
75.25
  0
LINE
  5
24B
100
AcDbEntity
  8
0
100
AcDbLine
 62
7
  6
CONTINUOUS
 10
45.2608629397
 20
76.25
 11
48.2608629397
 21
76.25
  0
LINE
  5
24C
100
AcDbEntity
  8
0
100
AcDbLine
 62
7
  6
CONTINUOUS
 10
65.096774628
 20
66.3702427195
 11
65.2046117328
 21
66.3159148865
  0
LINE
  5
24D
100
AcDbEntity
  8
0
100
AcDbLine
 62
7
  6
CONTINUOUS
 10
74.4249512515
 20
63.1297572805
 11
74.3171141367
 21
63.1840851186
  0
LINE
  5
24E
100
AcDbEntity
  8
0
100
AcDbLine
 62
7
  6
CONTINUOUS
 10
66.3765910024
 20
61.1547788244
 11
66.3769997822
 21
61.1543983738
  0
LINE
  5
24F
100
AcDbEntity
  8
0
100
AcDbLine
 62
7
  6
CONTINUOUS
 10
62.2341777774
 20
52.6544937664
 11
63.5308768115
 21
49.1966296752
  0
LINE
  5
250
100
AcDbEntity
  8
0
100
AcDbLine
 62
7
  6
CONTINUOUS
 10
62.0183273147
 20
52.2201425001
 11
62.6927646585
 21
49.5223931248
  0
LINE
  5
251
100
AcDbEntity
  8
0
100
AcDbLine
 62
7
  6
CONTINUOUS
 10
39.0355832804
 20
44.2923042384
 11
42.4861425991
 21
46.7076957615
  0
LINE
  5
252
100
AcDbEntity
  8
0
100
AcDbLine
 62
7
  6
CONTINUOUS
 10
71.3211550134
 20
60.0655245557
 11
71.3201786823
 21
60.0651917189
  0
LINE
  5
253
100
AcDbEntity
  8
0
100
AcDbLine
 62
7
  6
CONTINUOUS
 10
45.2608629397
 20
77.25
 11
48.2608629397
 21
77.25
  0
LINE
  5
254
100
AcDbEntity
  8
0
100
AcDbLine
 62
7
  6
CONTINUOUS
 10
10.2608629397
 20
77.55
 11
10.7577701101
 21
77.55
  0
LINE
  5
255
100
AcDbEntity
  8
0
100
AcDbLine
 62
7
  6
CONTINUOUS
 10
10.2608629397
 20
77.75
 11
11.0351846794
 21
77.75
  0
LINE
  5
256
100
AcDbEntity
  8
0
100
AcDbLine
 62
7
  6
CONTINUOUS
 10
10.2608629397
 20
78.05
 11
11.035184681
 21
78.0499999966
  0
LINE
  5
257
100
AcDbEntity
  8
0
100
AcDbLine
 62
7
  6
CONTINUOUS
 10
48.2608629397
 20
79.25
 11
45.2608629397
 21
79.25
  0
LINE
  5
258
100
AcDbEntity
  8
0
100
AcDbLine
 62
7
  6
CONTINUOUS
 10
11.2539203548
 20
77.6905730993
 11
10.8801773827
 21
77.6926090757
  0
LINE
  5
259
100
AcDbEntity
  8
0
100
AcDbLine
 62
7
  6
CONTINUOUS
 10
71.321156431
 20
69.4344796861
 11
71.3201329305
 21
69.4348274048
  0
LINE
  5
25A
100
AcDbEntity
  8
0
100
AcDbLine
 62
7
  6
CONTINUOUS
 10
42.4861425991
 20
82.7923042385
 11
39.0355832804
 21
85.2076957616
  0
LWPOLYLINE
  5
25B
100
AcDbEntity
  8
0
100
AcDbPolyline
 62
7
  6
CONTINUOUS
 90
4
 70
0
 10
64.7870704051
 20
63.8086738393
 10
64.8703993025
 20
63.7035567258
 10
64.9522754642
 20
63.5608170374
 10
65.0092022268
 20
63.4081079177
  0
LWPOLYLINE
  5
25C
100
AcDbEntity
  8
0
100
AcDbPolyline
 62
7
  6
CONTINUOUS
 90
4
 70
0
 10
65.0092022268
 20
66.0918920823
 10
64.9518870522
 20
65.9383554867
 10
64.8693609195
 20
65.7949386744
 10
64.7870704051
 20
65.6913261607
  0
LINE
  5
25D
100
AcDbEntity
  8
0
100
AcDbLine
 62
7
  6
CONTINUOUS
 10
45.2608629397
 20
80.25
 11
48.2608629397
 21
80.25
  0
LINE
  5
25E
100
AcDbEntity
  8
0
100
AcDbLine
 62
7
  6
CONTINUOUS
 10
44.2065296322
 20
82.25
 11
48.2608629397
 21
82.25
  0
LINE
  5
25F
100
AcDbEntity
  8
0
100
AcDbLine
 62
7
  6
CONTINUOUS
 10
65.603192159
 20
82.25
 11
76.2608629397
 21
82.25
  0
LINE
  5
260
100
AcDbEntity
  8
0
100
AcDbLine
 62
7
  6
CONTINUOUS
 10
70.3738855718
 20
58.8819336019
 11
70.2738797611
 21
59.8392240948
  0
LINE
  5
261
100
AcDbEntity
  8
0
100
AcDbLine
 62
7
  6
CONTINUOUS
 10
69.2478461184
 20
69.6607759052
 11
69.1478403077
 21
70.6180663981
  0
LINE
  5
262
100
AcDbEntity
  8
0
100
AcDbLine
 62
7
  6
CONTINUOUS
 10
69.1478403077
 20
58.8819336019
 11
69.2478461184
 21
59.8392240948
  0
LINE
  5
263
100
AcDbEntity
  8
0
100
AcDbLine
 62
7
  6
CONTINUOUS
 10
70.2738797611
 20
69.6607759052
 11
70.3738855718
 21
70.6180663981
  0
LINE
  5
264
100
AcDbEntity
  8
0
100
AcDbLine
 62
7
  6
CONTINUOUS
 10
70.9875961163
 20
69.5326804162
 11
70.9527295669
 21
69.3967457516
  0
LINE
  5
265
100
AcDbEntity
  8
0
100
AcDbLine
 62
7
  6
CONTINUOUS
 10
68.5341297632
 20
59.9673195838
 11
68.5689963122
 21
60.1032542468
  0
LINE
  5
266
100
AcDbEntity
  8
0
100
AcDbLine
 62
7
  6
CONTINUOUS
 10
73.1451397413
 20
61.1547837473
 11
73.1447255305
 21
61.1543991146
  0
LINE
  5
267
100
AcDbEntity
  8
0
100
AcDbLine
 62
7
  6
CONTINUOUS
 10
16.2608629397
 20
85.75
 11
20.7608629397
 21
85.75
  0
LINE
  5
268
100
AcDbEntity
  8
0
100
AcDbLine
 62
7
  6
CONTINUOUS
 10
35.7608629397
 20
85.75
 11
37.3151962473
 21
85.75
  0
LINE
  5
269
100
AcDbEntity
  8
0
100
AcDbLine
 62
7
  6
CONTINUOUS
 10
73.1451397224
 20
68.3452162719
 11
73.1447259095
 21
68.3456014242
  0
LWPOLYLINE
  5
26A
100
AcDbEntity
  8
0
100
AcDbPolyline
 62
7
  6
CONTINUOUS
 90
4
 70
0
 10
74.7346554744
 20
65.6913261607
 10
74.6513265754
 20
65.7964432764
 10
74.5694504141
 20
65.9391829651
 10
74.5125236527
 20
66.0918920823
  0
LINE
  5
26B
100
AcDbEntity
  8
0
100
AcDbLine
 62
7
  6
CONTINUOUS
 10
70.9527298053
 20
60.1032533189
 11
70.9875961163
 21
59.9673195838
  0
LINE
  5
26C
100
AcDbEntity
  8
0
100
AcDbLine
 62
7
  6
CONTINUOUS
 10
68.5689960744
 20
69.3967466801
 11
68.5341297632
 21
69.5326804162
  0
LWPOLYLINE
  5
26D
100
AcDbEntity
  8
0
100
AcDbPolyline
 62
7
  6
CONTINUOUS
 90
4
 70
0
 10
74.5125236527
 20
63.4081079177
 10
74.5698388305
 20
63.5616445202
 10
74.6523649642
 20
63.7050613317
 10
74.7346554744
 20
63.8086738393
  0
LINE
  5
26E
100
AcDbEntity
  8
0
100
AcDbLine
 62
7
  6
CONTINUOUS
 10
84.2608629397
 20
74.25
 11
84.2608629397
 21
55.25
  0
ARC
  5
26F
100
AcDbEntity
  8
0
100
AcDbCircle
 62
7
  6
CONTINUOUS
 10
16.2608629397
 20
49.75
 40
6.0
100
AcDbArc
 50
180.0
 51
270.0
  0
ARC
  5
270
100
AcDbEntity
  8
0
100
AcDbCircle
 62
7
  6
CONTINUOUS
 10
28.2608629397
 20
49.75
 40
4.5
100
AcDbArc
 50
0.0
 51
180.0
  0
ARC
  5
271
100
AcDbEntity
  8
0
100
AcDbCircle
 62
7
  6
CONTINUOUS
 10
37.3151962473
 20
46.75
 40
3.0
100
AcDbArc
 50
270.0
 51
304.9920201983
  0
ARC
  5
272
100
AcDbEntity
  8
0
100
AcDbCircle
 62
7
  6
CONTINUOUS
 10
35.7608629397
 20
46.75
 40
3.0
100
AcDbArc
 50
180.0
 51
270.0
  0
ARC
  5
273
100
AcDbEntity
  8
0
100
AcDbCircle
 62
7
  6
CONTINUOUS
 10
20.7608629397
 20
46.75
 40
3.0
100
AcDbArc
 50
270.0
 51
360.0
  0
ARC
  5
274
100
AcDbEntity
  8
0
100
AcDbCircle
 62
7
  6
CONTINUOUS
 10
-0.2291330571
 20
64.75
 40
17.5827444076
100
AcDbArc
 50
311.5848313008
 51
48.415178436
  0
ARC
  5
275
100
AcDbEntity
  8
0
100
AcDbCircle
 62
7
  6
CONTINUOUS
 10
-0.2291330571
 20
64.75
 40
17.3008366213
100
AcDbArc
 50
311.584831394
 51
48.4151686486
  0
ARC
  5
276
100
AcDbEntity
  8
0
100
AcDbCircle
 62
7
  6
CONTINUOUS
 10
-0.2291330571
 20
64.75
 40
17.0566089283
100
AcDbArc
 50
310.641208749
 51
49.3588020846
  0
ARC
  5
277
100
AcDbEntity
  8
0
100
AcDbCircle
 62
7
  6
CONTINUOUS
 10
-0.2291330571
 20
64.75
 40
16.8686704042
100
AcDbArc
 50
310.6411922853
 51
49.3587982978
  0
ARC
  5
278
100
AcDbEntity
  8
0
100
AcDbCircle
 62
7
  6
CONTINUOUS
 10
16.2608629397
 20
79.75
 40
6.0
100
AcDbArc
 50
90.0
 51
180.0
  0
ARC
  5
279
100
AcDbEntity
  8
0
100
AcDbCircle
 62
7
  6
CONTINUOUS
 10
28.2608629397
 20
79.75
 40
4.5
100
AcDbArc
 50
180.0
 51
360.0
  0
CIRCLE
  5
27A
100
AcDbEntity
  8
0
100
AcDbCircle
 62
7
  6
CONTINUOUS
 10
28.2608629397
 20
64.75
 40
4.5
  0
ARC
  5
27B
100
AcDbEntity
  8
0
100
AcDbCircle
 62
7
  6
CONTINUOUS
 10
20.7608629397
 20
82.75
 40
3.0
100
AcDbArc
 50
0.0
 51
90.0
  0
ARC
  5
27C
100
AcDbEntity
  8
0
100
AcDbCircle
 62
7
  6
CONTINUOUS
 10
35.7608629397
 20
82.75
 40
3.0
100
AcDbArc
 50
90.0
 51
180.0
  0
ARC
  5
27D
100
AcDbEntity
  8
0
100
AcDbCircle
 62
7
  6
CONTINUOUS
 10
37.3151962473
 20
82.75
 40
3.0
100
AcDbArc
 50
55.0079798016
 51
90.0
  0
ARC
  5
27E
100
AcDbEntity
  8
0
100
AcDbCircle
 62
7
  6
CONTINUOUS
 10
76.2608629397
 20
55.25
 40
8.0
100
AcDbArc
 50
270.0
 51
360.0
  0
ARC
  5
27F
100
AcDbEntity
  8
0
100
AcDbCircle
 62
7
  6
CONTINUOUS
 10
58.4888610671
 20
51.25
 40
4.0
100
AcDbArc
 50
20.5560452196
 51
90.0
  0
ARC
  5
280
100
AcDbEntity
  8
0
100
AcDbCircle
 62
7
  6
CONTINUOUS
 10
58.1377573141
 20
51.25
 40
4.0
100
AcDbArc
 50
14.0362434674
 51
89.9987536452
  0
ARC
  5
281
100
AcDbEntity
  8
0
100
AcDbCircle
 62
7
  6
CONTINUOUS
 10
66.3398643442
 20
50.25
 40
3.0
100
AcDbArc
 50
200.5560452193
 51
270.0
  0
ARC
  5
282
100
AcDbEntity
  8
0
100
AcDbCircle
 62
7
  6
CONTINUOUS
 10
65.603192159
 20
50.25
 40
3.0
100
AcDbArc
 50
194.0362434689
 51
270.0
  0
ARC
  5
283
100
AcDbEntity
  8
0
100
AcDbCircle
 62
7
  6
CONTINUOUS
 10
44.2065296322
 20
44.25
 40
3.0
100
AcDbArc
 50
90.0
 51
124.9920201995
  0
ARC
  5
284
100
AcDbEntity
  8
0
100
AcDbCircle
 62
7
  6
CONTINUOUS
 10
72.937114758
 20
61.3759761451
 40
0.3036449528
100
AcDbArc
 50
270.0323006744
 51
313.1361877095
  0
ARC
  5
285
100
AcDbEntity
  8
0
100
AcDbCircle
 62
7
  6
CONTINUOUS
 10
71.2241419918
 20
60.3531879278
 40
0.3035862044
100
AcDbArc
 50
288.6364195556
 51
331.2667816325
  0
ARC
  5
286
100
AcDbEntity
  8
0
100
AcDbCircle
 62
7
  6
CONTINUOUS
 10
68.2975449964
 20
60.353155858
 40
0.3035469166
100
AcDbArc
 50
208.7319794278
 51
251.3686042642
  0
ARC
  5
287
100
AcDbEntity
  8
0
100
AcDbCircle
 62
7
  6
CONTINUOUS
 10
66.5845428616
 20
61.375813913
 40
0.3034801589
100
AcDbArc
 50
226.8522920068
 51
269.9776422858
  0
ARC
  5
288
100
AcDbEntity
  8
0
100
AcDbCircle
 62
7
  6
CONTINUOUS
 10
73.999535034
 20
62.4975216144
 40
0.1
100
AcDbArc
 50
332.0133170159
 51
69.9999999996
  0
ARC
  5
289
100
AcDbEntity
  8
0
100
AcDbCircle
 62
7
  6
CONTINUOUS
 10
65.5221908455
 20
62.4975216144
 40
0.1
100
AcDbArc
 50
110.0000000004
 51
207.9866829842
  0
ARC
  5
28A
100
AcDbEntity
  8
0
100
AcDbCircle
 62
7
  6
CONTINUOUS
 10
58.4888610671
 20
78.25
 40
4.0
100
AcDbArc
 50
270.0
 51
339.4439547803
  0
ARC
  5
28B
100
AcDbEntity
  8
0
100
AcDbCircle
 62
7
  6
CONTINUOUS
 10
58.1377573141
 20
78.25
 40
4.0
100
AcDbArc
 50
270.0004154785
 51
345.9637565327
  0
ARC
  5
28C
100
AcDbEntity
  8
0
100
AcDbCircle
 62
7
  6
CONTINUOUS
 10
44.2065296322
 20
85.25
 40
3.0
100
AcDbArc
 50
235.0079798005
 51
270.0
  0
ARC
  5
28D
100
AcDbEntity
  8
0
100
AcDbCircle
 62
7
  6
CONTINUOUS
 10
65.8233629397
 20
64.75
 40
1.4
100
AcDbArc
 50
137.7497890499
 51
222.2502060439
  0
ARC
  5
28E
100
AcDbEntity
  8
0
100
AcDbCircle
 62
7
  6
CONTINUOUS
 10
66.584591062
 20
68.1241021997
 40
0.303563104
100
AcDbArc
 50
90.0364211546
 51
133.1435350375
  0
ARC
  5
28F
100
AcDbEntity
  8
0
100
AcDbCircle
 62
7
  6
CONTINUOUS
 10
65.5221908455
 20
67.0024783856
 40
0.1
100
AcDbArc
 50
152.0133170159
 51
249.9999999996
  0
ARC
  5
290
100
AcDbEntity
  8
0
100
AcDbCircle
 62
7
  6
CONTINUOUS
 10
69.7608629397
 20
64.75
 40
5.9
100
AcDbArc
 50
95.9639179028
 51
264.0360820972
  0
ARC
  5
291
100
AcDbEntity
  8
0
100
AcDbCircle
 62
7
  6
CONTINUOUS
 10
69.7608629397
 20
64.75
 40
5.9
100
AcDbArc
 50
275.9639179028
 51
84.0360820972
  0
ARC
  5
292
100
AcDbEntity
  8
0
100
AcDbCircle
 62
7
  6
CONTINUOUS
 10
69.7608629397
 20
64.75
 40
5.25
100
AcDbArc
 50
187.1891239299
 51
264.0360820972
  0
ARC
  5
293
100
AcDbEntity
  8
0
100
AcDbCircle
 62
7
  6
CONTINUOUS
 10
69.7608629397
 20
64.75
 40
5.25
100
AcDbArc
 50
95.9639179028
 51
172.8161691163
  0
ARC
  5
294
100
AcDbEntity
  8
0
100
AcDbCircle
 62
7
  6
CONTINUOUS
 10
69.7608629397
 20
64.75
 40
5.25
100
AcDbArc
 50
7.1891239299
 51
84.0360820972
  0
ARC
  5
295
100
AcDbEntity
  8
0
100
AcDbCircle
 62
7
  6
CONTINUOUS
 10
69.7608629397
 20
64.75
 40
5.25
100
AcDbArc
 50
275.9639179028
 51
352.8161691163
  0
ARC
  5
296
100
AcDbEntity
  8
0
100
AcDbCircle
 62
7
  6
CONTINUOUS
 10
69.7608629397
 20
64.75
 40
4.9375
100
AcDbArc
 50
108.4310408414
 51
288.4097716794
  0
ARC
  5
297
100
AcDbEntity
  8
0
100
AcDbCircle
 62
7
  6
CONTINUOUS
 10
69.7608629398
 20
64.7500000001
 40
4.9374999999
100
AcDbArc
 50
288.431357428
 51
108.4100242481
  0
ARC
  5
298
100
AcDbEntity
  8
0
100
AcDbCircle
 62
7
  6
CONTINUOUS
 10
69.7608629397
 20
64.75
 40
4.9
100
AcDbArc
 50
207.9866829841
 51
255.6249546931
  0
ARC
  5
299
100
AcDbEntity
  8
0
100
AcDbCircle
 62
7
  6
CONTINUOUS
 10
69.7608629397
 20
64.75
 40
4.9
100
AcDbArc
 50
284.3750453069
 51
332.0133170159
  0
ARC
  5
29A
100
AcDbEntity
  8
0
100
AcDbCircle
 62
7
  6
CONTINUOUS
 10
69.7608629397
 20
64.75
 40
4.9
100
AcDbArc
 50
27.9866829841
 51
75.6249546931
  0
ARC
  5
29B
100
AcDbEntity
  8
0
100
AcDbCircle
 62
7
  6
CONTINUOUS
 10
69.7608629397
 20
64.75
 40
4.9
100
AcDbArc
 50
104.3750453069
 51
152.0133170159
  0
ARC
  5
29C
100
AcDbEntity
  8
0
100
AcDbCircle
 62
7
  6
CONTINUOUS
 10
69.7608629397
 20
64.75
 40
4.7544417382
100
AcDbArc
 50
160.9677148907
 51
199.0322747562
  0
ARC
  5
29D
100
AcDbEntity
  8
0
100
AcDbCircle
 62
7
  6
CONTINUOUS
 10
69.7608629397
 20
64.75
 40
4.7544417382
100
AcDbArc
 50
75.5411239417
 51
104.4588760572
  0
ARC
  5
29E
100
AcDbEntity
  8
0
100
AcDbCircle
 62
7
  6
CONTINUOUS
 10
69.7608629397
 20
64.75
 40
4.7544412021
100
AcDbArc
 50
255.5411222035
 51
284.4588777962
  0
ARC
  5
29F
100
AcDbEntity
  8
0
100
AcDbCircle
 62
7
  6
CONTINUOUS
 10
69.7608629397
 20
64.75
 40
4.7544360158
100
AcDbArc
 50
340.9677148907
 51
19.0323037185
  0
ARC
  5
2A0
100
AcDbEntity
  8
0
100
AcDbCircle
 62
7
  6
CONTINUOUS
 10
69.7608629397
 20
64.75
 40
4.5583452987
100
AcDbArc
 50
108.5623799002
 51
156.8579117176
  0
ARC
  5
2A1
100
AcDbEntity
  8
0
100
AcDbCircle
 62
7
  6
CONTINUOUS
 10
69.7608629397
 20
64.75
 40
4.5583452987
100
AcDbArc
 50
288.5623799002
 51
336.8579117176
  0
ARC
  5
2A2
100
AcDbEntity
  8
0
100
AcDbCircle
 62
7
  6
CONTINUOUS
 10
69.7608629397
 20
64.75
 40
4.5583452987
100
AcDbArc
 50
23.1419719384
 51
71.4378539048
  0
ARC
  5
2A3
100
AcDbEntity
  8
0
100
AcDbCircle
 62
7
  6
CONTINUOUS
 10
69.7608629397
 20
64.75
 40
4.5583452987
100
AcDbArc
 50
203.1419719384
 51
251.4378539049
  0
CIRCLE
  5
2A4
100
AcDbEntity
  8
0
100
AcDbCircle
 62
7
  6
CONTINUOUS
 10
69.7608629397
 20
64.75
 40
3.6585825879
  0
CIRCLE
  5
2A5
100
AcDbEntity
  8
0
100
AcDbCircle
 62
7
  6
CONTINUOUS
 10
69.7608629397
 20
64.75
 40
3.2343185192
  0
CIRCLE
  5
2A6
100
AcDbEntity
  8
0
100
AcDbCircle
 62
7
  6
CONTINUOUS
 10
69.7608629397
 20
64.75
 40
2.5
  0
ARC
  5
2A7
100
AcDbEntity
  8
0
100
AcDbCircle
 62
7
  6
CONTINUOUS
 10
68.2975351144
 20
69.1468590203
 40
0.3035173796
100
AcDbArc
 50
108.6305282876
 51
151.2646904878
  0
ARC
  5
2A8
100
AcDbEntity
  8
0
100
AcDbCircle
 62
7
  6
CONTINUOUS
 10
73.6983629397
 20
64.75
 40
1.4
100
AcDbArc
 50
317.7497890522
 51
42.25020604
  0
ARC
  5
2A9
100
AcDbEntity
  8
0
100
AcDbCircle
 62
7
  6
CONTINUOUS
 10
72.9371743826
 20
68.124171355
 40
0.3034965595
100
AcDbArc
 50
46.8530043755
 51
89.977582367
  0
ARC
  5
2AA
100
AcDbEntity
  8
0
100
AcDbCircle
 62
7
  6
CONTINUOUS
 10
71.2242252361
 20
69.1469189652
 40
0.3034618066
100
AcDbArc
 50
28.7241401091
 51
71.3720262926
  0
ARC
  5
2AB
100
AcDbEntity
  8
0
100
AcDbCircle
 62
7
  6
CONTINUOUS
 10
73.999535034
 20
67.0024783856
 40
0.1
100
AcDbArc
 50
290.0000000004
 51
27.9866829842
  0
ARC
  5
2AC
100
AcDbEntity
  8
0
100
AcDbCircle
 62
7
  6
CONTINUOUS
 10
76.2608629397
 20
74.25
 40
8.0
100
AcDbArc
 50
0.0
 51
90.0
  0
ARC
  5
2AD
100
AcDbEntity
  8
0
100
AcDbCircle
 62
7
  6
CONTINUOUS
 10
66.3398643442
 20
79.25
 40
3.0
100
AcDbArc
 50
90.0
 51
159.4439547806
  0
ARC
  5
2AE
100
AcDbEntity
  8
0
100
AcDbCircle
 62
7
  6
CONTINUOUS
 10
65.603192159
 20
79.25
 40
3.0
100
AcDbArc
 50
90.0
 51
165.9637565311
  0
SPLINE
  5
2AF
100
AcDbEntity
  8
0
100
AcDbSpline
 62
7
  6
CONTINUOUS
 70
0
 71
3
 72
13
 73
9
 74
0
 42
0.0000001
 43
0.0000001
 44
0.0000000001
 40
0.0
 40
0.0
 40
0.0
 40
0.0
 40
0.2126169504
 40
0.328567963
 40
0.4520152047
 40
0.5824223738
 40
0.7182844648
 40
1.0
 40
1.0
 40
1.0
 40
1.0
 10
65.2663228833
 20
66.3004276582
 30
0.0
 10
65.2953042604
 20
66.2982940608
 30
0.0
 10
65.3412294247
 20
66.3060564867
 30
0.0
 10
65.3973063657
 20
66.3323186839
 30
0.0
 10
65.4389177118
 20
66.3614593603
 30
0.0
 10
65.4778056762
 20
66.3980836652
 30
0.0
 10
65.5255693857
 20
66.455934771
 30
0.0
 10
65.5541816461
 20
66.5060816395
 30
0.0
 10
65.5693137773
 20
66.541487505
 30
0.0
  0
SPLINE
  5
2B0
100
AcDbEntity
  8
0
100
AcDbSpline
 62
7
  6
CONTINUOUS
 70
0
 71
3
 72
9
 73
5
 74
0
 42
0.0000001
 43
0.0000001
 44
0.0000000001
 40
0.0
 40
0.0
 40
0.0
 40
0.0
 40
0.2323400594
 40
1.0
 40
1.0
 40
1.0
 40
1.0
 10
65.2046120569
 20
66.3159157008
 30
0.0
 10
65.2090294192
 20
66.3136896423
 30
0.0
 10
65.2286674004
 20
66.3053397894
 30
0.0
 10
65.2500233884
 20
66.3016276124
 30
0.0
 10
65.2663228806
 20
66.3004276504
 30
0.0
  0
SPLINE
  5
2B1
100
AcDbEntity
  8
0
100
AcDbSpline
 62
7
  6
CONTINUOUS
 70
0
 71
3
 72
9
 73
5
 74
0
 42
0.0000001
 43
0.0000001
 44
0.0000000001
 40
0.0
 40
0.0
 40
0.0
 40
0.0
 40
0.2627038616
 40
1.0
 40
1.0
 40
1.0
 40
1.0
 10
68.5737499042
 20
69.3538547852
 30
0.0
 10
68.5737685115
 20
69.3576393649
 30
0.0
 10
68.5735529045
 20
69.372039742
 30
0.0
 10
68.5716356224
 20
69.3864581693
 30
0.0
 10
68.5689960409
 20
69.3967467743
 30
0.0
  0
SPLINE
  5
2B2
100
AcDbEntity
  8
0
100
AcDbSpline
 62
7
  6
CONTINUOUS
 70
0
 71
3
 72
13
 73
9
 74
0
 42
0.0000001
 43
0.0000001
 44
0.0000000001
 40
0.0
 40
0.0
 40
0.0
 40
0.0
 40
0.2818191256
 40
0.4177433563
 40
0.5480525058
 40
0.6713766793
 40
0.7873304954
 40
1.0
 40
1.0
 40
1.0
 40
1.0
 10
68.3097803806
 20
69.0712117824
 30
0.0
 10
68.3462569112
 20
69.0834610517
 30
0.0
 10
68.3985171747
 20
69.1079067049
 30
0.0
 10
68.4599575285
 20
69.1508456933
 30
0.0
 10
68.4994475425
 20
69.1867137115
 30
0.0
 10
68.5316200782
 20
69.225925533
 30
0.0
 10
68.562094932
 20
69.2797235966
 30
0.0
 10
68.5736071386
 20
69.3248181868
 30
0.0
 10
68.5737499005
 20
69.3538547842
 30
0.0
  0
SPLINE
  5
2B3
100
AcDbEntity
  8
0
100
AcDbSpline
 62
7
  6
CONTINUOUS
 70
0
 71
3
 72
13
 73
9
 74
0
 42
0.0000001
 43
0.0000001
 44
0.0000000001
 40
0.0
 40
0.0
 40
0.0
 40
0.0
 40
0.2126169504
 40
0.328567963
 40
0.4520152047
 40
0.5824223738
 40
0.7182844648
 40
1.0
 40
1.0
 40
1.0
 40
1.0
 10
74.2554029962
 20
63.1995723418
 30
0.0
 10
74.2264216191
 20
63.2017059392
 30
0.0
 10
74.1804964547
 20
63.1939435133
 30
0.0
 10
74.1244195137
 20
63.1676813161
 30
0.0
 10
74.0828081677
 20
63.1385406397
 30
0.0
 10
74.0439202033
 20
63.1019163348
 30
0.0
 10
73.9961564938
 20
63.044065229
 30
0.0
 10
73.9675442334
 20
62.9939183605
 30
0.0
 10
73.9524121022
 20
62.958512495
 30
0.0
  0
SPLINE
  5
2B4
100
AcDbEntity
  8
0
100
AcDbSpline
 62
7
  6
CONTINUOUS
 70
0
 71
3
 72
9
 73
5
 74
0
 42
0.0000001
 43
0.0000001
 44
0.0000000001
 40
0.0
 40
0.0
 40
0.0
 40
0.0
 40
0.2323400621
 40
1.0
 40
1.0
 40
1.0
 40
1.0
 10
74.3171138131
 20
63.1840843039
 30
0.0
 10
74.3126964513
 20
63.1863103618
 30
0.0
 10
74.2930584728
 20
63.1946602118
 30
0.0
 10
74.2717024884
 20
63.1983723878
 30
0.0
 10
74.2554029989
 20
63.1995723496
 30
0.0
  0
SPLINE
  5
2B5
100
AcDbEntity
  8
0
100
AcDbSpline
 62
7
  6
CONTINUOUS
 70
0
 71
3
 72
9
 73
5
 74
0
 42
0.0000001
 43
0.0000001
 44
0.0000000001
 40
0.0
 40
0.0
 40
0.0
 40
0.0
 40
0.2627039322
 40
1.0
 40
1.0
 40
1.0
 40
1.0
 10
70.9479759811
 20
60.14614577
 30
0.0
 10
70.9479573633
 20
60.1423611646
 30
0.0
 10
70.9481729361
 20
60.1279606931
 30
0.0
 10
70.9500901863
 20
60.1135421619
 30
0.0
 10
70.9527297849
 20
60.1032534904
 30
0.0
  0
SPLINE
  5
2B6
100
AcDbEntity
  8
0
100
AcDbSpline
 62
7
  6
CONTINUOUS
 70
0
 71
3
 72
13
 73
9
 74
0
 42
0.0000001
 43
0.0000001
 44
0.0000000001
 40
0.0
 40
0.0
 40
0.0
 40
0.0
 40
0.281819049
 40
0.4177432582
 40
0.5480524053
 40
0.6713765949
 40
0.7873304398
 40
1.0
 40
1.0
 40
1.0
 40
1.0
 10
71.2119454989
 20
60.4287882176
 30
0.0
 10
71.175469027
 20
60.416538968
 30
0.0
 10
71.1232088436
 20
60.3920933632
 30
0.0
 10
71.0617685633
 20
60.34915447
 30
0.0
 10
71.0222785752
 20
60.3132865324
 30
0.0
 10
70.9901060341
 20
60.2740747972
 30
0.0
 10
70.9596311294
 20
60.2202768425
 30
0.0
 10
70.9481188341
 20
60.1751823367
 30
0.0
 10
70.9479759849
 20
60.146145771
 30
0.0
  0
SPLINE
  5
2B7
100
AcDbEntity
  8
0
100
AcDbSpline
 62
7
  6
CONTINUOUS
 70
0
 71
3
 72
9
 73
5
 74
0
 42
0.0000001
 43
0.0000001
 44
0.0000000001
 40
0.0
 40
0.0
 40
0.0
 40
0.0
 40
0.2626566769
 40
1.0
 40
1.0
 40
1.0
 40
1.0
 10
68.5737866361
 20
60.1461362973
 30
0.0
 10
68.5738052487
 20
60.1423529246
 30
0.0
 10
68.5735335505
 20
60.1279553728
 30
0.0
 10
68.5716353079
 20
60.113540485
 30
0.0
 10
68.568995925
 20
60.1032526551
 30
0.0
  0
SPLINE
  5
2B8
100
AcDbEntity
  8
0
100
AcDbSpline
 62
7
  6
CONTINUOUS
 70
0
 71
3
 72
10
 73
6
 74
0
 42
0.0000001
 43
0.0000001
 44
0.0000000001
 40
0.0
 40
0.0
 40
0.0
 40
0.0
 40
0.2319002911
 40
0.6014756055
 40
1.0
 40
1.0
 40
1.0
 40
1.0
 10
65.2046120422
 20
63.1840842918
 30
0.0
 10
65.2090290722
 20
63.1863101838
 30
0.0
 10
65.2208745628
 20
63.1913197601
 30
0.0
 10
65.2415299449
 20
63.1969680728
 30
0.0
 10
65.2578424404
 20
63.1989479073
 30
0.0
 10
65.2663195886
 20
63.1995721221
 30
0.0
  0
SPLINE
  5
2B9
100
AcDbEntity
  8
0
100
AcDbSpline
 62
7
  6
CONTINUOUS
 70
0
 71
3
 72
13
 73
9
 74
0
 42
0.0000001
 43
0.0000001
 44
0.0000000001
 40
0.0
 40
0.0
 40
0.0
 40
0.0
 40
0.2818372352
 40
0.4177539294
 40
0.5480628987
 40
0.6713625551
 40
0.7872889321
 40
1.0
 40
1.0
 40
1.0
 40
1.0
 10
71.2119350045
 20
69.0712153064
 30
0.0
 10
71.1754578739
 20
69.0834651862
 30
0.0
 10
71.1231980515
 20
69.1079103539
 30
0.0
 10
71.061762857
 20
69.1508527633
 30
0.0
 10
71.0222695171
 20
69.1867056464
 30
0.0
 10
70.9901022264
 20
69.2259144914
 30
0.0
 10
70.9596879668
 20
69.2797373259
 30
0.0
 10
70.9481187625
 20
69.3248138022
 30
0.0
 10
70.9479759791
 20
69.3538547842
 30
0.0
  0
SPLINE
  5
2BA
100
AcDbEntity
  8
0
100
AcDbSpline
 62
7
  6
CONTINUOUS
 70
0
 71
3
 72
14
 73
10
 74
0
 42
0.0000001
 43
0.0000001
 44
0.0000000001
 40
0.0
 40
0.0
 40
0.0
 40
0.0
 40
0.1040810282
 40
0.2135157657
 40
0.3294314682
 40
0.4526920534
 40
0.5828619069
 40
0.7185855495
 40
1.0
 40
1.0
 40
1.0
 40
1.0
 10
74.2553970831
 20
66.3004272519
 30
0.0
 10
74.241194731
 20
66.299382142
 30
0.0
 10
74.2117287014
 20
66.3007164825
 30
0.0
 10
74.1678273051
 20
66.3120472288
 30
0.0
 10
74.124400329
 20
66.332401895
 30
0.0
 10
74.0828155295
 20
66.3614843275
 30
0.0
 10
74.0439079947
 20
66.3980797978
 30
0.0
 10
73.9961594814
 20
66.4559234165
 30
0.0
 10
73.9675478651
 20
66.5060729834
 30
0.0
 10
73.9524157171
 20
66.5414790471
 30
0.0
  0
SPLINE
  5
2BB
100
AcDbEntity
  8
0
100
AcDbSpline
 62
7
  6
CONTINUOUS
 70
0
 71
3
 72
13
 73
9
 74
0
 42
0.0000001
 43
0.0000001
 44
0.0000000001
 40
0.0
 40
0.0
 40
0.0
 40
0.0
 40
0.2818371587
 40
0.4177538314
 40
0.5480627979
 40
0.6713624706
 40
0.7872888767
 40
1.0
 40
1.0
 40
1.0
 40
1.0
 10
68.3097908749
 20
60.4287846935
 30
0.0
 10
68.3462679468
 20
60.4165348336
 30
0.0
 10
68.3985276891
 20
60.3920897142
 30
0.0
 10
68.4599628102
 20
60.3491474001
 30
0.0
 10
68.499456124
 20
60.3132945973
 30
0.0
 10
68.5316234197
 20
60.2740858386
 30
0.0
 10
68.5620377313
 20
60.2202631133
 30
0.0
 10
68.5736070237
 20
60.1751867212
 30
0.0
 10
68.5737498946
 20
60.146145771
 30
0.0
  0
SPLINE
  5
2BC
100
AcDbEntity
  8
0
100
AcDbSpline
 62
7
  6
CONTINUOUS
 70
0
 71
3
 72
14
 73
10
 74
0
 42
0.0000001
 43
0.0000001
 44
0.0000000001
 40
0.0
 40
0.0
 40
0.0
 40
0.0
 40
0.1040806902
 40
0.2135149322
 40
0.3294301267
 40
0.4526904266
 40
0.5828603223
 40
0.7185843096
 40
1.0
 40
1.0
 40
1.0
 40
1.0
 10
65.2663195911
 20
63.1995721149
 30
0.0
 10
65.2805221618
 20
63.2006179596
 30
0.0
 10
65.309988822
 20
63.1992848781
 30
0.0
 10
65.3538914295
 20
63.1879554283
 30
0.0
 10
65.3973197884
 20
63.167601552
 30
0.0
 10
65.4389060033
 20
63.1385193106
 30
0.0
 10
65.4778148982
 20
63.1019235041
 30
0.0
 10
65.5255650815
 20
63.0440787896
 30
0.0
 10
65.5541776096
 20
62.9939279638
 30
0.0
 10
65.5693101624
 20
62.9585209529
 30
0.0
  0
SPLINE
  5
2BD
100
AcDbEntity
  8
0
100
AcDbSpline
 62
7
  6
CONTINUOUS
 70
0
 71
3
 72
10
 73
6
 74
0
 42
0.0000001
 43
0.0000001
 44
0.0000000001
 40
0.0
 40
0.0
 40
0.0
 40
0.0
 40
0.2318979195
 40
0.6014725501
 40
1.0
 40
1.0
 40
1.0
 40
1.0
 10
74.317113821
 20
66.3159157
 30
0.0
 10
74.3126962014
 20
66.3136895117
 30
0.0
 10
74.3008490196
 20
66.3086793368
 30
0.0
 10
74.2801905147
 20
66.3030307176
 30
0.0
 10
74.2638755438
 20
66.3010511897
 30
0.0
 10
74.255397086
 20
66.3004272434
 30
0.0
  0
SPLINE
  5
2BE
100
AcDbEntity
  8
0
100
AcDbSpline
 62
7
  6
CONTINUOUS
 70
0
 71
3
 72
9
 73
5
 74
0
 42
0.0000001
 43
0.0000001
 44
0.0000000001
 40
0.0
 40
0.0
 40
0.0
 40
0.0
 40
0.262710032
 40
1.0
 40
1.0
 40
1.0
 40
1.0
 10
70.9479759753
 20
69.3538547852
 30
0.0
 10
70.9479573672
 20
69.3576395231
 30
0.0
 10
70.9481661438
 20
69.3720403509
 30
0.0
 10
70.9500903219
 20
69.3864585188
 30
0.0
 10
70.9527299298
 20
69.3967472262
 30
0.0
  0
SPLINE
  5
2BF
100
AcDbEntity
  8
0
100
AcDbSpline
 62
7
  6
CONTINUOUS
 70
0
 71
3
 72
20
 73
16
 74
0
 42
0.0000001
 43
0.0000001
 44
0.0000000001
 40
0.0
 40
0.0
 40
0.0
 40
0.0
 40
0.0014081069
 40
0.0056072713
 40
0.0125598483
 40
0.0222282377
 40
0.0494865581
 40
0.0867051922
 40
0.13310154
 40
0.187761236
 40
0.3181182217
 40
0.4705806693
 40
0.6388286545
 40
0.8170306423
 40
1.0
 40
1.0
 40
1.0
 40
1.0
 10
64.7870602996
 20
63.8086849642
 30
0.0
 10
64.786956275
 20
63.8091201214
 30
0.0
 10
64.7864246718
 20
63.8108222824
 30
0.0
 10
64.7853863966
 20
63.8146750902
 30
0.0
 10
64.7835826327
 20
63.8210403959
 30
0.0
 10
64.779877071
 20
63.8344811471
 30
0.0
 10
64.7736793089
 20
63.8572109252
 30
0.0
 10
64.7647550352
 20
63.8912918777
 30
0.0
 10
64.7540993303
 20
63.9339174272
 30
0.0
 10
64.7372597011
 20
64.0054954663
 30
0.0
 10
64.7153353062
 20
64.1104886975
 30
0.0
 10
64.6916462632
 20
64.2518823159
 30
0.0
 10
64.6721349804
 20
64.409262309
 30
0.0
 10
64.6596688039
 20
64.5770848028
 30
0.0
 10
64.6566980515
 20
64.691862509
 30
0.0
 10
64.6566953586
 20
64.7500000003
 30
0.0
  0
SPLINE
  5
2C0
100
AcDbEntity
  8
0
100
AcDbSpline
 62
7
  6
CONTINUOUS
 70
0
 71
3
 72
21
 73
17
 74
0
 42
0.0000001
 43
0.0000001
 44
0.0000000001
 40
0.0
 40
0.0
 40
0.0
 40
0.0
 40
0.1829683855
 40
0.361169427
 40
0.5294165195
 40
0.6818781591
 40
0.7502567008
 40
0.8122397614
 40
0.8668991684
 40
0.9132952707
 40
0.9505137077
 40
0.9777718832
 40
0.987440221
 40
0.9943927604
 40
0.9985919016
 40
1.0
 40
1.0
 40
1.0
 40
1.0
 10
64.6566954076
 20
64.7499999997
 30
0.0
 10
64.6566981005
 20
64.8081374947
 30
0.0
 10
64.6596688272
 20
64.922915136
 30
0.0
 10
64.6721351165
 20
65.0907379531
 30
0.0
 10
64.6916460272
 20
65.2481169135
 30
0.0
 10
64.7120811525
 20
65.3700854885
 30
0.0
 10
64.7296815907
 20
65.4582159492
 30
0.0
 10
64.7422352419
 20
65.5156527052
 30
0.0
 10
64.7540993502
 20
65.5660827295
 30
0.0
 10
64.7647551941
 20
65.6087081432
 30
0.0
 10
64.7736791081
 20
65.6427892047
 30
0.0
 10
64.7798776394
 20
65.6655187984
 30
0.0
 10
64.7835821495
 20
65.6789598001
 30
0.0
 10
64.7853876661
 20
65.6853246896
 30
0.0
 10
64.7864228221
 20
65.6891782373
 30
0.0
 10
64.7869576735
 20
65.6908796266
 30
0.0
 10
64.7870603592
 20
65.6913151014
 30
0.0
  0
SPLINE
  5
2C1
100
AcDbEntity
  8
0
100
AcDbSpline
 62
7
  6
CONTINUOUS
 70
0
 71
3
 72
21
 73
17
 74
0
 42
0.0000001
 43
0.0000001
 44
0.0000000001
 40
0.0
 40
0.0
 40
0.0
 40
0.0
 40
0.1829683856
 40
0.361169427
 40
0.5294165194
 40
0.6818781591
 40
0.7502567008
 40
0.8122397614
 40
0.8668991683
 40
0.9132952707
 40
0.9505137077
 40
0.9777718832
 40
0.987440221
 40
0.9943927604
 40
0.9985919016
 40
1.0
 40
1.0
 40
1.0
 40
1.0
 10
74.8650304718
 20
64.7500000003
 30
0.0
 10
74.8650277789
 20
64.6918625053
 30
0.0
 10
74.8620570522
 20
64.577084864
 30
0.0
 10
74.8495907629
 20
64.4092620469
 30
0.0
 10
74.8300798523
 20
64.2518830865
 30
0.0
 10
74.8096447268
 20
64.1299145115
 30
0.0
 10
74.7920442887
 20
64.0417840507
 30
0.0
 10
74.7794906375
 20
63.9843472947
 30
0.0
 10
74.7676265292
 20
63.9339172704
 30
0.0
 10
74.7569706853
 20
63.8912918567
 30
0.0
 10
74.7480467714
 20
63.8572107952
 30
0.0
 10
74.74184824
 20
63.8344812015
 30
0.0
 10
74.7381437299
 20
63.8210401998
 30
0.0
 10
74.7363382131
 20
63.8146753104
 30
0.0
 10
74.7353030576
 20
63.8108217625
 30
0.0
 10
74.7347682057
 20
63.8091203733
 30
0.0
 10
74.7346655202
 20
63.8086848984
 30
0.0
  0
SPLINE
  5
2C2
100
AcDbEntity
  8
0
100
AcDbSpline
 62
7
  6
CONTINUOUS
 70
0
 71
3
 72
20
 73
16
 74
0
 42
0.0000001
 43
0.0000001
 44
0.0000000001
 40
0.0
 40
0.0
 40
0.0
 40
0.0
 40
0.0014081069
 40
0.0056072713
 40
0.0125598483
 40
0.0222282377
 40
0.0494865581
 40
0.0867051921
 40
0.13310154
 40
0.187761236
 40
0.3181182217
 40
0.4705806693
 40
0.6388286544
 40
0.8170306423
 40
1.0
 40
1.0
 40
1.0
 40
1.0
 10
74.73466558
 20
65.6913150357
 30
0.0
 10
74.7347696011
 20
65.6908798776
 30
0.0
 10
74.7353012127
 20
65.6891777186
 30
0.0
 10
74.7363394799
 20
65.685324909
 30
0.0
 10
74.7381432483
 20
65.6789596043
 30
0.0
 10
74.7418488072
 20
65.6655188525
 30
0.0
 10
74.7480465714
 20
65.6427890748
 30
0.0
 10
74.7569708441
 20
65.6087081221
 30
0.0
 10
74.7676265493
 20
65.5660825727
 30
0.0
 10
74.7844661784
 20
65.4945045336
 30
0.0
 10
74.8063905735
 20
65.3895113025
 30
0.0
 10
74.8300796164
 20
65.2481176841
 30
0.0
 10
74.8495908992
 20
65.0907376909
 30
0.0
 10
74.8620570757
 20
64.9229151971
 30
0.0
 10
74.865027828
 20
64.808137491
 30
0.0
 10
74.865030521
 20
64.7499999997
 30
0.0
  0
SPLINE
  5
2C3
100
AcDbEntity
  8
0
100
AcDbSpline
 62
7
  6
CONTINUOUS
 70
0
 71
3
 72
17
 73
13
 74
0
 42
0.0000001
 43
0.0000001
 44
0.0000000001
 40
0.0
 40
0.0
 40
0.0
 40
0.0
 40
0.1844326807
 40
0.361994254
 40
0.5250510641
 40
0.6675582209
 40
0.7847030836
 40
0.8329817557
 40
0.8746189373
 40
0.9411601886
 40
0.970336876
 40
1.0
 40
1.0
 40
1.0
 40
1.0
 10
48.2608629397
 20
54.25
 30
0.0
 10
48.2608629397
 20
54.3157305127
 30
0.0
 10
48.2607192468
 20
54.4447437747
 30
0.0
 10
48.261301781
 20
54.6318638278
 30
0.0
 10
48.2644696908
 20
54.804047936
 30
0.0
 10
48.2732056134
 20
54.9544724671
 30
0.0
 10
48.2880729733
 20
55.0635028387
 30
0.0
 10
48.3079058884
 20
55.1348241604
 30
0.0
 10
48.3290764299
 20
55.1862705505
 30
0.0
 10
48.3597775599
 20
55.2274587548
 30
0.0
 10
48.4007192803
 20
55.247214682
 30
0.0
 10
48.4218640858
 20
55.25
 30
0.0
 10
48.432435815
 20
55.25
 30
0.0
  0
SPLINE
  5
2C4
100
AcDbEntity
  8
0
100
AcDbSpline
 62
7
  6
CONTINUOUS
 70
0
 71
3
 72
17
 73
13
 74
0
 42
0.0000001
 43
0.0000001
 44
0.0000000001
 40
0.0
 40
0.0
 40
0.0
 40
0.0
 40
0.0296641728
 40
0.0588443173
 40
0.1253929014
 40
0.1670348259
 40
0.2153176719
 40
0.3324660902
 40
0.474977322
 40
0.6380296035
 40
0.8155747658
 40
1.0
 40
1.0
 40
1.0
 40
1.0
 10
48.432435815
 20
74.25
 30
0.0
 10
48.4218637028
 20
74.25
 30
0.0
 10
48.4007172056
 20
74.2527869977
 30
0.0
 10
48.3597737053
 20
74.272547475
 30
0.0
 10
48.3290626351
 20
74.3137353411
 30
0.0
 10
48.3078976066
 20
74.3651911402
 30
0.0
 10
48.2880698529
 20
74.4365180669
 30
0.0
 10
48.2732026615
 20
74.5455528411
 30
0.0
 10
48.2644751083
 20
74.6959790773
 30
0.0
 10
48.2612984395
 20
74.8681570359
 30
0.0
 10
48.2607198048
 20
75.0552672337
 30
0.0
 10
48.2608629397
 20
75.1842720835
 30
0.0
 10
48.2608629397
 20
75.25
 30
0.0
  0
SPLINE
  5
2C5
100
AcDbEntity
  8
0
100
AcDbSpline
 62
7
  6
CONTINUOUS
 70
0
 71
3
 72
9
 73
5
 74
0
 42
0.0000001
 43
0.0000001
 44
0.0000000001
 40
0.0
 40
0.0
 40
0.0
 40
0.0
 40
0.4997617726
 40
1.0
 40
1.0
 40
1.0
 40
1.0
 10
11.4410304965
 20
51.5985672409
 30
0.0
 10
11.3862941244
 20
51.5499960026
 30
0.0
 10
11.2559627181
 20
51.4747169392
 30
0.0
 10
11.108433914
 20
51.4500006834
 30
0.0
 10
11.035184672
 20
51.45
 30
0.0
  0
SPLINE
  5
2C6
100
AcDbEntity
  8
0
100
AcDbSpline
 62
7
  6
CONTINUOUS
 70
0
 71
3
 72
9
 73
5
 74
0
 42
0.0000001
 43
0.0000001
 44
0.0000000001
 40
0.0
 40
0.0
 40
0.0
 40
0.0
 40
0.5002711287
 40
1.0
 40
1.0
 40
1.0
 40
1.0
 10
11.035184681
 20
78.0499999966
 30
0.0
 10
11.1084382682
 20
78.0499979085
 30
0.0
 10
11.2559771452
 20
78.0252947033
 30
0.0
 10
11.3862743861
 20
77.9499782751
 30
0.0
 10
11.4410282608
 20
77.9014347415
 30
0.0
  0
SPLINE
  5
2C7
100
AcDbEntity
  8
0
100
AcDbSpline
 62
7
  6
CONTINUOUS
 70
0
 71
3
 72
9
 73
5
 74
0
 42
0.0000001
 43
0.0000001
 44
0.0000000001
 40
0.0
 40
0.0
 40
0.0
 40
0.0
 40
0.2404643721
 40
1.0
 40
1.0
 40
1.0
 40
1.0
 10
11.2539036752
 20
77.690579257
 30
0.0
 10
11.2386107465
 20
77.7006584114
 30
0.0
 10
11.1709786372
 20
77.7363855203
 30
0.0
 10
11.093038766
 20
77.7500117587
 30
0.0
 10
11.0351865851
 20
77.750016116
 30
0.0
  0
SPLINE
  5
2C8
100
AcDbEntity
  8
0
100
AcDbSpline
 62
7
  6
CONTINUOUS
 70
0
 71
3
 72
9
 73
5
 74
0
 42
0.0000001
 43
0.0000001
 44
0.0000000001
 40
0.0
 40
0.0
 40
0.0
 40
0.0
 40
0.4901398879
 40
1.0
 40
1.0
 40
1.0
 40
1.0
 10
10.7577702623
 20
77.7499994752
 30
0.0
 10
10.7803665933
 20
77.7500001755
 30
0.0
 10
10.8269960349
 20
77.7393263606
 30
0.0
 10
10.8645733827
 20
77.7101884887
 30
0.0
 10
10.88017975
 20
77.6926115616
 30
0.0
  0
SPLINE
  5
2C9
100
AcDbEntity
  8
0
100
AcDbSpline
 62
7
  6
CONTINUOUS
 70
0
 71
3
 72
19
 73
15
 74
0
 42
0.0000001
 43
0.0000001
 44
0.0000000001
 40
0.0
 40
0.0
 40
0.0
 40
0.0
 40
0.0158680051
 40
0.0352421008
 40
0.0611023718
 40
0.0946778579
 40
0.1362908307
 40
0.1858459031
 40
0.2430921634
 40
0.3075783351
 40
0.4557859489
 40
0.625026025
 40
0.8090091734
 40
1.0
 40
1.0
 40
1.0
 40
1.0
 10
45.3447831566
 20
55.25
 30
0.0
 10
45.3393697295
 20
55.25
 30
0.0
 10
45.3272100883
 20
55.2459150196
 30
0.0
 10
45.3132368066
 20
55.2297255327
 30
0.0
 10
45.3015593624
 20
55.2053790704
 30
0.0
 10
45.2917143897
 20
55.1722329591
 30
0.0
 10
45.2835111142
 20
55.1304443206
 30
0.0
 10
45.2768488737
 20
55.0802275337
 30
0.0
 10
45.2716540199
 20
55.0220123065
 30
0.0
 10
45.266231282
 20
54.9300714078
 30
0.0
 10
45.2626324884
 20
54.7998004358
 30
0.0
 10
45.2610640275
 20
54.6287424534
 30
0.0
 10
45.2607940682
 20
54.4430806417
 30
0.0
 10
45.2608629397
 20
54.3151572085
 30
0.0
 10
45.2608629397
 20
54.25
 30
0.0
  0
SPLINE
  5
2CA
100
AcDbEntity
  8
0
100
AcDbSpline
 62
7
  6
CONTINUOUS
 70
0
 71
3
 72
19
 73
15
 74
0
 42
0.0000001
 43
0.0000001
 44
0.0000000001
 40
0.0
 40
0.0
 40
0.0
 40
0.0
 40
0.1909980855
 40
0.3749969287
 40
0.5442409263
 40
0.6924447161
 40
0.7569277098
 40
0.8141723373
 40
0.8637231315
 40
0.9053312126
 40
0.9389039951
 40
0.9647613598
 40
0.9841327347
 40
1.0
 40
1.0
 40
1.0
 40
1.0
 10
45.2608629397
 20
75.25
 30
0.0
 10
45.2608629397
 20
75.1848403005
 30
0.0
 10
45.2607938681
 20
75.0569090047
 30
0.0
 10
45.2610654038
 20
74.8712379957
 30
0.0
 10
45.2626302279
 20
74.7001745489
 30
0.0
 10
45.2662315599
 20
74.5699046224
 30
0.0
 10
45.2716564665
 20
74.4779667989
 30
0.0
 10
45.2768511262
 20
74.4197546563
 30
0.0
 10
45.283515008
 20
74.3695417337
 30
0.0
 10
45.2917203745
 20
74.32775768
 30
0.0
 10
45.3015631573
 20
74.2946148052
 30
0.0
 10
45.3132380506
 20
74.2702701747
 30
0.0
 10
45.3272112089
 20
74.2540830296
 30
0.0
 10
45.3393699807
 20
74.25
 30
0.0
 10
45.3447831566
 20
74.25
 30
0.0
  0
SPLINE
  5
2CB
100
AcDbEntity
  8
0
100
AcDbSpline
 62
7
  6
CONTINUOUS
 70
0
 71
3
 72
9
 73
5
 74
0
 42
0.0000001
 43
0.0000001
 44
0.0000000001
 40
0.0
 40
0.0
 40
0.0
 40
0.0
 40
0.2591408145
 40
1.0
 40
1.0
 40
1.0
 40
1.0
 10
11.0316374602
 20
51.7500131034
 30
0.0
 10
11.0516579056
 20
51.7498626685
 30
0.0
 10
11.1286772959
 20
51.7541541163
 30
0.0
 10
11.2061375337
 20
51.7779151309
 30
0.0
 10
11.2539203878
 20
51.8094271691
 30
0.0
  0
SPLINE
  5
2CC
100
AcDbEntity
  8
0
100
AcDbSpline
 62
7
  6
CONTINUOUS
 70
0
 71
3
 72
9
 73
5
 74
0
 42
0.0000001
 43
0.0000001
 44
0.0000000001
 40
0.0
 40
0.0
 40
0.0
 40
0.0
 40
0.5098368884
 40
1.0
 40
1.0
 40
1.0
 40
1.0
 10
10.8801808748
 20
51.8073900954
 30
0.0
 10
10.8645757728
 20
51.7898130525
 30
0.0
 10
10.8269977168
 20
51.7606748314
 30
0.0
 10
10.7803678983
 20
51.7500001985
 30
0.0
 10
10.7577701918
 20
51.7500005257
 30
0.0
  0
ENDSEC
  0
SECTION
  2
OBJECTS
  0
DICTIONARY
  5
C
100
AcDbDictionary
280
0
281
1
  3
ACAD_GROUP
350
D
  3
ACAD_MLINESTYLE
350
17
  3
ACAD_LAYOUT
350
1A
  3
ACAD_PLOTSETTINGS
350
19
  3
ACAD_PLOTSTYLENAME
350
E
  0
DICTIONARY
  5
D
102
{ACAD_REACTORS
330
C
102
}
100
AcDbDictionary
280
0
281
1
  0
ACDBDICTIONARYWDFLT
  5
E
102
{ACAD_REACTORS
330
C
102
}
100
AcDbDictionary
281
1
  3
Normal
350
F
100
AcDbDictionaryWithDefault
340
F
  0
DICTIONARY
  5
17
102
{ACAD_REACTORS
330
C
102
}
100
AcDbDictionary
280
0
281
1
  3
Standard
350
18
  0
DICTIONARY
  5
19
102
{ACAD_REACTORS
330
C
102
}
100
AcDbDictionary
281
1
  0
DICTIONARY
  5
1A
102
{ACAD_REACTORS
330
C
102
}
100
AcDbDictionary
281
1
  3
Model
350
2CD
  3
Layout1
350
2CE
  0
ACDBPLACEHOLDER
  5
F
102
{ACAD_REACTORS
330
E
102
}
  0
MLINESTYLE
  5
18
102
{ACAD_REACTORS
330
17
102
}
100
AcDbMlineStyle
  2
STANDARD
 70
0
  3

 62
256
 51
90.0
 52
90.0
 71
2
 49
0.5
 62
256
  6
BYLAYER
 49
-0.5
 62
256
  6
BYLAYER
  0
LAYOUT
  5
2CD
102
{ACAD_REACTORS
330
1A
102
}
100
AcDbPlotSettings
  1

  2
none_device
  4

  6

 40
0.0
 41
0.0
 42
0.0
 43
0.0
 44
210.0
 45
297.0
 46
0.0
 47
0.0
 48
0.0
 49
0.0
140
0.0
141
0.0
142
1.0
143
1.0
 70
1024
 72
1
 73
0
 74
0
  7

 75
0
147
1.0
148
0.0
149
0.0
100
AcDbLayout
  1
Model
 70
0
 71
0
 10
0.0
 20
0.0
 11
210.0
 21
297.0
 12
0.0
 22
0.0
 32
0.0
 14
0.0
 24
0.0
 34
0.0
 15
0.0
 25
0.0
 35
0.0
146
0.0
 13
0.0
 23
0.0
 33
0.0
 16
1.0
 26
0.0
 36
0.0
 17
0.0
 27
1.0
 37
0.0
 76
0
330
210
345
0
346
0
  0
LAYOUT
  5
2CE
102
{ACAD_REACTORS
330
1A
102
}
100
AcDbPlotSettings
  1

  2
none_device
  4

  6

 40
0.0
 41
0.0
 42
0.0
 43
0.0
 44
210.0
 45
297.0
 46
0.0
 47
0.0
 48
0.0
 49
0.0
140
0.0
141
0.0
142
1.0
143
1.0
 70
0
 72
1
 73
0
 74
0
  7

 75
0
147
1.0
148
0.0
149
0.0
100
AcDbLayout
  1
Layout1
 70
0
 71
1
 10
0.0
 20
0.0
 11
210.0
 21
297.0
 12
0.0
 22
0.0
 32
0.0
 14
0.0
 24
0.0
 34
0.0
 15
0.0
 25
0.0
 35
0.0
146
0.0
 13
0.0
 23
0.0
 33
0.0
 16
1.0
 26
0.0
 36
0.0
 17
0.0
 27
1.0
 37
0.0
 76
0
330
211
345
0
346
0
  0
ENDSEC
  0
EOF
