999
DXF file: C:\Gen2D\CAD\METSECTSP5A4120U_3D-CAD\drw0001_1.dxf
999
Pro/ENGINEER 2019471 by Parametric Technology Corporation
  0
SECTION
  2
HEADER
  9
$ACADVER
  1
AC1024
  9
$DWGCODEPAGE
  3
ANSI_1252
  9
$EXTMAX
 10
208.045830478
 20
294.2362459618
 30
0.0
  9
$EXTMIN
 10
0.0
 20
0.0
 30
0.0
  9
$LIMMIN
 10
0.0
 20
0.0
  9
$LIMMAX
 10
208.045830478
 20
294.2362459618
  9
$VIEWCTR
 10
104.022915239
 20
147.1181229809
  9
$VIEWSIZE
 40
294.2362459618
  9
$CLAYER
  8
0
  9
$LTSCALE
 40
19.1798441812
  9
$CELTYPE
  6
BYLAYER
  9
$DIMSCALE
 40
1.0
  9
$DIMASZ
 40
2.4767360771
  9
$DIMEXO
 40
1.0
  9
$DIMDLI
 40
13.251528707
  9
$DIMEXE
 40
1.0
  9
$DIMCEN
 40
3.1385199569
  9
$DIMLFAC
 40
1.0
  9
$DIMBLK
  1
_FILLED
  9
$DIMALT
 70
0
  9
$DIMALTF
 40
0.0393700787
  9
$DIMTXT
 40
3.467430508
  9
$DIMTOL
 70
1
  9
$DIMLIM
 70
0
  9
$DIMTFAC
 40
1.0
  9
$DIMTP
 40
0.01
  9
$DIMTM
 40
0.01
  9
$DIMGAP
 40
0.625
  9
$DIMDSEP
 70
46
  9
$AUNITS
 70
0
  9
$PDMODE
 70
3
  9
$PDSIZE
 40
0.3125
  9
$HANDSEED
  5
2DE
  9
$TILEMODE
 70
1
  9
$MEASUREMENT
 70
1
  9
$INSUNITS
 70
4
  0
ENDSEC
  0
SECTION
  2
CLASSES
  0
CLASS
  1
ACDBDICTIONARYWDFLT
  2
AcDbDictionaryWithDefault
  3
AutoCAD 2000
 90
0
 91
1
280
0
281
0
  0
CLASS
  1
ACDBPLACEHOLDER
  2
AcDbPlaceHolder
  3
AutoCAD 2000
 90
0
 91
1
280
0
281
0
  0
CLASS
  1
LAYOUT
  2
AcDbLayout
  3
AutoCAD 2000
 90
0
 91
0
280
0
281
0
  0
ENDSEC
  0
SECTION
  2
TABLES
  0
TABLE
  2
VPORT
  5
8
100
AcDbSymbolTable
 70
2
  0
VPORT
  5
1F4
100
AcDbSymbolTableRecord
100
AcDbViewportTableRecord
  2
*ACTIVE
 70
0
 10
0.0
 20
0.0
 11
1.0
 21
1.0
 12
104.022915239
 22
147.1181229809
 13
0.0
 23
0.0
 14
1.0
 24
1.0
 15
0.0
 25
0.0
 16
0.0
 26
0.0
 36
1.0
 17
0.0
 27
0.0
 37
0.0
 40
294.2362459618
 41
0.7070707071
 42
50.0
 43
0.0
 44
0.0
 50
0.0
 51
0.0
 71
0
 72
100
 73
1
 74
1
 75
0
 76
0
 77
0
 78
0
  0
ENDTAB
  0
TABLE
  2
LTYPE
  5
5
100
AcDbSymbolTable
 70
6
  0
LTYPE
  5
14
100
AcDbSymbolTableRecord
100
AcDbLinetypeTableRecord
  2
BYBLOCK
 70
0
  3

 72
65
 73
0
 40
0.0
  0
LTYPE
  5
15
100
AcDbSymbolTableRecord
100
AcDbLinetypeTableRecord
  2
BYLAYER
 70
0
  3

 72
65
 73
0
 40
0.0
  0
LTYPE
  5
16
100
AcDbSymbolTableRecord
100
AcDbLinetypeTableRecord
  2
CONTINUOUS
 70
64
  3
Solid line
 72
65
 73
0
 40
0.0
  0
LTYPE
  5
1F5
100
AcDbSymbolTableRecord
100
AcDbLinetypeTableRecord
  2
CENTER
 70
64
  3
____ _ ____ _ ____ _ ____ _ ____ _ ____ _ ____
 72
65
 73
4
 40
0.6
 49
0.375
 74
0
 49
-0.075
 74
0
 49
0.075
 74
0
 49
-0.075
 74
0
  0
LTYPE
  5
1F6
100
AcDbSymbolTableRecord
100
AcDbLinetypeTableRecord
  2
HIDDEN
 70
64
  3
- - - - - - - - - - - - - - - - - - - -
 72
65
 73
2
 40
0.2
 49
0.1
 74
0
 49
-0.1
 74
0
  0
LTYPE
  5
1F7
100
AcDbSymbolTableRecord
100
AcDbLinetypeTableRecord
  2
PHANTOM
 70
64
  3
_____ _ _ _____ _ _ _____ _ _ _____
 72
65
 73
6
 40
0.8
 49
0.45
 74
0
 49
-0.05
 74
0
 49
0.1
 74
0
 49
-0.05
 74
0
 49
0.1
 74
0
 49
-0.05
 74
0
  0
LTYPE
  5
1F8
100
AcDbSymbolTableRecord
100
AcDbLinetypeTableRecord
  2
DOT
 70
64
  3
. . . . . . . . . . . . . . . . . . . .
 72
65
 73
2
 40
0.2
 49
0.1
 74
0
 49
-0.1
 74
0
  0
LTYPE
  5
1F9
100
AcDbSymbolTableRecord
100
AcDbLinetypeTableRecord
  2
DASHED
 70
64
  3
- - - - - - - - - - - - - - - - - - - -
 72
65
 73
2
 40
0.2
 49
0.1
 74
0
 49
-0.1
 74
0
  0
ENDTAB
  0
TABLE
  2
LAYER
  5
2
100
AcDbSymbolTable
 70
36
  0
LAYER
  5
10
100
AcDbSymbolTableRecord
100
AcDbLayerTableRecord
  2
0
 70
0
 62
7
  6
CONTINUOUS
370
-3
390
F
  0
LAYER
  5
1FA
100
AcDbSymbolTableRecord
100
AcDbLayerTableRecord
  2
DEFAULT_1
 70
0
 62
7
  6
CENTER
370
-3
390
F
  0
LAYER
  5
1FB
100
AcDbSymbolTableRecord
100
AcDbLayerTableRecord
  2
DEFAULT_2
 70
0
 62
8
  6
HIDDEN
370
-3
390
F
  0
LAYER
  5
1FC
100
AcDbSymbolTableRecord
100
AcDbLayerTableRecord
  2
DEFAULT_3
 70
0
 62
7
  6
PHANTOM
370
-3
390
F
  0
LAYER
  5
1FD
100
AcDbSymbolTableRecord
100
AcDbLayerTableRecord
  2
00_COMPONENTS
 70
0
 62
7
  6
CONTINUOUS
370
-3
390
F
  0
LAYER
  5
1FE
100
AcDbSymbolTableRecord
100
AcDbLayerTableRecord
  2
01_1_DEFAULT_DATUMS
 70
0
 62
7
  6
CONTINUOUS
370
-3
390
F
  0
LAYER
  5
1FF
100
AcDbSymbolTableRecord
100
AcDbLayerTableRecord
  2
01_PLANES
 70
0
 62
7
  6
CONTINUOUS
370
-3
390
F
  0
LAYER
  5
200
100
AcDbSymbolTableRecord
100
AcDbLayerTableRecord
  2
02_COORD_SYS
 70
0
 62
7
  6
CONTINUOUS
370
-3
390
F
  0
LAYER
  5
201
100
AcDbSymbolTableRecord
100
AcDbLayerTableRecord
  2
03_AXES
 70
0
 62
7
  6
CONTINUOUS
370
-3
390
F
  0
LAYER
  5
202
100
AcDbSymbolTableRecord
100
AcDbLayerTableRecord
  2
04_POINTS
 70
0
 62
7
  6
CONTINUOUS
370
-3
390
F
  0
LAYER
  5
203
100
AcDbSymbolTableRecord
100
AcDbLayerTableRecord
  2
05_CURVES
 70
0
 62
7
  6
CONTINUOUS
370
-3
390
F
  0
LAYER
  5
204
100
AcDbSymbolTableRecord
100
AcDbLayerTableRecord
  2
06_SURFS
 70
0
 62
7
  6
CONTINUOUS
370
-3
390
F
  0
LAYER
  5
205
100
AcDbSymbolTableRecord
100
AcDbLayerTableRecord
  2
07_COSMETICS
 70
0
 62
7
  6
CONTINUOUS
370
-3
390
F
  0
LAYER
  5
206
100
AcDbSymbolTableRecord
100
AcDbLayerTableRecord
  2
10_NOTES
 70
0
 62
7
  6
CONTINUOUS
370
-3
390
F
  0
LAYER
  5
207
100
AcDbSymbolTableRecord
100
AcDbLayerTableRecord
  2
11_NOTES_PUB
 70
0
 62
7
  6
CONTINUOUS
370
-3
390
F
  0
LAYER
  5
208
100
AcDbSymbolTableRecord
100
AcDbLayerTableRecord
  2
13_REF_GTOL
 70
0
 62
7
  6
CONTINUOUS
370
-3
390
F
  0
LAYER
  5
209
100
AcDbSymbolTableRecord
100
AcDbLayerTableRecord
  2
16_MISC
 70
0
 62
7
  6
CONTINUOUS
370
-3
390
F
  0
LAYER
  5
20A
100
AcDbSymbolTableRecord
100
AcDbLayerTableRecord
  2
17_NO_PRINT
 70
0
 62
7
  6
CONTINUOUS
370
-3
390
F
  0
LAYER
  5
20B
100
AcDbSymbolTableRecord
100
AcDbLayerTableRecord
  2
18_DATUM_CAMS_JOINTS
 70
0
 62
7
  6
CONTINUOUS
370
-3
390
F
  0
LAYER
  5
20C
100
AcDbSymbolTableRecord
100
AcDbLayerTableRecord
  2
19_DATUM_FUNCTIONAL
 70
0
 62
7
  6
CONTINUOUS
370
-3
390
F
  0
LAYER
  5
20D
100
AcDbSymbolTableRecord
100
AcDbLayerTableRecord
  2
20_DATUM_KINEMATIC_SCHEME
 70
0
 62
7
  6
CONTINUOUS
370
-3
390
F
  0
ENDTAB
  0
TABLE
  2
STYLE
  5
3
100
AcDbSymbolTable
 70
1
  0
STYLE
  5
11
100
AcDbSymbolTableRecord
100
AcDbTextStyleTableRecord
  2
STANDARD
 70
0
 40
0.0
 41
0.8
 50
0.0
 71
0
 42
0.2
  3
txt
  4

  0
STYLE
  5
20E
100
AcDbSymbolTableRecord
100
AcDbTextStyleTableRecord
  2
TEXTSTYLE_1
 70
0
 40
0.0
 41
0.8
 50
0.0
 71
0
 42
0.2
  3
gdt
  4

  0
ENDTAB
  0
TABLE
  2
VIEW
  5
6
100
AcDbSymbolTable
 70
0
  0
ENDTAB
  0
TABLE
  2
UCS
  5
7
100
AcDbSymbolTable
 70
0
  0
ENDTAB
  0
TABLE
  2
APPID
  5
9
100
AcDbSymbolTable
 70
1
  0
APPID
  5
20F
100
AcDbSymbolTableRecord
100
AcDbRegAppTableRecord
  2
ACAD
 70
0
  0
ENDTAB
  0
TABLE
  2
BLOCK_RECORD
  5
1
100
AcDbSymbolTable
 70
0
  0
BLOCK_RECORD
  5
210
100
AcDbSymbolTableRecord
100
AcDbBlockTableRecord
  2
*Model_Space
  0
BLOCK_RECORD
  5
211
100
AcDbSymbolTableRecord
100
AcDbBlockTableRecord
  2
*Paper_Space
  0
BLOCK_RECORD
  5
212
100
AcDbSymbolTableRecord
100
AcDbBlockTableRecord
  2
_FILLED
  0
ENDTAB
  0
TABLE
  2
DIMSTYLE
  5
A
100
AcDbSymbolTable
 70
1
100
AcDbDimStyleTable
 71
0
  0
DIMSTYLE
105
213
100
AcDbSymbolTableRecord
100
AcDbDimStyleTableRecord
  2
STANDARD
 70
0
  3

  4

 40
1.0
 41
2.4767360771
 42
1.0
 43
0.38
 44
1.0
 45
0.0
 46
0.0
 47
0.01
 48
0.01
140
3.467430508
141
0.09
142
0.0
143
25.4
144
1.0
145
0.0
146
1.0
147
0.625
 71
1
 72
0
 73
0
 74
0
 75
0
 76
0
 77
1
 78
8
 79
2
170
0
171
1
172
0
173
0
174
0
175
0
176
0
177
0
178
0
270
2
179
2
271
2
272
2
273
2
274
2
275
0
280
0
281
0
282
0
283
1
284
8
285
0
286
0
287
3
288
0
340
11
278
46
341
212
342
212
343
212
344
212
  0
ENDTAB
  0
ENDSEC
  0
SECTION
  2
BLOCKS
  0
BLOCK
  5
20
100
AcDbEntity
  8
0
100
AcDbBlockBegin
  2
*Model_Space
 70
0
 10
0.0
 20
0.0
 30
0.0
  3
*Model_Space
  1

  0
ENDBLK
  5
21
100
AcDbEntity
  8
0
100
AcDbBlockEnd
  0
BLOCK
  5
1C
100
AcDbEntity
  8
0
100
AcDbBlockBegin
  2
*Paper_Space
 70
0
 10
0.0
 20
0.0
 30
0.0
  3
*Paper_Space
  1

  0
ENDBLK
  5
1D
100
AcDbEntity
  8
0
100
AcDbBlockEnd
  0
BLOCK
  5
214
100
AcDbEntity
  8
0
100
AcDbBlockBegin
  2
_FILLED
 70
64
 10
0.0
 20
0.0
  3
_FILLED
  1

  0
SOLID
  5
215
100
AcDbEntity
  8
0
  6
BYBLOCK
 62
0
100
AcDbTrace
 10
0.0
 20
0.0
 11
-1.0
 21
0.25
 12
-1.0
 22
-0.25
 13
-1.0
 23
-0.25
  0
ENDBLK
  5
216
100
AcDbEntity
  8
0
  6
BYBLOCK
 62
0
100
AcDbBlockEnd
  0
ENDSEC
  0
SECTION
  2
ENTITIES
  0
LINE
  5
217
100
AcDbEntity
  8
0
100
AcDbLine
 62
7
  6
CONTINUOUS
 10
75.8560871628
 20
270.4766953945
 11
75.8909447361
 21
270.4972252046
  0
LINE
  5
218
100
AcDbEntity
  8
0
100
AcDbLine
 62
7
  6
CONTINUOUS
 10
53.2351117689
 20
261.6386384026
 11
70.6015820109
 21
271.6651148216
  0
LINE
  5
219
100
AcDbEntity
  8
0
100
AcDbLine
 62
7
  6
CONTINUOUS
 10
51.9464899602
 20
260.2577961401
 11
53.5374735939
 21
261.1763454863
  0
LINE
  5
21A
100
AcDbEntity
  8
0
100
AcDbLine
 62
7
  6
CONTINUOUS
 10
71.1531273152
 20
271.3466871955
 11
72.70875567
 21
272.2448242837
  0
LINE
  5
21B
100
AcDbEntity
  8
0
100
AcDbLine
 62
7
  6
CONTINUOUS
 10
76.951600492
 20
271.1095913283
 11
75.8909447361
 21
270.4972252046
  0
LINE
  5
21C
100
AcDbEntity
  8
0
100
AcDbLine
 62
7
  6
CONTINUOUS
 10
54.1317320462
 20
253.4890248416
 11
51.8972839206
 21
252.1989735409
  0
LINE
  5
21D
100
AcDbEntity
  8
0
100
AcDbLine
 62
7
  6
CONTINUOUS
 10
51.5998294515
 20
251.9449770912
 11
51.8972839206
 21
252.1989735409
  0
LINE
  5
21E
100
AcDbEntity
  8
0
100
AcDbLine
 62
7
  6
CONTINUOUS
 10
58.423157591
 20
249.7024157846
 11
58.5063929734
 21
249.7509951219
  0
LINE
  5
21F
100
AcDbEntity
  8
0
100
AcDbLine
 62
7
  6
CONTINUOUS
 10
55.857798529
 20
253.7350094702
 11
55.7135664201
 21
253.6517375349
  0
LINE
  5
220
100
AcDbEntity
  8
0
100
AcDbLine
 62
7
  6
CONTINUOUS
 10
83.9864258092
 20
267.0074712498
 11
82.9257700534
 21
266.3951051261
  0
LINE
  5
221
100
AcDbEntity
  8
0
100
AcDbLine
 62
7
  6
CONTINUOUS
 10
58.3957102716
 20
249.4267706716
 11
58.2135549001
 21
249.3216038649
  0
LINE
  5
222
100
AcDbEntity
  8
0
100
AcDbLine
 62
7
  6
CONTINUOUS
 10
57.281717531
 20
248.0330564174
 11
55.0472694054
 21
246.7430051167
  0
LINE
  5
223
100
AcDbEntity
  8
0
100
AcDbLine
 62
7
  6
CONTINUOUS
 10
55.0472694054
 20
246.7430051167
 11
54.678574098
 21
246.6124021766
  0
LINE
  5
224
100
AcDbEntity
  8
0
100
AcDbLine
 62
7
  6
CONTINUOUS
 10
49.5087301732
 20
249.3953220943
 11
49.5644690349
 21
249.4718049207
  0
LINE
  5
225
100
AcDbEntity
  8
0
100
AcDbLine
 62
7
  6
CONTINUOUS
 10
49.5643678285
 20
249.4719386066
 11
51.5998294515
 21
251.9449770912
  0
LINE
  5
226
100
AcDbEntity
  8
0
100
AcDbLine
 62
7
  6
CONTINUOUS
 10
69.8080816174
 20
249.9456346809
 11
71.3990652511
 21
250.8641840271
  0
LINE
  5
227
100
AcDbEntity
  8
0
100
AcDbLine
 62
7
  6
CONTINUOUS
 10
89.0147189725
 20
261.0345257363
 11
90.5703473272
 21
261.9326628245
  0
LINE
  5
228
100
AcDbEntity
  8
0
100
AcDbLine
 62
7
  6
CONTINUOUS
 10
51.6424327784
 20
238.2509629187
 11
51.9464899602
 21
238.4265093666
  0
LINE
  5
229
100
AcDbEntity
  8
0
100
AcDbLine
 62
7
  6
CONTINUOUS
 10
73.2163504926
 20
244.044373811
 11
74.8073341264
 21
244.9629231572
  0
LINE
  5
22A
100
AcDbEntity
  8
0
100
AcDbLine
 62
7
  6
CONTINUOUS
 10
58.3402239059
 20
249.5336147914
 11
57.6885909943
 21
248.4429510066
  0
LINE
  5
22B
100
AcDbEntity
  8
0
100
AcDbLine
 62
7
  6
CONTINUOUS
 10
58.2363119431
 20
249.4094413005
 11
58.423157591
 21
249.7024157846
  0
LINE
  5
22C
100
AcDbEntity
  8
0
100
AcDbLine
 62
7
  6
CONTINUOUS
 10
57.8436231762
 20
248.8015928869
 11
58.2363119431
 21
249.4094413005
  0
LINE
  5
22D
100
AcDbEntity
  8
0
100
AcDbLine
 62
7
  6
CONTINUOUS
 10
57.6885909943
 20
248.4429510066
 11
57.8436027043
 21
248.8015809542
  0
LINE
  5
22E
100
AcDbEntity
  8
0
100
AcDbLine
 62
7
  6
CONTINUOUS
 10
58.4230711917
 20
249.7023653539
 11
58.3402239059
 21
249.5336147914
  0
LINE
  5
22F
100
AcDbEntity
  8
0
100
AcDbLine
 62
7
  6
CONTINUOUS
 10
73.2163504926
 20
225.9833403441
 11
75.4154166674
 21
227.2529642135
  0
LINE
  5
230
100
AcDbEntity
  8
0
100
AcDbLine
 62
7
  6
CONTINUOUS
 10
73.5310143203
 20
225.6200414591
 11
75.8873804528
 21
226.9804819593
  0
LINE
  5
231
100
AcDbEntity
  8
0
100
AcDbLine
 62
7
  6
CONTINUOUS
 10
131.2754000811
 20
46.3077532225
 11
60.2320859955
 21
87.3237018292
  0
LINE
  5
232
100
AcDbEntity
  8
0
100
AcDbLine
 62
7
  6
CONTINUOUS
 10
75.8432030399
 20
270.4351911903
 11
75.8560871628
 21
270.4766953945
  0
LINE
  5
233
100
AcDbEntity
  8
0
100
AcDbLine
 62
7
  6
CONTINUOUS
 10
75.8425012874
 20
270.4351625582
 11
75.8560871628
 21
270.4766953945
  0
LINE
  5
234
100
AcDbEntity
  8
0
100
AcDbLine
 62
7
  6
CONTINUOUS
 10
60.2320859955
 20
87.3237018292
 11
51.6424327784
 21
102.2053301766
  0
LINE
  5
235
100
AcDbEntity
  8
0
100
AcDbLine
 62
7
  6
CONTINUOUS
 10
51.6424327784
 20
102.2053301766
 11
51.6424327784
 21
238.2509629187
  0
LINE
  5
236
100
AcDbEntity
  8
0
100
AcDbLine
 62
7
  6
CONTINUOUS
 10
51.9464899602
 20
238.2530559984
 11
51.9464899602
 21
246.1573567915
  0
LINE
  5
237
100
AcDbEntity
  8
0
100
AcDbLine
 62
7
  6
CONTINUOUS
 10
51.9464899602
 20
252.2273824866
 11
51.9464899602
 21
260.2577961401
  0
LINE
  5
238
100
AcDbEntity
  8
0
100
AcDbLine
 62
7
  6
CONTINUOUS
 10
82.9257700534
 20
266.3951051261
 11
82.9128853349
 21
266.3536005521
  0
LINE
  5
239
100
AcDbEntity
  8
0
100
AcDbLine
 62
7
  6
CONTINUOUS
 10
82.9257700534
 20
266.3951051261
 11
82.9121840641
 21
266.3535719396
  0
LINE
  5
23A
100
AcDbEntity
  8
0
100
AcDbLine
 62
7
  6
CONTINUOUS
 10
118.2839888249
 20
218.0701443216
 11
123.2690991393
 21
220.950343576
  0
LINE
  5
23B
100
AcDbEntity
  8
0
100
AcDbLine
 62
7
  6
CONTINUOUS
 10
140.8477005324
 20
231.0992932412
 11
142.4403812154
 21
232.0188223734
  0
LINE
  5
23C
100
AcDbEntity
  8
0
100
AcDbLine
 62
7
  6
CONTINUOUS
 10
53.2351117689
 20
261.0017778473
 11
53.2351117689
 21
261.6386384026
  0
LINE
  5
23D
100
AcDbEntity
  8
0
100
AcDbLine
 62
7
  6
CONTINUOUS
 10
73.5310143203
 20
107.545626918
 11
117.9799316431
 21
81.8836130889
  0
LINE
  5
23E
100
AcDbEntity
  8
0
100
AcDbLine
 62
7
  6
CONTINUOUS
 10
153.6381542316
 20
225.5702139545
 11
153.6730118049
 21
225.5907437647
  0
LINE
  5
23F
100
AcDbEntity
  8
0
100
AcDbLine
 62
7
  6
CONTINUOUS
 10
154.7336675607
 20
226.2031098884
 11
153.6730118049
 21
225.5907437647
  0
LINE
  5
240
100
AcDbEntity
  8
0
100
AcDbLine
 62
7
  6
CONTINUOUS
 10
131.913799115
 20
208.5825434017
 11
129.6793509894
 21
207.292492101
  0
LINE
  5
241
100
AcDbEntity
  8
0
100
AcDbLine
 62
7
  6
CONTINUOUS
 10
117.979931643
 20
199.95802763
 11
118.2839888249
 21
200.1335740779
  0
LINE
  5
242
100
AcDbEntity
  8
0
100
AcDbLine
 62
7
  6
CONTINUOUS
 10
133.6272616447
 20
208.8212511793
 11
133.4956334889
 21
208.745256095
  0
LINE
  5
243
100
AcDbEntity
  8
0
100
AcDbLine
 62
7
  6
CONTINUOUS
 10
139.5538493573
 20
209.7114679555
 11
141.144832991
 21
210.6300173017
  0
LINE
  5
244
100
AcDbEntity
  8
0
100
AcDbLine
 62
7
  6
CONTINUOUS
 10
158.7234343842
 20
220.7789669669
 11
160.3161150671
 21
221.6984960991
  0
LINE
  5
245
100
AcDbEntity
  8
0
100
AcDbLine
 62
7
  6
CONTINUOUS
 10
141.673325093
 20
210.5799672347
 11
159.039795335
 21
220.6064436538
  0
LINE
  5
246
100
AcDbEntity
  8
0
100
AcDbLine
 62
7
  6
CONTINUOUS
 10
161.7684928779
 20
222.1009898099
 11
160.7078371221
 21
221.4886236862
  0
LINE
  5
247
100
AcDbEntity
  8
0
100
AcDbLine
 62
7
  6
CONTINUOUS
 10
132.8293364742
 20
201.8365236768
 11
132.4606411667
 21
201.7059207367
  0
LINE
  5
248
100
AcDbEntity
  8
0
100
AcDbLine
 62
7
  6
CONTINUOUS
 10
73.2163504926
 20
244.044373811
 11
73.2163504926
 21
225.9833403441
  0
LINE
  5
249
100
AcDbEntity
  8
0
100
AcDbLine
 62
7
  6
CONTINUOUS
 10
73.5310143203
 20
225.6200414591
 11
73.5310143203
 21
107.545626918
  0
LINE
  5
24A
100
AcDbEntity
  8
0
100
AcDbLine
 62
7
  6
CONTINUOUS
 10
74.8073341264
 20
227.6265756241
 11
74.8073341264
 21
244.9629231572
  0
LINE
  5
24B
100
AcDbEntity
  8
0
100
AcDbLine
 62
7
  6
CONTINUOUS
 10
129.3818965202
 20
207.0384956513
 11
129.6793509894
 21
207.292492101
  0
LINE
  5
24C
100
AcDbEntity
  8
0
100
AcDbLine
 62
7
  6
CONTINUOUS
 10
160.7078371221
 20
213.4868992988
 11
160.6729795488
 21
213.4663694887
  0
LINE
  5
24D
100
AcDbEntity
  8
0
100
AcDbLine
 62
7
  6
CONTINUOUS
 10
136.2052246597
 20
204.7959343447
 11
136.2866593007
 21
204.8434626943
  0
LINE
  5
24E
100
AcDbEntity
  8
0
100
AcDbLine
 62
7
  6
CONTINUOUS
 10
136.175981537
 20
204.5192524305
 11
135.9956219688
 21
204.415122425
  0
LINE
  5
24F
100
AcDbEntity
  8
0
100
AcDbLine
 62
7
  6
CONTINUOUS
 10
135.0637845998
 20
203.1265749775
 11
132.8293364742
 21
201.8365236768
  0
LINE
  5
250
100
AcDbEntity
  8
0
100
AcDbLine
 62
7
  6
CONTINUOUS
 10
160.7078371221
 20
213.4868992988
 11
161.768492878
 21
214.0992654225
  0
LINE
  5
251
100
AcDbEntity
  8
0
100
AcDbLine
 62
7
  6
CONTINUOUS
 10
94.2932800301
 20
119.5326550616
 11
117.9799316431
 21
105.8574697508
  0
LINE
  5
252
100
AcDbEntity
  8
0
100
AcDbLine
 62
7
  6
CONTINUOUS
 10
83.9864258092
 20
267.0074712498
 11
83.9864258092
 21
265.733805692
  0
LINE
  5
253
100
AcDbEntity
  8
0
100
AcDbLine
 62
7
  6
CONTINUOUS
 10
127.3464348973
 20
204.5654571667
 11
129.3818965202
 21
207.0384956513
  0
LINE
  5
254
100
AcDbEntity
  8
0
100
AcDbLine
 62
7
  6
CONTINUOUS
 10
141.673325093
 20
188.99980835
 11
159.039795335
 21
199.0262847691
  0
LINE
  5
255
100
AcDbEntity
  8
0
100
AcDbLine
 62
7
  6
CONTINUOUS
 10
139.5538493573
 20
187.6740677172
 11
160.3161150671
 21
199.6610958608
  0
LINE
  5
256
100
AcDbEntity
  8
0
100
AcDbLine
 62
7
  6
CONTINUOUS
 10
139.868513185
 20
187.3107688322
 11
160.6307788948
 21
199.2977969758
  0
LWPOLYLINE
  5
257
100
AcDbEntity
  8
0
100
AcDbPolyline
 62
7
  6
CONTINUOUS
 90
9
 70
0
 10
99.2588114922
 20
64.7921210906
 10
99.8748902731
 20
62.3102463358
 10
100.7174972617
 20
59.2948201826
 10
101.8179407811
 20
55.7608816979
 10
103.3038169804
 20
51.5059837279
 10
105.2430839546
 20
46.1619940415
 10
107.0573686055
 20
39.0603387153
 10
107.7707434715
 20
30.8340274806
 10
107.6677040473
 20
23.4817386985
  0
LINE
  5
258
100
AcDbEntity
  8
0
100
AcDbLine
 62
7
  6
CONTINUOUS
 10
94.2932800301
 20
216.3540712852
 11
94.2932800301
 21
119.5326550616
  0
LINE
  5
259
100
AcDbEntity
  8
0
100
AcDbLine
 62
7
  6
CONTINUOUS
 10
127.2907972419
 20
204.4888406544
 11
127.3465361036
 21
204.5653234808
  0
LINE
  5
25A
100
AcDbEntity
  8
0
100
AcDbLine
 62
7
  6
CONTINUOUS
 10
136.1222909747
 20
204.6271333515
 11
135.4706580631
 21
203.5364695667
  0
LINE
  5
25B
100
AcDbEntity
  8
0
100
AcDbLine
 62
7
  6
CONTINUOUS
 10
136.0183790118
 20
204.5029598606
 11
136.2052246597
 21
204.7959343447
  0
LINE
  5
25C
100
AcDbEntity
  8
0
100
AcDbLine
 62
7
  6
CONTINUOUS
 10
135.625690245
 20
203.895111447
 11
136.0183790118
 21
204.5029598606
  0
LWPOLYLINE
  5
25D
100
AcDbEntity
  8
0
100
AcDbPolyline
 62
7
  6
CONTINUOUS
 90
7
 70
0
 10
110.7236978353
 20
23.6127680594
 10
110.8264073251
 20
31.269235809
 10
110.0840642882
 20
39.5093938389
 10
108.005445785
 20
47.5410478485
 10
104.9790010053
 20
55.9477998078
 10
103.143259263
 20
61.9393734405
 10
102.9655514057
 20
62.6520822178
  0
LWPOLYLINE
  5
25E
100
AcDbEntity
  8
0
100
AcDbPolyline
 62
7
  6
CONTINUOUS
 90
4
 70
0
 10
107.911748788
 20
47.8013160741
 10
108.1223220568
 20
50.4909985117
 10
109.5026000536
 20
56.2357434695
 10
110.4046019647
 20
58.3572415374
  0
LINE
  5
25F
100
AcDbEntity
  8
0
100
AcDbLine
 62
7
  6
CONTINUOUS
 10
135.4706580631
 20
203.5364695667
 11
135.6256697731
 21
203.8950995143
  0
LINE
  5
260
100
AcDbEntity
  8
0
100
AcDbLine
 62
7
  6
CONTINUOUS
 10
136.2051382605
 20
204.795883914
 11
136.1222909747
 21
204.6271333515
  0
LINE
  5
261
100
AcDbEntity
  8
0
100
AcDbLine
 62
7
  6
CONTINUOUS
 10
117.9799316431
 20
81.8836130889
 11
117.9799316431
 21
199.95802763
  0
LINE
  5
262
100
AcDbEntity
  8
0
100
AcDbLine
 62
7
  6
CONTINUOUS
 10
118.2839888249
 20
199.9601207097
 11
118.2839888249
 21
218.0701443216
  0
LWPOLYLINE
  5
263
100
AcDbEntity
  8
0
100
AcDbPolyline
 62
7
  6
CONTINUOUS
 90
4
 70
0
 10
104.5420644296
 20
48.0937760816
 10
104.4696913217
 20
47.6436282997
 10
104.2937822261
 20
38.8506244718
 10
105.0764111361
 20
28.4336047449
  0
LINE
  5
264
100
AcDbEntity
  8
0
100
AcDbLine
 62
7
  6
CONTINUOUS
 10
73.5310143203
 20
107.545626918
 11
94.2932800301
 21
119.5326550616
  0
LINE
  5
265
100
AcDbEntity
  8
0
100
AcDbLine
 62
7
  6
CONTINUOUS
 10
73.2163504926
 20
225.9833403441
 11
73.5310143203
 21
225.6200414591
  0
LINE
  5
266
100
AcDbEntity
  8
0
100
AcDbLine
 62
7
  6
CONTINUOUS
 10
69.8080816174
 20
249.9456346809
 11
73.2163504926
 21
244.044373811
  0
LINE
  5
267
100
AcDbEntity
  8
0
100
AcDbLine
 62
7
  6
CONTINUOUS
 10
74.8073341264
 20
244.9629231572
 11
71.3990652511
 21
250.8641840271
  0
LINE
  5
268
100
AcDbEntity
  8
0
100
AcDbLine
 62
7
  6
CONTINUOUS
 10
139.5538493573
 20
209.7114679555
 11
139.5538493573
 21
187.6740677172
  0
LINE
  5
269
100
AcDbEntity
  8
0
100
AcDbLine
 62
7
  6
CONTINUOUS
 10
139.868513185
 20
187.3107688322
 11
139.868513185
 21
51.26513609
  0
LINE
  5
26A
100
AcDbEntity
  8
0
100
AcDbLine
 62
7
  6
CONTINUOUS
 10
141.144832991
 20
189.3274692388
 11
141.144832991
 21
210.6300173017
  0
LINE
  5
26B
100
AcDbEntity
  8
0
100
AcDbLine
 62
7
  6
CONTINUOUS
 10
141.673325093
 20
210.5799672347
 11
141.673325093
 21
188.99980835
  0
LWPOLYLINE
  5
26C
100
AcDbEntity
  8
0
100
AcDbPolyline
 62
7
  6
CONTINUOUS
 90
4
 70
0
 10
107.5264141208
 20
60.0189264715
 10
107.5097874559
 20
59.9888436071
 10
105.6105615686
 20
54.7396371097
 10
105.5498603933
 20
54.3620866599
  0
LINE
  5
26D
100
AcDbEntity
  8
0
100
AcDbLine
 62
7
  6
CONTINUOUS
 10
92.126740224
 20
259.2378400755
 11
90.5703473272
 21
261.9326628246
  0
LINE
  5
26E
100
AcDbEntity
  8
0
100
AcDbLine
 62
7
  6
CONTINUOUS
 10
159.039795335
 20
220.6064436538
 11
159.039795335
 21
199.0262847691
  0
LINE
  5
26F
100
AcDbEntity
  8
0
100
AcDbLine
 62
7
  6
CONTINUOUS
 10
160.3161150671
 20
221.6984960991
 11
160.3161150671
 21
199.6610958608
  0
LINE
  5
270
100
AcDbEntity
  8
0
100
AcDbLine
 62
7
  6
CONTINUOUS
 10
160.6307788948
 20
199.2977969758
 11
160.6307788948
 21
63.2521642336
  0
LINE
  5
271
100
AcDbEntity
  8
0
100
AcDbLine
 62
7
  6
CONTINUOUS
 10
129.301193403
 20
201.1796953161
 11
132.4606411667
 21
201.7059207367
  0
LINE
  5
272
100
AcDbEntity
  8
0
100
AcDbLine
 62
7
  6
CONTINUOUS
 10
117.9799316431
 20
199.95802763
 11
118.2839888249
 21
199.9601207097
  0
LINE
  5
273
100
AcDbEntity
  8
0
100
AcDbLine
 62
7
  6
CONTINUOUS
 10
141.673325093
 20
188.99980835
 11
141.1350718112
 21
189.3105619969
  0
LINE
  5
274
100
AcDbEntity
  8
0
100
AcDbLine
 62
7
  6
CONTINUOUS
 10
118.2839888249
 20
202.5033424498
 11
74.7975729466
 21
227.6096683823
  0
LINE
  5
275
100
AcDbEntity
  8
0
100
AcDbLine
 62
7
  6
CONTINUOUS
 10
139.5538493573
 20
187.6740677172
 11
139.868513185
 21
187.3107688322
  0
LINE
  5
276
100
AcDbEntity
  8
0
100
AcDbLine
 62
7
  6
CONTINUOUS
 10
161.7684928779
 20
222.1009898099
 11
161.768492878
 21
214.0992654225
  0
LINE
  5
277
100
AcDbEntity
  8
0
100
AcDbLine
 62
7
  6
CONTINUOUS
 10
133.7425748596
 20
208.7489478947
 11
132.4722157582
 21
208.7299558912
  0
LINE
  5
278
100
AcDbEntity
  8
0
100
AcDbLine
 62
7
  6
CONTINUOUS
 10
129.7797832974
 20
201.5005019172
 11
127.2907972419
 21
202.9374859262
  0
LINE
  5
279
100
AcDbEntity
  8
0
100
AcDbLine
 62
7
  6
CONTINUOUS
 10
51.9977162287
 20
246.4069833571
 11
49.5087301732
 21
247.8439673661
  0
LINE
  5
27A
100
AcDbEntity
  8
0
100
AcDbLine
 62
7
  6
CONTINUOUS
 10
129.7797832974
 20
203.0518566454
 11
127.2907972419
 21
204.4888406544
  0
LINE
  5
27B
100
AcDbEntity
  8
0
100
AcDbLine
 62
7
  6
CONTINUOUS
 10
51.9977162287
 20
247.9583380853
 11
49.5087301732
 21
249.3953220943
  0
LINE
  5
27C
100
AcDbEntity
  8
0
100
AcDbLine
 62
7
  6
CONTINUOUS
 10
51.9464899602
 20
260.2577961401
 11
69.8080816174
 21
249.9456346809
  0
LINE
  5
27D
100
AcDbEntity
  8
0
100
AcDbLine
 62
7
  6
CONTINUOUS
 10
121.6781155056
 20
220.0317942298
 11
139.5538493573
 21
209.7114679555
  0
LINE
  5
27E
100
AcDbEntity
  8
0
100
AcDbLine
 62
7
  6
CONTINUOUS
 10
53.5374735939
 20
261.1763454863
 11
71.3990652511
 21
250.8641840271
  0
LINE
  5
27F
100
AcDbEntity
  8
0
100
AcDbLine
 62
7
  6
CONTINUOUS
 10
123.2690991393
 20
220.950343576
 11
141.144832991
 21
210.6300173017
  0
LINE
  5
280
100
AcDbEntity
  8
0
100
AcDbLine
 62
7
  6
CONTINUOUS
 10
53.2351117689
 20
261.6386384026
 11
141.673325093
 21
210.5799672347
  0
LINE
  5
281
100
AcDbEntity
  8
0
100
AcDbLine
 62
7
  6
CONTINUOUS
 10
160.6307788948
 20
199.2977969758
 11
160.3161150671
 21
199.6610958608
  0
LINE
  5
282
100
AcDbEntity
  8
0
100
AcDbLine
 62
7
  6
CONTINUOUS
 10
51.6424327784
 20
238.2509629187
 11
51.9464899602
 21
238.2530559984
  0
LINE
  5
283
100
AcDbEntity
  8
0
100
AcDbLine
 62
7
  6
CONTINUOUS
 10
70.6015820109
 20
271.6651148216
 11
159.039795335
 21
220.6064436538
  0
LINE
  5
284
100
AcDbEntity
  8
0
100
AcDbLine
 62
7
  6
CONTINUOUS
 10
72.70875567
 20
272.2448242837
 11
90.5703473272
 21
261.9326628245
  0
LINE
  5
285
100
AcDbEntity
  8
0
100
AcDbLine
 62
7
  6
CONTINUOUS
 10
142.4403812154
 20
232.0188223734
 11
160.3161150671
 21
221.6984960991
  0
LINE
  5
286
100
AcDbEntity
  8
0
100
AcDbLine
 62
7
  6
CONTINUOUS
 10
139.868513185
 20
51.26513609
 11
160.6307788948
 21
63.2521642336
  0
LINE
  5
287
100
AcDbEntity
  8
0
100
AcDbLine
 62
7
  6
CONTINUOUS
 10
139.868513185
 20
51.26513609
 11
131.2754000811
 21
46.3077532225
  0
LINE
  5
288
100
AcDbEntity
  8
0
100
AcDbLine
 62
7
  6
CONTINUOUS
 10
51.5191263342
 20
246.086176756
 11
54.678574098
 21
246.6124021766
  0
LINE
  5
289
100
AcDbEntity
  8
0
100
AcDbLine
 62
7
  6
CONTINUOUS
 10
55.9605077909
 20
253.6554293347
 11
54.6901486894
 21
253.6364373311
  0
ARC
  5
28A
100
AcDbEntity
  8
0
100
AcDbCircle
 62
7
  6
CONTINUOUS
 10
66.5162350963
 20
251.5186494533
 40
83.1141536064
100
AcDbArc
 50
326.2530438778
 51
326.9791031425
  0
ARC
  5
28B
100
AcDbEntity
  8
0
100
AcDbCircle
 62
7
  6
CONTINUOUS
 10
-11.2658319718
 20
296.4251308928
 40
83.1141536056
100
AcDbArc
 50
326.2530438777
 51
326.9791031425
  0
ARC
  5
28C
100
AcDbEntity
  8
0
100
AcDbCircle
 62
7
  6
CONTINUOUS
 10
150.1889485073
 20
215.4960688635
 40
12.1061030474
100
AcDbArc
 50
29.6699345212
 51
31.5509485373
  0
ARC
  5
28D
100
AcDbEntity
  8
0
100
AcDbCircle
 62
7
  6
CONTINUOUS
 10
54.9954310739
 20
250.1924343985
 40
3.7323610977
100
AcDbArc
 50
14.7374904226
 51
15.1929982204
  0
ARC
  5
28E
100
AcDbEntity
  8
0
100
AcDbCircle
 62
7
  6
CONTINUOUS
 10
159.499967211
 20
215.4990625123
 40
2.3468686885
100
AcDbArc
 50
291.1594055399
 51
299.9880854155
  0
ARC
  5
28F
100
AcDbEntity
  8
0
100
AcDbCircle
 62
7
  6
CONTINUOUS
 10
135.3918924526
 20
205.1177715931
 40
1.041387127
100
AcDbArc
 50
321.8329352311
 51
326.0176885568
  0
ARC
  5
290
100
AcDbEntity
  8
0
100
AcDbCircle
 62
7
  6
CONTINUOUS
 10
57.6171694319
 20
250.0275781926
 40
1.0366588554
100
AcDbArc
 50
321.5635507173
 51
325.6776365068
  0
ARC
  5
291
100
AcDbEntity
  8
0
100
AcDbCircle
 62
7
  6
CONTINUOUS
 10
56.0227891309
 20
252.8119909417
 40
1.0066317607
100
AcDbArc
 50
95.712961873
 51
101.065005112
  0
ARC
  5
292
100
AcDbEntity
  8
0
100
AcDbCircle
 62
7
  6
CONTINUOUS
 10
133.8011609918
 20
207.9011177249
 40
1.0048934726
100
AcDbArc
 50
95.4608571894
 51
101.6011331438
  0
ARC
  5
293
100
AcDbEntity
  8
0
100
AcDbCircle
 62
7
  6
CONTINUOUS
 10
135.4512144117
 20
205.0705787623
 40
0.9655844597
100
AcDbArc
 50
314.6361068222
 51
321.8593517313
  0
ARC
  5
294
100
AcDbEntity
  8
0
100
AcDbCircle
 62
7
  6
CONTINUOUS
 10
57.6739497057
 20
249.9820075699
 40
0.9638542495
100
AcDbArc
 50
314.6316073816
 51
321.5872180772
  0
ARC
  5
295
100
AcDbEntity
  8
0
100
AcDbCircle
 62
7
  6
CONTINUOUS
 10
55.991032531
 20
252.934117737
 40
0.8800904806
100
AcDbArc
 50
120.0016389217
 51
125.1057891922
  0
ARC
  5
296
100
AcDbEntity
  8
0
100
AcDbCircle
 62
7
  6
CONTINUOUS
 10
133.769266694
 20
208.0219886496
 40
0.8795267265
100
AcDbArc
 50
120.000272617
 51
124.442321381
  0
ARC
  5
297
100
AcDbEntity
  8
0
100
AcDbCircle
 62
7
  6
CONTINUOUS
 10
135.5099266879
 20
205.0071591418
 40
0.8789953821
100
AcDbArc
 50
296.3839403782
 51
299.9961952835
  0
ARC
  5
298
100
AcDbEntity
  8
0
100
AcDbCircle
 62
7
  6
CONTINUOUS
 10
57.7313951114
 20
249.9197610743
 40
0.8789898309
100
AcDbArc
 50
296.3923918317
 51
299.9962053866
  0
SPLINE
  5
299
100
AcDbEntity
  8
0
100
AcDbSpline
 62
7
  6
CONTINUOUS
 70
0
 71
3
 72
9
 73
5
 74
0
 42
0.0000001
 43
0.0000001
 44
0.0000000001
 40
0.0
 40
0.0
 40
0.0
 40
0.0
 40
0.2521183278
 40
1.0
 40
1.0
 40
1.0
 40
1.0
 10
107.4963475204
 20
28.1008733156
 30
0.0
 10
107.5195981854
 20
28.1083142038
 30
0.0
 10
107.6114553538
 20
28.1389404955
 30
0.0
 10
107.7018385742
 20
28.1740884372
 30
0.0
 10
107.7680748878
 20
28.2033611244
 30
0.0
  0
SPLINE
  5
29A
100
AcDbEntity
  8
0
100
AcDbSpline
 62
7
  6
CONTINUOUS
 70
0
 71
3
 72
17
 73
13
 74
0
 42
0.0000001
 43
0.0000001
 44
0.0000000001
 40
0.0
 40
0.0
 40
0.0
 40
0.0
 40
0.0333720657
 40
0.0680453774
 40
0.1050328222
 40
0.1457539055
 40
0.2453213068
 40
0.3748634476
 40
0.5279649267
 40
0.6931003648
 40
0.854680688
 40
1.0
 40
1.0
 40
1.0
 40
1.0
 10
105.0764111338
 20
28.4336047642
 30
0.0
 10
105.0797578881
 20
28.4046051195
 30
0.0
 10
105.0964845982
 20
28.3462712861
 30
0.0
 10
105.1467607225
 20
28.2682389128
 30
0.0
 10
105.2172891211
 20
28.1988718853
 30
0.0
 10
105.3454415654
 20
28.1105390332
 30
0.0
 10
105.5654986979
 20
28.0190832415
 30
0.0
 10
105.8934180443
 20
27.9483580564
 30
0.0
 10
106.2850666451
 20
27.9184418624
 30
0.0
 10
106.7052712059
 20
27.9358982361
 30
0.0
 10
107.1145433174
 20
27.9955862873
 30
0.0
 10
107.3752785947
 20
28.0621277427
 30
0.0
 10
107.4963475204
 20
28.1008733156
 30
0.0
  0
SPLINE
  5
29B
100
AcDbEntity
  8
0
100
AcDbSpline
 62
7
  6
CONTINUOUS
 70
0
 71
3
 72
13
 73
9
 74
0
 42
0.0000001
 43
0.0000001
 44
0.0000000001
 40
0.0
 40
0.0
 40
0.0
 40
0.0
 40
0.1107692408
 40
0.2244524732
 40
0.342458429
 40
0.4648693655
 40
0.7232335809
 40
1.0
 40
1.0
 40
1.0
 40
1.0
 10
110.0564809993
 20
58.5810317013
 30
0.0
 10
109.8898846662
 20
58.2734620001
 30
0.0
 10
109.5632109481
 20
57.6440904899
 30
0.0
 10
109.1202971595
 20
56.6568909118
 30
0.0
 10
108.7168576838
 20
55.6135163311
 30
0.0
 10
108.2196604076
 20
54.118442168
 30
0.0
 10
107.6970719746
 20
52.1063130287
 30
0.0
 10
107.394072433
 20
50.4423890983
 30
0.0
 10
107.2639219631
 20
49.5781525117
 30
0.0
  0
SPLINE
  5
29C
100
AcDbEntity
  8
0
100
AcDbSpline
 62
7
  6
CONTINUOUS
 70
0
 71
3
 72
10
 73
6
 74
0
 42
0.0000001
 43
0.0000001
 44
0.0000000001
 40
0.0
 40
0.0
 40
0.0
 40
0.0
 40
0.2399896601
 40
0.4870978413
 40
1.0
 40
1.0
 40
1.0
 40
1.0
 10
106.697076891
 20
40.3881539561
 30
0.0
 10
106.7047709508
 20
39.4027735794
 30
0.0
 10
106.7532766211
 20
37.4029307673
 30
0.0
 10
106.9679603848
 20
33.3021537479
 30
0.0
 10
107.2549254698
 20
30.1929935974
 30
0.0
 10
107.4963475204
 20
28.1008733156
 30
0.0
  0
SPLINE
  5
29D
100
AcDbEntity
  8
0
100
AcDbSpline
 62
7
  6
CONTINUOUS
 70
0
 71
3
 72
11
 73
7
 74
0
 42
0.0000001
 43
0.0000001
 44
0.0000000001
 40
0.0
 40
0.0
 40
0.0
 40
0.0
 40
0.2781869842
 40
0.5391671362
 40
0.7779401249
 40
1.0
 40
1.0
 40
1.0
 40
1.0
 10
110.2757518324
 20
22.9873306057
 30
0.0
 10
110.3404547656
 20
23.0246866387
 30
0.0
 10
110.460943574
 20
23.1064037552
 30
0.0
 10
110.6090877062
 20
23.2562041484
 30
0.0
 10
110.7060774337
 20
23.4274842112
 30
0.0
 10
110.7262436812
 20
23.5531840236
 30
0.0
 10
110.7236978353
 20
23.612768059
 30
0.0
  0
SPLINE
  5
29E
100
AcDbEntity
  8
0
100
AcDbSpline
 62
7
  6
CONTINUOUS
 70
0
 71
3
 72
17
 73
13
 74
0
 42
0.0000001
 43
0.0000001
 44
0.0000000001
 40
0.0
 40
0.0
 40
0.0
 40
0.0
 40
0.043292063
 40
0.0880796468
 40
0.1353762981
 40
0.1852944469
 40
0.2918503148
 40
0.4208497766
 40
0.5707990368
 40
0.7279115646
 40
0.8752121647
 40
1.0
 40
1.0
 40
1.0
 40
1.0
 10
107.6677040473
 20
23.4817386989
 30
0.0
 10
107.6695222728
 20
23.4387178117
 30
0.0
 10
107.6858968053
 20
23.3512809261
 30
0.0
 10
107.7455681075
 20
23.2291140401
 30
0.0
 10
107.8348945297
 20
23.1184411804
 30
0.0
 10
107.9892973637
 20
22.9858418524
 30
0.0
 10
108.2424529456
 20
22.8505744206
 30
0.0
 10
108.6126310347
 20
22.7429843283
 30
0.0
 10
109.0460460142
 20
22.6967677129
 30
0.0
 10
109.4992907751
 20
22.7230000517
 30
0.0
 10
109.917482713
 20
22.8179180664
 30
0.0
 10
110.1682632984
 20
22.9252724421
 30
0.0
 10
110.2757518324
 20
22.9873306057
 30
0.0
  0
SPLINE
  5
29F
100
AcDbEntity
  8
0
100
AcDbSpline
 62
7
  6
CONTINUOUS
 70
0
 71
3
 72
25
 73
21
 74
0
 42
0.0000001
 43
0.0000001
 44
0.0000000001
 40
0.0
 40
0.0
 40
0.0
 40
0.0
 40
0.0532688407
 40
0.0804809112
 40
0.1081738842
 40
0.1363455941
 40
0.1648819787
 40
0.2229184823
 40
0.2826326185
 40
0.3444780393
 40
0.4084491703
 40
0.4742935574
 40
0.5418055851
 40
0.5759963495
 40
0.6101313691
 40
0.6776848721
 40
0.7437793464
 40
0.8730594979
 40
0.9368955166
 40
1.0
 40
1.0
 40
1.0
 40
1.0
 10
110.2757518324
 20
22.9873306057
 30
0.0
 10
110.2441613677
 20
23.7193632162
 30
0.0
 10
110.2469391166
 20
24.827413109
 30
0.0
 10
110.293435723
 20
26.3144928782
 30
0.0
 10
110.3364890814
 20
27.4564308421
 30
0.0
 10
110.3710319573
 20
28.616886657
 30
0.0
 10
110.3903458061
 20
30.1951533819
 30
0.0
 10
110.3583236215
 20
32.2076716841
 30
0.0
 10
110.2079240828
 20
34.6744001435
 30
0.0
 10
109.9224852156
 20
37.2115466636
 30
0.0
 10
109.4903686086
 20
39.8134184694
 30
0.0
 10
108.9071862342
 20
42.4654736271
 30
0.0
 10
108.2950048373
 20
44.6885483913
 30
0.0
 10
107.7261355368
 20
46.468471135
 30
0.0
 10
107.1170293572
 20
48.2355899934
 30
0.0
 10
106.3159599869
 20
50.4000944404
 30
0.0
 10
105.0476623522
 20
53.7869849907
 30
0.0
 10
103.9129500002
 20
57.1687475958
 30
0.0
 10
102.9066869406
 20
60.5465539997
 30
0.0
 10
102.4478578221
 20
62.2315145137
 30
0.0
 10
102.2316378017
 20
63.0721563962
 30
0.0
  0
SPLINE
  5
2A0
100
AcDbEntity
  8
0
100
AcDbSpline
 62
7
  6
CONTINUOUS
 70
0
 71
3
 72
11
 73
7
 74
0
 42
0.0000001
 43
0.0000001
 44
0.0000000001
 40
0.0
 40
0.0
 40
0.0
 40
0.0
 40
0.2659672459
 40
0.5253417405
 40
0.7717590108
 40
1.0
 40
1.0
 40
1.0
 40
1.0
 10
83.9864258092
 20
267.0074712498
 30
0.0
 10
83.7577389006
 20
267.4089015954
 30
0.0
 10
83.2604906343
 20
268.1768741024
 30
0.0
 10
82.4041589608
 20
269.212427606
 30
0.0
 10
81.472870148
 20
270.0883378117
 30
0.0
 10
80.7949371629
 20
270.5646912982
 30
0.0
 10
80.4515843639
 20
270.7629216099
 30
0.0
  0
SPLINE
  5
2A1
100
AcDbEntity
  8
0
100
AcDbSpline
 62
7
  6
CONTINUOUS
 70
0
 71
3
 72
14
 73
10
 74
0
 42
0.0000001
 43
0.0000001
 44
0.0000000001
 40
0.0
 40
0.0
 40
0.0
 40
0.0
 40
0.2892759517
 40
0.4225335687
 40
0.5484875192
 40
0.6678843671
 40
0.781851924
 40
0.8919623387
 40
1.0
 40
1.0
 40
1.0
 40
1.0
 10
80.4515843639
 20
270.7629216099
 30
0.0
 10
80.1443199034
 20
270.9403167846
 30
0.0
 10
79.6725940358
 20
271.1648279362
 30
0.0
 10
79.0256664586
 20
271.3534675379
 30
0.0
 10
78.5664778959
 20
271.4304559074
 30
0.0
 10
78.1246520297
 20
271.4458668645
 30
0.0
 10
77.7043212756
 20
271.3989987293
 30
0.0
 10
77.3100568134
 20
271.2899245598
 30
0.0
 10
77.0663607156
 20
271.175836725
 30
0.0
 10
76.9516011415
 20
271.109590158
 30
0.0
  0
SPLINE
  5
2A2
100
AcDbEntity
  8
0
100
AcDbSpline
 62
7
  6
CONTINUOUS
 70
0
 71
3
 72
11
 73
7
 74
0
 42
0.0000001
 43
0.0000001
 44
0.0000000001
 40
0.0
 40
0.0
 40
0.0
 40
0.0
 40
0.2215396115
 40
0.4602224701
 40
0.7194809854
 40
1.0
 40
1.0
 40
1.0
 40
1.0
 10
51.5191179938
 20
246.0861965673
 30
0.0
 10
51.4607194726
 20
246.0764787382
 30
0.0
 10
51.3367512694
 20
246.070545614
 30
0.0
 10
51.1457114327
 20
246.0998911897
 30
0.0
 10
50.9475533386
 20
246.1658657049
 30
0.0
 10
50.8181429894
 20
246.2306671458
 30
0.0
 10
50.7532232009
 20
246.2681477487
 30
0.0
  0
SPLINE
  5
2A3
100
AcDbEntity
  8
0
100
AcDbSpline
 62
7
  6
CONTINUOUS
 70
0
 71
3
 72
9
 73
5
 74
0
 42
0.0000001
 43
0.0000001
 44
0.0000000001
 40
0.0
 40
0.0
 40
0.0
 40
0.0
 40
0.4887721371
 40
1.0
 40
1.0
 40
1.0
 40
1.0
 10
57.2817129416
 20
248.0330643808
 30
0.0
 10
57.3638722571
 20
248.0805107321
 30
0.0
 10
57.5192414374
 20
248.201272899
 30
0.0
 10
57.6377016792
 20
248.3577586561
 30
0.0
 10
57.688591521
 20
248.4429503805
 30
0.0
  0
SPLINE
  5
2A4
100
AcDbEntity
  8
0
100
AcDbSpline
 62
7
  6
CONTINUOUS
 70
0
 71
3
 72
9
 73
5
 74
0
 42
0.0000001
 43
0.0000001
 44
0.0000000001
 40
0.0
 40
0.0
 40
0.0
 40
0.0
 40
0.5112214041
 40
1.0
 40
1.0
 40
1.0
 40
1.0
 10
54.6901529124
 20
253.6364253883
 30
0.0
 10
54.5909309288
 20
253.6349464719
 30
0.0
 10
54.3961853068
 20
253.6106024734
 30
0.0
 10
54.2138971839
 20
253.5364639414
 30
0.0
 10
54.1317366486
 20
253.4890168857
 30
0.0
  0
SPLINE
  5
2A5
100
AcDbEntity
  8
0
100
AcDbSpline
 62
7
  6
CONTINUOUS
 70
0
 71
3
 72
9
 73
5
 74
0
 42
0.0000001
 43
0.0000001
 44
0.0000000001
 40
0.0
 40
0.0
 40
0.0
 40
0.0
 40
0.5009779574
 40
1.0
 40
1.0
 40
1.0
 40
1.0
 10
51.9977162287
 20
247.9583380853
 30
0.0
 10
52.6016910685
 20
248.1237956514
 30
0.0
 10
53.8044250292
 20
248.4644647478
 30
0.0
 10
55.0046932506
 20
248.8135807422
 30
0.0
 10
55.6033220928
 20
248.9889350957
 30
0.0
  0
SPLINE
  5
2A6
100
AcDbEntity
  8
0
100
AcDbSpline
 62
7
  6
CONTINUOUS
 70
0
 71
3
 72
11
 73
7
 74
0
 42
0.0000001
 43
0.0000001
 44
0.0000000001
 40
0.0
 40
0.0
 40
0.0
 40
0.0
 40
0.2502044633
 40
0.4376081106
 40
0.6248093683
 40
1.0
 40
1.0
 40
1.0
 40
1.0
 10
57.8435141245
 20
250.2530526234
 30
0.0
 10
57.656682508
 20
250.1476162285
 30
0.0
 10
57.3292948971
 20
249.9643062133
 30
0.0
 10
56.8629784839
 20
249.7005866552
 30
0.0
 10
56.3043990788
 20
249.3823174354
 30
0.0
 10
55.8834947139
 20
249.1470197567
 30
0.0
 10
55.6033220928
 20
248.9889350957
 30
0.0
  0
SPLINE
  5
2A7
100
AcDbEntity
  8
0
100
AcDbSpline
 62
7
  6
CONTINUOUS
 70
0
 71
3
 72
11
 73
7
 74
0
 42
0.0000001
 43
0.0000001
 44
0.0000000001
 40
0.0
 40
0.0
 40
0.0
 40
0.0
 40
0.2281535787
 40
0.4782036747
 40
0.7395864797
 40
1.0
 40
1.0
 40
1.0
 40
1.0
 10
50.7532232009
 20
246.2681477487
 30
0.0
 10
50.618672201
 20
246.3458290337
 30
0.0
 10
50.3561106518
 20
246.5430795662
 30
0.0
 10
50.0130232601
 20
246.9146633388
 30
0.0
 10
49.7205042453
 20
247.353775433
 30
0.0
 10
49.5699903369
 20
247.6775514465
 30
0.0
 10
49.5087301732
 20
247.8439673661
 30
0.0
  0
SPLINE
  5
2A8
100
AcDbEntity
  8
0
100
AcDbSpline
 62
7
  6
CONTINUOUS
 70
0
 71
3
 72
9
 73
5
 74
0
 42
0.0000001
 43
0.0000001
 44
0.0000000001
 40
0.0
 40
0.0
 40
0.0
 40
0.0
 40
0.2489934985
 40
1.0
 40
1.0
 40
1.0
 40
1.0
 10
49.5087301732
 20
247.8439673661
 30
0.0
 10
49.581337251
 20
247.9310769927
 30
0.0
 10
49.8744196651
 20
248.2796909695
 30
0.0
 10
50.1720979175
 20
248.6244140093
 30
0.0
 10
50.3968652534
 20
248.8822307605
 30
0.0
  0
SPLINE
  5
2A9
100
AcDbEntity
  8
0
100
AcDbSpline
 62
7
  6
CONTINUOUS
 70
0
 71
3
 72
11
 73
7
 74
0
 42
0.0000001
 43
0.0000001
 44
0.0000000001
 40
0.0
 40
0.0
 40
0.0
 40
0.0
 40
0.22824087
 40
0.4746580597
 40
0.7340326536
 40
1.0
 40
1.0
 40
1.0
 40
1.0
 10
79.3909286081
 20
270.1505554861
 30
0.0
 10
79.7342812774
 20
269.9523252493
 30
0.0
 10
80.4122151635
 20
269.4759735953
 30
0.0
 10
81.3435050097
 20
268.6000642336
 30
0.0
 10
82.1998358306
 20
267.5645093828
 30
0.0
 10
82.6970830253
 20
266.7965356815
 30
0.0
 10
82.9257700534
 20
266.3951051261
 30
0.0
  0
SPLINE
  5
2AA
100
AcDbEntity
  8
0
100
AcDbSpline
 62
7
  6
CONTINUOUS
 70
0
 71
3
 72
10
 73
6
 74
0
 42
0.0000001
 43
0.0000001
 44
0.0000000001
 40
0.0
 40
0.0
 40
0.0
 40
0.0
 40
0.2256786871
 40
0.5934719832
 40
1.0
 40
1.0
 40
1.0
 40
1.0
 10
55.9605117783
 20
253.6554180152
 30
0.0
 10
56.0245119038
 20
253.6563794677
 30
0.0
 10
56.1932292586
 20
253.6438760314
 30
0.0
 10
56.4687957181
 20
253.5685272917
 30
0.0
 10
56.6674608163
 20
253.4722737562
 30
0.0
 10
56.7673142188
 20
253.4146246817
 30
0.0
  0
SPLINE
  5
2AB
100
AcDbEntity
  8
0
100
AcDbSpline
 62
7
  6
CONTINUOUS
 70
0
 71
3
 72
11
 73
7
 74
0
 42
0.0000001
 43
0.0000001
 44
0.0000000001
 40
0.0
 40
0.0
 40
0.0
 40
0.0
 40
0.2281535787
 40
0.4782036747
 40
0.7395864797
 40
1.0
 40
1.0
 40
1.0
 40
1.0
 10
50.7532232009
 20
249.5341577027
 30
0.0
 10
50.8877742008
 20
249.4564764177
 30
0.0
 10
51.15033575
 20
249.2592258852
 30
0.0
 10
51.4934231418
 20
248.8876421126
 30
0.0
 10
51.7859421565
 20
248.4485300184
 30
0.0
 10
51.936456065
 20
248.124754005
 30
0.0
 10
51.9977162287
 20
247.9583380853
 30
0.0
  0
SPLINE
  5
2AC
100
AcDbEntity
  8
0
100
AcDbSpline
 62
7
  6
CONTINUOUS
 70
0
 71
3
 72
12
 73
8
 74
0
 42
0.0000001
 43
0.0000001
 44
0.0000000001
 40
0.0
 40
0.0
 40
0.0
 40
0.0
 40
0.111585137
 40
0.2307260378
 40
0.4848730558
 40
0.7471192876
 40
1.0
 40
1.0
 40
1.0
 40
1.0
 10
53.472276663
 20
252.0429721676
 30
0.0
 10
53.5951342067
 20
251.9720419488
 30
0.0
 10
53.8389312789
 20
251.8071717947
 30
0.0
 10
54.3059955859
 20
251.4032759581
 30
0.0
 10
54.8291881377
 20
250.7798856472
 30
0.0
 10
55.3149005836
 20
249.9257914567
 30
0.0
 10
55.5316782864
 20
249.3023486151
 30
0.0
 10
55.6033220928
 20
248.9889350957
 30
0.0
  0
SPLINE
  5
2AD
100
AcDbEntity
  8
0
100
AcDbSpline
 62
7
  6
CONTINUOUS
 70
0
 71
3
 72
11
 73
7
 74
0
 42
0.0000001
 43
0.0000001
 44
0.0000000001
 40
0.0
 40
0.0
 40
0.0
 40
0.0
 40
0.2294982809
 40
0.4822854772
 40
0.744381072
 40
1.0
 40
1.0
 40
1.0
 40
1.0
 10
56.7673142188
 20
253.4146246817
 30
0.0
 10
56.9581417379
 20
253.3044528739
 30
0.0
 10
57.3278400898
 20
253.0176539303
 30
0.0
 10
57.7975975425
 20
252.4742854989
 30
0.0
 10
58.1791470142
 20
251.8364224114
 30
0.0
 10
58.3584621098
 20
251.3692812731
 30
0.0
 10
58.4230711917
 20
251.1325116852
 30
0.0
  0
SPLINE
  5
2AE
100
AcDbEntity
  8
0
100
AcDbSpline
 62
7
  6
CONTINUOUS
 70
0
 71
3
 72
12
 73
8
 74
0
 42
0.0000001
 43
0.0000001
 44
0.0000000001
 40
0.0
 40
0.0
 40
0.0
 40
0.0
 40
0.2524745628
 40
0.5147518206
 40
0.7691203509
 40
0.8883612234
 40
1.0
 40
1.0
 40
1.0
 40
1.0
 10
57.8436027043
 20
250.2531024765
 30
0.0
 10
57.7735335557
 20
250.5686205018
 30
0.0
 10
57.5583250343
 20
251.1970492701
 30
0.0
 10
57.0720545866
 20
252.058487717
 30
0.0
 10
56.5462339068
 20
252.6877118057
 30
0.0
 10
56.0760667647
 20
253.0953103425
 30
0.0
 10
55.8304927622
 20
253.2615676245
 30
0.0
 10
55.7067247886
 20
253.3330234683
 30
0.0
  0
SPLINE
  5
2AF
100
AcDbEntity
  8
0
100
AcDbSpline
 62
7
  6
CONTINUOUS
 70
0
 71
3
 72
9
 73
5
 74
0
 42
0.0000001
 43
0.0000001
 44
0.0000000001
 40
0.0
 40
0.0
 40
0.0
 40
0.0
 40
0.2766642069
 40
1.0
 40
1.0
 40
1.0
 40
1.0
 10
55.7067247886
 20
253.3330234683
 30
0.0
 10
55.6214662942
 20
253.3822463609
 30
0.0
 10
55.3056983637
 20
253.5445485805
 30
0.0
 10
54.9475142442
 20
253.6402613918
 30
0.0
 10
54.6901529124
 20
253.6364253883
 30
0.0
  0
SPLINE
  5
2B0
100
AcDbEntity
  8
0
100
AcDbSpline
 62
7
  6
CONTINUOUS
 70
0
 71
3
 72
12
 73
8
 74
0
 42
0.0000001
 43
0.0000001
 44
0.0000000001
 40
0.0
 40
0.0
 40
0.0
 40
0.0
 40
0.1081645289
 40
0.2183665581
 40
0.4513726235
 40
0.7104149179
 40
1.0
 40
1.0
 40
1.0
 40
1.0
 10
51.8972889088
 20
252.1989649017
 30
0.0
 10
51.9489315133
 20
252.2287873368
 30
0.0
 10
52.0585968855
 20
252.280128563
 30
0.0
 10
52.2993899562
 20
252.3467929729
 30
0.0
 10
52.6366525327
 20
252.355740033
 30
0.0
 10
53.0590203848
 20
252.253633893
 30
0.0
 10
53.3340073401
 20
252.1228001786
 30
0.0
 10
53.472276663
 20
252.0429721676
 30
0.0
  0
SPLINE
  5
2B1
100
AcDbEntity
  8
0
100
AcDbSpline
 62
7
  6
CONTINUOUS
 70
0
 71
3
 72
14
 73
10
 74
0
 42
0.0000001
 43
0.0000001
 44
0.0000000001
 40
0.0
 40
0.0
 40
0.0
 40
0.0
 40
0.1080376224
 40
0.2181479375
 40
0.3321153654
 40
0.451512131
 40
0.5774660968
 40
0.7107238288
 40
1.0
 40
1.0
 40
1.0
 40
1.0
 10
75.8909454
 20
270.4972240547
 30
0.0
 10
76.0057049701
 20
270.5634706971
 30
0.0
 10
76.2494006671
 20
270.6775592364
 30
0.0
 10
76.6436645842
 20
270.7866351219
 30
0.0
 10
77.0639951109
 20
270.8335045771
 30
0.0
 10
77.505821071
 20
270.8180940056
 30
0.0
 10
77.9650099143
 20
270.7411050224
 30
0.0
 10
78.6119378583
 20
270.5524635353
 30
0.0
 10
79.0836637245
 20
270.3279509052
 30
0.0
 10
79.3909286081
 20
270.1505554861
 30
0.0
  0
SPLINE
  5
2B2
100
AcDbEntity
  8
0
100
AcDbSpline
 62
7
  6
CONTINUOUS
 70
0
 71
3
 72
11
 73
7
 74
0
 42
0.0000001
 43
0.0000001
 44
0.0000000001
 40
0.0
 40
0.0
 40
0.0
 40
0.0
 40
0.2501987889
 40
0.4376034188
 40
0.6248154169
 40
1.0
 40
1.0
 40
1.0
 40
1.0
 10
55.6033220928
 20
247.4923803548
 30
0.0
 10
55.7901666146
 20
247.601561259
 30
0.0
 10
56.1175844136
 20
247.7914541043
 30
0.0
 10
56.5839114905
 20
248.0645813882
 30
0.0
 10
57.1424766805
 20
248.3941219083
 30
0.0
 10
57.5634535151
 20
248.6378500784
 30
0.0
 10
57.8436231762
 20
248.8015928869
 30
0.0
  0
SPLINE
  5
2B3
100
AcDbEntity
  8
0
100
AcDbSpline
 62
7
  6
CONTINUOUS
 70
0
 71
3
 72
10
 73
6
 74
0
 42
0.0000001
 43
0.0000001
 44
0.0000000001
 40
0.0
 40
0.0
 40
0.0
 40
0.0
 40
0.5237279784
 40
0.7652603266
 40
1.0
 40
1.0
 40
1.0
 40
1.0
 10
55.6033220928
 20
247.4923803548
 30
0.0
 10
55.5540076295
 20
247.3335910822
 30
0.0
 10
55.4482874058
 20
247.1078169385
 30
0.0
 10
55.2350023364
 20
246.8702945153
 30
0.0
 10
55.1118005896
 20
246.7802819348
 30
0.0
 10
55.0472644172
 20
246.743013756
 30
0.0
  0
SPLINE
  5
2B4
100
AcDbEntity
  8
0
100
AcDbSpline
 62
7
  6
CONTINUOUS
 70
0
 71
3
 72
11
 73
7
 74
0
 42
0.0000001
 43
0.0000001
 44
0.0000000001
 40
0.0
 40
0.0
 40
0.0
 40
0.0
 40
0.2569786123
 40
0.504572558
 40
0.7496516561
 40
1.0
 40
1.0
 40
1.0
 40
1.0
 10
51.9977162287
 20
246.4069833571
 30
0.0
 10
51.9703247886
 20
246.3642014992
 30
0.0
 10
51.9086149733
 20
246.2848725178
 30
0.0
 10
51.7945603146
 20
246.1885070307
 30
0.0
 10
51.6633077426
 20
246.1200266638
 30
0.0
 10
51.5679354385
 20
246.0943200535
 30
0.0
 10
51.5191179938
 20
246.0861965673
 30
0.0
  0
SPLINE
  5
2B5
100
AcDbEntity
  8
0
100
AcDbSpline
 62
7
  6
CONTINUOUS
 70
0
 71
3
 72
13
 73
9
 74
0
 42
0.0000001
 43
0.0000001
 44
0.0000000001
 40
0.0
 40
0.0
 40
0.0
 40
0.0
 40
0.1134339598
 40
0.2244318929
 40
0.3363988779
 40
0.4526411574
 40
0.7068848009
 40
1.0
 40
1.0
 40
1.0
 40
1.0
 10
49.5643804134
 20
249.4719220326
 30
0.0
 10
49.5955912901
 20
249.5098256674
 30
0.0
 10
49.664898476
 20
249.5790633631
 30
0.0
 10
49.7885193571
 20
249.6581071855
 30
0.0
 10
49.9274868622
 20
249.7089232144
 30
0.0
 10
50.1355038147
 20
249.7388829973
 30
0.0
 10
50.4254319512
 20
249.6966060941
 30
0.0
 10
50.6433455573
 20
249.5975941436
 30
0.0
 10
50.7532232009
 20
249.5341577027
 30
0.0
  0
SPLINE
  5
2B6
100
AcDbEntity
  8
0
100
AcDbSpline
 62
7
  6
CONTINUOUS
 70
0
 71
3
 72
9
 73
5
 74
0
 42
0.0000001
 43
0.0000001
 44
0.0000000001
 40
0.0
 40
0.0
 40
0.0
 40
0.0
 40
0.4990589608
 40
1.0
 40
1.0
 40
1.0
 40
1.0
 10
55.6033220928
 20
247.4923803548
 30
0.0
 10
55.0047196209
 20
247.3078610551
 30
0.0
 10
53.8045518384
 20
246.9404270843
 30
0.0
 10
52.6017657455
 20
246.5815156595
 30
0.0
 10
51.9977162287
 20
246.4069833571
 30
0.0
  0
SPLINE
  5
2B7
100
AcDbEntity
  8
0
100
AcDbSpline
 62
7
  6
CONTINUOUS
 70
0
 71
3
 72
11
 73
7
 74
0
 42
0.0000001
 43
0.0000001
 44
0.0000000001
 40
0.0
 40
0.0
 40
0.0
 40
0.0
 40
0.2659672459
 40
0.5253417405
 40
0.7717590108
 40
1.0
 40
1.0
 40
1.0
 40
1.0
 10
161.7684928779
 20
222.1009898099
 30
0.0
 10
161.5398059694
 20
222.5024201555
 30
0.0
 10
161.0425577031
 20
223.2703926625
 30
0.0
 10
160.1862260295
 20
224.3059461661
 30
0.0
 10
159.2549372167
 20
225.1818563718
 30
0.0
 10
158.5770042317
 20
225.6582098582
 30
0.0
 10
158.2336514327
 20
225.85644017
 30
0.0
  0
SPLINE
  5
2B8
100
AcDbEntity
  8
0
100
AcDbSpline
 62
7
  6
CONTINUOUS
 70
0
 71
3
 72
14
 73
10
 74
0
 42
0.0000001
 43
0.0000001
 44
0.0000000001
 40
0.0
 40
0.0
 40
0.0
 40
0.0
 40
0.2892759517
 40
0.4225335687
 40
0.5484875192
 40
0.6678843671
 40
0.781851924
 40
0.8919623387
 40
1.0
 40
1.0
 40
1.0
 40
1.0
 10
158.2336514327
 20
225.85644017
 30
0.0
 10
157.9263869722
 20
226.0338353447
 30
0.0
 10
157.4546611046
 20
226.2583464962
 30
0.0
 10
156.8077335273
 20
226.446986098
 30
0.0
 10
156.3485449647
 20
226.5239744675
 30
0.0
 10
155.9067190985
 20
226.5393854245
 30
0.0
 10
155.4863883443
 20
226.4925172894
 30
0.0
 10
155.0921238822
 20
226.3834431199
 30
0.0
 10
154.8484277843
 20
226.269355285
 30
0.0
 10
154.7336682103
 20
226.203108718
 30
0.0
  0
SPLINE
  5
2B9
100
AcDbEntity
  8
0
100
AcDbSpline
 62
7
  6
CONTINUOUS
 70
0
 71
3
 72
11
 73
7
 74
0
 42
0.0000001
 43
0.0000001
 44
0.0000000001
 40
0.0
 40
0.0
 40
0.0
 40
0.0
 40
0.2215396115
 40
0.4602224701
 40
0.7194809854
 40
1.0
 40
1.0
 40
1.0
 40
1.0
 10
129.3011850626
 20
201.1797151273
 30
0.0
 10
129.2427865414
 20
201.1699972983
 30
0.0
 10
129.1188183382
 20
201.164064174
 30
0.0
 10
128.9277785015
 20
201.1934097498
 30
0.0
 10
128.7296204074
 20
201.259384265
 30
0.0
 10
128.6002100582
 20
201.3241857059
 30
0.0
 10
128.5352902697
 20
201.3616663088
 30
0.0
  0
SPLINE
  5
2BA
100
AcDbEntity
  8
0
100
AcDbSpline
 62
7
  6
CONTINUOUS
 70
0
 71
3
 72
9
 73
5
 74
0
 42
0.0000001
 43
0.0000001
 44
0.0000000001
 40
0.0
 40
0.0
 40
0.0
 40
0.0
 40
0.4887721371
 40
1.0
 40
1.0
 40
1.0
 40
1.0
 10
135.0637800103
 20
203.1265829409
 30
0.0
 10
135.1459393259
 20
203.1740292922
 30
0.0
 10
135.3013085062
 20
203.294791459
 30
0.0
 10
135.419768748
 20
203.4512772162
 30
0.0
 10
135.4706585898
 20
203.5364689406
 30
0.0
  0
SPLINE
  5
2BB
100
AcDbEntity
  8
0
100
AcDbSpline
 62
7
  6
CONTINUOUS
 70
0
 71
3
 72
9
 73
5
 74
0
 42
0.0000001
 43
0.0000001
 44
0.0000000001
 40
0.0
 40
0.0
 40
0.0
 40
0.0
 40
0.5112214041
 40
1.0
 40
1.0
 40
1.0
 40
1.0
 10
132.4722199812
 20
208.7299439483
 30
0.0
 10
132.3729979976
 20
208.728465032
 30
0.0
 10
132.1782523756
 20
208.7041210335
 30
0.0
 10
131.9959642527
 20
208.6299825015
 30
0.0
 10
131.9138037173
 20
208.5825354458
 30
0.0
  0
SPLINE
  5
2BC
100
AcDbEntity
  8
0
100
AcDbSpline
 62
7
  6
CONTINUOUS
 70
0
 71
3
 72
9
 73
5
 74
0
 42
0.0000001
 43
0.0000001
 44
0.0000000001
 40
0.0
 40
0.0
 40
0.0
 40
0.0
 40
0.5009779574
 40
1.0
 40
1.0
 40
1.0
 40
1.0
 10
129.7797832974
 20
203.0518566454
 30
0.0
 10
130.3837581373
 20
203.2173142115
 30
0.0
 10
131.5864920979
 20
203.5579833079
 30
0.0
 10
132.7867603194
 20
203.9070993022
 30
0.0
 10
133.3853891616
 20
204.0824536558
 30
0.0
  0
SPLINE
  5
2BD
100
AcDbEntity
  8
0
100
AcDbSpline
 62
7
  6
CONTINUOUS
 70
0
 71
3
 72
11
 73
7
 74
0
 42
0.0000001
 43
0.0000001
 44
0.0000000001
 40
0.0
 40
0.0
 40
0.0
 40
0.0
 40
0.2502044633
 40
0.4376081106
 40
0.6248093683
 40
1.0
 40
1.0
 40
1.0
 40
1.0
 10
135.6255811933
 20
205.3465711834
 30
0.0
 10
135.4387495768
 20
205.2411347886
 30
0.0
 10
135.1113619658
 20
205.0578247734
 30
0.0
 10
134.6450455527
 20
204.7941052152
 30
0.0
 10
134.0864661476
 20
204.4758359954
 30
0.0
 10
133.6655617827
 20
204.2405383168
 30
0.0
 10
133.3853891616
 20
204.0824536558
 30
0.0
  0
SPLINE
  5
2BE
100
AcDbEntity
  8
0
100
AcDbSpline
 62
7
  6
CONTINUOUS
 70
0
 71
3
 72
11
 73
7
 74
0
 42
0.0000001
 43
0.0000001
 44
0.0000000001
 40
0.0
 40
0.0
 40
0.0
 40
0.0
 40
0.2281535787
 40
0.4782036747
 40
0.7395864797
 40
1.0
 40
1.0
 40
1.0
 40
1.0
 10
128.5352902697
 20
201.3616663088
 30
0.0
 10
128.4007392698
 20
201.4393475938
 30
0.0
 10
128.1381777206
 20
201.6365981263
 30
0.0
 10
127.7950903288
 20
202.0081818989
 30
0.0
 10
127.5025713141
 20
202.4472939931
 30
0.0
 10
127.3520574056
 20
202.7710700065
 30
0.0
 10
127.2907972419
 20
202.9374859262
 30
0.0
  0
SPLINE
  5
2BF
100
AcDbEntity
  8
0
100
AcDbSpline
 62
7
  6
CONTINUOUS
 70
0
 71
3
 72
9
 73
5
 74
0
 42
0.0000001
 43
0.0000001
 44
0.0000000001
 40
0.0
 40
0.0
 40
0.0
 40
0.0
 40
0.2489934985
 40
1.0
 40
1.0
 40
1.0
 40
1.0
 10
127.2907972419
 20
202.9374859262
 30
0.0
 10
127.3634043198
 20
203.0245955528
 30
0.0
 10
127.6564867339
 20
203.3732095296
 30
0.0
 10
127.9541649862
 20
203.7179325694
 30
0.0
 10
128.1789323222
 20
203.9757493205
 30
0.0
  0
SPLINE
  5
2C0
100
AcDbEntity
  8
0
100
AcDbSpline
 62
7
  6
CONTINUOUS
 70
0
 71
3
 72
9
 73
5
 74
0
 42
0.0000001
 43
0.0000001
 44
0.0000000001
 40
0.0
 40
0.0
 40
0.0
 40
0.0
 40
0.2514597733
 40
1.0
 40
1.0
 40
1.0
 40
1.0
 10
160.7078371221
 20
221.4886236862
 30
0.0
 10
160.6726854528
 20
221.381350169
 30
0.0
 10
160.534605117
 20
220.9541944326
 30
0.0
 10
160.4040911759
 20
220.5245465638
 30
0.0
 10
160.3127369927
 20
220.2011658884
 30
0.0
  0
SPLINE
  5
2C1
100
AcDbEntity
  8
0
100
AcDbSpline
 62
7
  6
CONTINUOUS
 70
0
 71
3
 72
9
 73
5
 74
0
 42
0.0000001
 43
0.0000001
 44
0.0000000001
 40
0.0
 40
0.0
 40
0.0
 40
0.0
 40
0.2534591796
 40
1.0
 40
1.0
 40
1.0
 40
1.0
 10
160.3127496373
 20
214.3181074297
 30
0.0
 10
160.3428198384
 20
214.2463858513
 30
0.0
 10
160.4652063528
 20
213.9649873511
 30
0.0
 10
160.6010206322
 20
213.6895344292
 30
0.0
 10
160.7078371221
 20
213.4868992988
 30
0.0
  0
SPLINE
  5
2C2
100
AcDbEntity
  8
0
100
AcDbSpline
 62
7
  6
CONTINUOUS
 70
0
 71
3
 72
11
 73
7
 74
0
 42
0.0000001
 43
0.0000001
 44
0.0000000001
 40
0.0
 40
0.0
 40
0.0
 40
0.0
 40
0.2287234759
 40
0.4747157013
 40
0.7335885705
 40
1.0
 40
1.0
 40
1.0
 40
1.0
 10
157.1729956768
 20
225.2440740462
 30
0.0
 10
157.4908791299
 20
225.060548133
 30
0.0
 10
158.1197134522
 20
224.6247308721
 30
0.0
 10
158.9912776985
 20
223.8291158848
 30
0.0
 10
159.8024221188
 20
222.8907511857
 30
0.0
 10
160.2817594215
 20
222.1950075763
 30
0.0
 10
160.5054694296
 20
221.8306664872
 30
0.0
  0
SPLINE
  5
2C3
100
AcDbEntity
  8
0
100
AcDbSpline
 62
7
  6
CONTINUOUS
 70
0
 71
3
 72
10
 73
6
 74
0
 42
0.0000001
 43
0.0000001
 44
0.0000000001
 40
0.0
 40
0.0
 40
0.0
 40
0.0
 40
0.2256786871
 40
0.5934719832
 40
1.0
 40
1.0
 40
1.0
 40
1.0
 10
133.742578847
 20
208.7489365752
 30
0.0
 10
133.8065789726
 20
208.7498980278
 30
0.0
 10
133.9752963274
 20
208.7373945915
 30
0.0
 10
134.2508627868
 20
208.6620458518
 30
0.0
 10
134.4495278851
 20
208.5657923163
 30
0.0
 10
134.5493812876
 20
208.5081432417
 30
0.0
  0
SPLINE
  5
2C4
100
AcDbEntity
  8
0
100
AcDbSpline
 62
7
  6
CONTINUOUS
 70
0
 71
3
 72
11
 73
7
 74
0
 42
0.0000001
 43
0.0000001
 44
0.0000000001
 40
0.0
 40
0.0
 40
0.0
 40
0.0
 40
0.2281535787
 40
0.4782036747
 40
0.7395864797
 40
1.0
 40
1.0
 40
1.0
 40
1.0
 10
128.5352902697
 20
204.6276762628
 30
0.0
 10
128.6698412696
 20
204.5499949778
 30
0.0
 10
128.9324028188
 20
204.3527444453
 30
0.0
 10
129.2754902105
 20
203.9811606727
 30
0.0
 10
129.5680092253
 20
203.5420485785
 30
0.0
 10
129.7185231337
 20
203.218272565
 30
0.0
 10
129.7797832974
 20
203.0518566454
 30
0.0
  0
SPLINE
  5
2C5
100
AcDbEntity
  8
0
100
AcDbSpline
 62
7
  6
CONTINUOUS
 70
0
 71
3
 72
12
 73
8
 74
0
 42
0.0000001
 43
0.0000001
 44
0.0000000001
 40
0.0
 40
0.0
 40
0.0
 40
0.0
 40
0.111585137
 40
0.2307260378
 40
0.4848730558
 40
0.7471192876
 40
1.0
 40
1.0
 40
1.0
 40
1.0
 10
131.2543437318
 20
207.1364907277
 30
0.0
 10
131.3772012754
 20
207.0655605089
 30
0.0
 10
131.6209983476
 20
206.9006903548
 30
0.0
 10
132.0880626546
 20
206.4967945182
 30
0.0
 10
132.6112552064
 20
205.8734042073
 30
0.0
 10
133.0969676523
 20
205.0193100167
 30
0.0
 10
133.3137453552
 20
204.3958671752
 30
0.0
 10
133.3853891616
 20
204.0824536558
 30
0.0
  0
SPLINE
  5
2C6
100
AcDbEntity
  8
0
100
AcDbSpline
 62
7
  6
CONTINUOUS
 70
0
 71
3
 72
11
 73
7
 74
0
 42
0.0000001
 43
0.0000001
 44
0.0000000001
 40
0.0
 40
0.0
 40
0.0
 40
0.0
 40
0.2294982809
 40
0.4822854772
 40
0.744381072
 40
1.0
 40
1.0
 40
1.0
 40
1.0
 10
134.5493812876
 20
208.5081432417
 30
0.0
 10
134.7402088066
 20
208.3979714339
 30
0.0
 10
135.1099071585
 20
208.1111724903
 30
0.0
 10
135.5796646112
 20
207.567804059
 30
0.0
 10
135.961214083
 20
206.9299409714
 30
0.0
 10
136.1405291786
 20
206.4627998332
 30
0.0
 10
136.2051382605
 20
206.2260302453
 30
0.0
  0
SPLINE
  5
2C7
100
AcDbEntity
  8
0
100
AcDbSpline
 62
7
  6
CONTINUOUS
 70
0
 71
3
 72
12
 73
8
 74
0
 42
0.0000001
 43
0.0000001
 44
0.0000000001
 40
0.0
 40
0.0
 40
0.0
 40
0.0
 40
0.2524745628
 40
0.5147518206
 40
0.7691203509
 40
0.8883612234
 40
1.0
 40
1.0
 40
1.0
 40
1.0
 10
135.6256697731
 20
205.3466210366
 30
0.0
 10
135.5556006245
 20
205.6621390619
 30
0.0
 10
135.340392103
 20
206.2905678302
 30
0.0
 10
134.8541216553
 20
207.152006277
 30
0.0
 10
134.3283009755
 20
207.7812303657
 30
0.0
 10
133.8581338335
 20
208.1888289026
 30
0.0
 10
133.6125598309
 20
208.3550861846
 30
0.0
 10
133.4887918574
 20
208.4265420284
 30
0.0
  0
SPLINE
  5
2C8
100
AcDbEntity
  8
0
100
AcDbSpline
 62
7
  6
CONTINUOUS
 70
0
 71
3
 72
9
 73
5
 74
0
 42
0.0000001
 43
0.0000001
 44
0.0000000001
 40
0.0
 40
0.0
 40
0.0
 40
0.0
 40
0.2766642069
 40
1.0
 40
1.0
 40
1.0
 40
1.0
 10
133.4887918574
 20
208.4265420284
 30
0.0
 10
133.4035333629
 20
208.4757649209
 30
0.0
 10
133.0877654325
 20
208.6380671406
 30
0.0
 10
132.729581313
 20
208.7337799519
 30
0.0
 10
132.4722199812
 20
208.7299439483
 30
0.0
  0
SPLINE
  5
2C9
100
AcDbEntity
  8
0
100
AcDbSpline
 62
7
  6
CONTINUOUS
 70
0
 71
3
 72
12
 73
8
 74
0
 42
0.0000001
 43
0.0000001
 44
0.0000000001
 40
0.0
 40
0.0
 40
0.0
 40
0.0
 40
0.1081645289
 40
0.2183665581
 40
0.4513726235
 40
0.7104149179
 40
1.0
 40
1.0
 40
1.0
 40
1.0
 10
129.6793559776
 20
207.2924834618
 30
0.0
 10
129.730998582
 20
207.3223058969
 30
0.0
 10
129.8406639543
 20
207.3736471231
 30
0.0
 10
130.081457025
 20
207.440311533
 30
0.0
 10
130.4187196014
 20
207.4492585931
 30
0.0
 10
130.8410874536
 20
207.3471524531
 30
0.0
 10
131.1160744089
 20
207.2163187386
 30
0.0
 10
131.2543437318
 20
207.1364907277
 30
0.0
  0
SPLINE
  5
2CA
100
AcDbEntity
  8
0
100
AcDbSpline
 62
7
  6
CONTINUOUS
 70
0
 71
3
 72
14
 73
10
 74
0
 42
0.0000001
 43
0.0000001
 44
0.0000000001
 40
0.0
 40
0.0
 40
0.0
 40
0.0
 40
0.1080376224
 40
0.2181479375
 40
0.3321153654
 40
0.451512131
 40
0.5774660968
 40
0.7107238288
 40
1.0
 40
1.0
 40
1.0
 40
1.0
 10
153.6730124687
 20
225.5907426148
 30
0.0
 10
153.7877720388
 20
225.6569892571
 30
0.0
 10
154.0314677359
 20
225.7710777965
 30
0.0
 10
154.4257316529
 20
225.8801536819
 30
0.0
 10
154.8460621797
 20
225.9270231372
 30
0.0
 10
155.2878881398
 20
225.9116125657
 30
0.0
 10
155.7470769831
 20
225.8346235825
 30
0.0
 10
156.3940049271
 20
225.6459820954
 30
0.0
 10
156.8657307933
 20
225.4214694652
 30
0.0
 10
157.1729956768
 20
225.2440740462
 30
0.0
  0
SPLINE
  5
2CB
100
AcDbEntity
  8
0
100
AcDbSpline
 62
7
  6
CONTINUOUS
 70
0
 71
3
 72
11
 73
7
 74
0
 42
0.0000001
 43
0.0000001
 44
0.0000000001
 40
0.0
 40
0.0
 40
0.0
 40
0.0
 40
0.2501987889
 40
0.4376034188
 40
0.6248154169
 40
1.0
 40
1.0
 40
1.0
 40
1.0
 10
133.3853891616
 20
202.5858989149
 30
0.0
 10
133.5722336834
 20
202.6950798191
 30
0.0
 10
133.8996514824
 20
202.8849726644
 30
0.0
 10
134.3659785593
 20
203.1580999483
 30
0.0
 10
134.9245437493
 20
203.4876404684
 30
0.0
 10
135.3455205839
 20
203.7313686385
 30
0.0
 10
135.625690245
 20
203.895111447
 30
0.0
  0
SPLINE
  5
2CC
100
AcDbEntity
  8
0
100
AcDbSpline
 62
7
  6
CONTINUOUS
 70
0
 71
3
 72
10
 73
6
 74
0
 42
0.0000001
 43
0.0000001
 44
0.0000000001
 40
0.0
 40
0.0
 40
0.0
 40
0.0
 40
0.5237279784
 40
0.7652603266
 40
1.0
 40
1.0
 40
1.0
 40
1.0
 10
133.3853891616
 20
202.5858989149
 30
0.0
 10
133.3360746983
 20
202.4271096423
 30
0.0
 10
133.2303544746
 20
202.2013354986
 30
0.0
 10
133.0170694052
 20
201.9638130754
 30
0.0
 10
132.8938676584
 20
201.8738004948
 30
0.0
 10
132.829331486
 20
201.836532316
 30
0.0
  0
SPLINE
  5
2CD
100
AcDbEntity
  8
0
100
AcDbSpline
 62
7
  6
CONTINUOUS
 70
0
 71
3
 72
11
 73
7
 74
0
 42
0.0000001
 43
0.0000001
 44
0.0000000001
 40
0.0
 40
0.0
 40
0.0
 40
0.0
 40
0.2569786123
 40
0.504572558
 40
0.7496516561
 40
1.0
 40
1.0
 40
1.0
 40
1.0
 10
129.7797832974
 20
201.5005019172
 30
0.0
 10
129.7523918574
 20
201.4577200593
 30
0.0
 10
129.690682042
 20
201.3783910778
 30
0.0
 10
129.5766273833
 20
201.2820255907
 30
0.0
 10
129.4453748113
 20
201.2135452239
 30
0.0
 10
129.3500025073
 20
201.1878386136
 30
0.0
 10
129.3011850626
 20
201.1797151273
 30
0.0
  0
SPLINE
  5
2CE
100
AcDbEntity
  8
0
100
AcDbSpline
 62
7
  6
CONTINUOUS
 70
0
 71
3
 72
13
 73
9
 74
0
 42
0.0000001
 43
0.0000001
 44
0.0000000001
 40
0.0
 40
0.0
 40
0.0
 40
0.0
 40
0.1134339598
 40
0.2244318929
 40
0.3363988779
 40
0.4526411574
 40
0.7068848009
 40
1.0
 40
1.0
 40
1.0
 40
1.0
 10
127.3464474821
 20
204.5654405927
 30
0.0
 10
127.3776583589
 20
204.6033442275
 30
0.0
 10
127.4469655448
 20
204.6725819231
 30
0.0
 10
127.5705864259
 20
204.7516257456
 30
0.0
 10
127.709553931
 20
204.8024417744
 30
0.0
 10
127.9175708834
 20
204.8324015574
 30
0.0
 10
128.2074990199
 20
204.7901246542
 30
0.0
 10
128.4254126261
 20
204.6911127037
 30
0.0
 10
128.5352902697
 20
204.6276762628
 30
0.0
  0
SPLINE
  5
2CF
100
AcDbEntity
  8
0
100
AcDbSpline
 62
7
  6
CONTINUOUS
 70
0
 71
3
 72
9
 73
5
 74
0
 42
0.0000001
 43
0.0000001
 44
0.0000000001
 40
0.0
 40
0.0
 40
0.0
 40
0.0
 40
0.4990589608
 40
1.0
 40
1.0
 40
1.0
 40
1.0
 10
133.3853891616
 20
202.5858989149
 30
0.0
 10
132.7867866897
 20
202.4013796152
 30
0.0
 10
131.5866189071
 20
202.0339456444
 30
0.0
 10
130.3838328143
 20
201.6750342196
 30
0.0
 10
129.7797832974
 20
201.5005019172
 30
0.0
  0
SPLINE
  5
2D0
100
AcDbEntity
  8
0
100
AcDbSpline
 62
7
  6
CONTINUOUS
 70
0
 71
3
 72
8
 73
4
 74
0
 42
0.0000001
 43
0.0000001
 44
0.0000000001
 40
0.0
 40
0.0
 40
0.0
 40
0.0
 40
1.0
 40
1.0
 40
1.0
 40
1.0
 10
135.9493738285
 20
204.245897628
 30
0.0
 10
136.0148381962
 20
204.2836899125
 30
0.0
 10
136.0757950434
 20
204.3304279879
 30
0.0
 10
136.1296356176
 20
204.3834848704
 30
0.0
  0
SPLINE
  5
2D1
100
AcDbEntity
  8
0
100
AcDbSpline
 62
7
  6
CONTINUOUS
 70
0
 71
3
 72
9
 73
5
 74
0
 42
0.0000001
 43
0.0000001
 44
0.0000000001
 40
0.0
 40
0.0
 40
0.0
 40
0.0
 40
0.2249810611
 40
1.0
 40
1.0
 40
1.0
 40
1.0
 10
136.2554212482
 20
204.5357018659
 30
0.0
 10
136.2951801826
 20
204.5946392439
 30
0.0
 10
136.4458253556
 20
204.8744456866
 30
0.0
 10
136.4920642474
 20
205.2002908878
 30
0.0
 10
136.4920642474
 20
205.44519756
 30
0.0
  0
SPLINE
  5
2D2
100
AcDbEntity
  8
0
100
AcDbSpline
 62
7
  6
CONTINUOUS
 70
0
 71
3
 72
8
 73
4
 74
0
 42
0.0000001
 43
0.0000001
 44
0.0000000001
 40
0.0
 40
0.0
 40
0.0
 40
0.0
 40
1.0
 40
1.0
 40
1.0
 40
1.0
 10
58.1708396109
 20
249.1585044457
 30
0.0
 10
58.2363039787
 20
249.1962967301
 30
0.0
 10
58.2972608258
 20
249.2430348056
 30
0.0
 10
58.3511014001
 20
249.296091688
 30
0.0
  0
SPLINE
  5
2D3
100
AcDbEntity
  8
0
100
AcDbSpline
 62
7
  6
CONTINUOUS
 70
0
 71
3
 72
9
 73
5
 74
0
 42
0.0000001
 43
0.0000001
 44
0.0000000001
 40
0.0
 40
0.0
 40
0.0
 40
0.0
 40
0.2248329934
 40
1.0
 40
1.0
 40
1.0
 40
1.0
 10
58.4733234623
 20
249.4430597081
 30
0.0
 10
58.5136664091
 20
249.5021059091
 30
0.0
 10
58.6666665058
 20
249.7830533019
 30
0.0
 10
58.7135300299
 20
250.1112481907
 30
0.0
 10
58.7135300299
 20
250.3578043776
 30
0.0
  0
SPLINE
  5
2D4
100
AcDbEntity
  8
0
100
AcDbSpline
 62
7
  6
CONTINUOUS
 70
0
 71
3
 72
9
 73
5
 74
0
 42
0.0000001
 43
0.0000001
 44
0.0000000001
 40
0.0
 40
0.0
 40
0.0
 40
0.0
 40
0.2362758688
 40
1.0
 40
1.0
 40
1.0
 40
1.0
 10
136.4920642474
 20
205.44519756
 30
0.0
 10
136.4920642474
 20
205.5080658748
 30
0.0
 10
136.4817259155
 20
205.7741179021
 30
0.0
 10
136.4341335029
 20
206.0381032853
 30
0.0
 10
136.3821526817
 20
206.234554393
 30
0.0
  0
SPLINE
  5
2D5
100
AcDbEntity
  8
0
100
AcDbSpline
 62
7
  6
CONTINUOUS
 70
0
 71
3
 72
12
 73
8
 74
0
 42
0.0000001
 43
0.0000001
 44
0.0000000001
 40
0.0
 40
0.0
 40
0.0
 40
0.0
 40
0.2790245287
 40
0.5581362428
 40
0.6872837985
 40
0.8048824435
 40
1.0
 40
1.0
 40
1.0
 40
1.0
 10
136.3821526817
 20
206.234554393
 30
0.0
 10
136.2865944499
 20
206.5956975999
 30
0.0
 10
135.9894238112
 20
207.2917425825
 30
0.0
 10
135.432344877
 20
208.0367355441
 30
0.0
 10
134.8977345784
 20
208.5005783083
 30
0.0
 10
134.3949210502
 20
208.8105150348
 30
0.0
 10
133.9655584682
 20
208.9265028214
 30
0.0
 10
133.7055295965
 20
208.9014504334
 30
0.0
  0
SPLINE
  5
2D6
100
AcDbEntity
  8
0
100
AcDbSpline
 62
7
  6
CONTINUOUS
 70
0
 71
3
 72
9
 73
5
 74
0
 42
0.0000001
 43
0.0000001
 44
0.0000000001
 40
0.0
 40
0.0
 40
0.0
 40
0.0
 40
0.254168078
 40
1.0
 40
1.0
 40
1.0
 40
1.0
 10
133.5990796334
 20
208.8854825028
 30
0.0
 10
133.5751108331
 20
208.8805415514
 30
0.0
 10
133.4815834551
 20
208.8575353017
 30
0.0
 10
133.3916930628
 20
208.8195829898
 30
0.0
 10
133.3294997066
 20
208.7836790456
 30
0.0
  0
SPLINE
  5
2D7
100
AcDbEntity
  8
0
100
AcDbSpline
 62
7
  6
CONTINUOUS
 70
0
 71
3
 72
9
 73
5
 74
0
 42
0.0000001
 43
0.0000001
 44
0.0000000001
 40
0.0
 40
0.0
 40
0.0
 40
0.0
 40
0.2363383932
 40
1.0
 40
1.0
 40
1.0
 40
1.0
 10
58.7135300299
 20
250.3578043776
 30
0.0
 10
58.7135300299
 20
250.4202629954
 30
0.0
 10
58.7033282487
 20
250.6845115575
 30
0.0
 10
58.6563421063
 20
250.9467342238
 30
0.0
 10
58.6050031048
 20
251.1419127382
 30
0.0
  0
SPLINE
  5
2D8
100
AcDbEntity
  8
0
100
AcDbSpline
 62
7
  6
CONTINUOUS
 70
0
 71
3
 72
12
 73
8
 74
0
 42
0.0000001
 43
0.0000001
 44
0.0000000001
 40
0.0
 40
0.0
 40
0.0
 40
0.0
 40
0.2796376774
 40
0.5587101501
 40
0.6876963631
 40
0.805109901
 40
1.0
 40
1.0
 40
1.0
 40
1.0
 10
58.5973406567
 20
251.1705789283
 30
0.0
 10
58.4997064128
 20
251.5301174667
 30
0.0
 10
58.2003455705
 20
252.2218705625
 30
0.0
 10
57.6426478236
 20
252.9613899436
 30
0.0
 10
57.1091616916
 20
253.4204372753
 30
0.0
 10
56.6081525999
 20
253.7263666223
 30
0.0
 10
56.1809304173
 20
253.8396163571
 30
0.0
 10
55.9225841173
 20
253.8136228386
 30
0.0
  0
SPLINE
  5
2D9
100
AcDbEntity
  8
0
100
AcDbSpline
 62
7
  6
CONTINUOUS
 70
0
 71
3
 72
9
 73
5
 74
0
 42
0.0000001
 43
0.0000001
 44
0.0000000001
 40
0.0
 40
0.0
 40
0.0
 40
0.0
 40
0.2544248398
 40
1.0
 40
1.0
 40
1.0
 40
1.0
 10
55.8295937657
 20
253.7999094871
 30
0.0
 10
55.8047908387
 20
253.7950431457
 30
0.0
 10
55.7080898732
 20
253.7721384521
 30
0.0
 10
55.6151127179
 20
253.7333177693
 30
0.0
 10
55.550965489
 20
253.6962858632
 30
0.0
  0
ELLIPSE
  5
2DA
100
AcDbEntity
  8
0
100
AcDbEllipse
 62
7
  6
CONTINUOUS
 10
127.7279936981
 20
292.3422841448
 30
0.0
 11
202.5710379957
 21
114.9034251296
 31
0.0
 40
0.0075569352
 41
-1.9242586097
 42
-1.9237870919
  0
ELLIPSE
  5
2DB
100
AcDbEntity
  8
0
100
AcDbEllipse
 62
7
  6
CONTINUOUS
 10
205.5100607669
 20
247.4358027049
 30
0.0
 11
202.5710379957
 21
114.9034251296
 31
0.0
 40
0.0075569352
 41
-1.9242586097
 42
-1.9238102948
  0
ENDSEC
  0
SECTION
  2
OBJECTS
  0
DICTIONARY
  5
C
100
AcDbDictionary
280
0
281
1
  3
ACAD_GROUP
350
D
  3
ACAD_MLINESTYLE
350
17
  3
ACAD_LAYOUT
350
1A
  3
ACAD_PLOTSETTINGS
350
19
  3
ACAD_PLOTSTYLENAME
350
E
  0
DICTIONARY
  5
D
102
{ACAD_REACTORS
330
C
102
}
100
AcDbDictionary
280
0
281
1
  0
ACDBDICTIONARYWDFLT
  5
E
102
{ACAD_REACTORS
330
C
102
}
100
AcDbDictionary
281
1
  3
Normal
350
F
100
AcDbDictionaryWithDefault
340
F
  0
DICTIONARY
  5
17
102
{ACAD_REACTORS
330
C
102
}
100
AcDbDictionary
280
0
281
1
  3
Standard
350
18
  0
DICTIONARY
  5
19
102
{ACAD_REACTORS
330
C
102
}
100
AcDbDictionary
281
1
  0
DICTIONARY
  5
1A
102
{ACAD_REACTORS
330
C
102
}
100
AcDbDictionary
281
1
  3
Model
350
2DC
  3
Layout1
350
2DD
  0
ACDBPLACEHOLDER
  5
F
102
{ACAD_REACTORS
330
E
102
}
  0
MLINESTYLE
  5
18
102
{ACAD_REACTORS
330
17
102
}
100
AcDbMlineStyle
  2
STANDARD
 70
0
  3

 62
256
 51
90.0
 52
90.0
 71
2
 49
0.5
 62
256
  6
BYLAYER
 49
-0.5
 62
256
  6
BYLAYER
  0
LAYOUT
  5
2DC
102
{ACAD_REACTORS
330
1A
102
}
100
AcDbPlotSettings
  1

  2
none_device
  4

  6

 40
0.0
 41
0.0
 42
0.0
 43
0.0
 44
210.0
 45
297.0
 46
0.0
 47
0.0
 48
0.0
 49
0.0
140
0.0
141
0.0
142
1.0
143
1.0
 70
1024
 72
1
 73
0
 74
0
  7

 75
0
147
1.0
148
0.0
149
0.0
100
AcDbLayout
  1
Model
 70
0
 71
0
 10
0.0
 20
0.0
 11
210.0
 21
297.0
 12
0.0
 22
0.0
 32
0.0
 14
0.0
 24
0.0
 34
0.0
 15
0.0
 25
0.0
 35
0.0
146
0.0
 13
0.0
 23
0.0
 33
0.0
 16
1.0
 26
0.0
 36
0.0
 17
0.0
 27
1.0
 37
0.0
 76
0
330
210
345
0
346
0
  0
LAYOUT
  5
2DD
102
{ACAD_REACTORS
330
1A
102
}
100
AcDbPlotSettings
  1

  2
none_device
  4

  6

 40
0.0
 41
0.0
 42
0.0
 43
0.0
 44
210.0
 45
297.0
 46
0.0
 47
0.0
 48
0.0
 49
0.0
140
0.0
141
0.0
142
1.0
143
1.0
 70
0
 72
1
 73
0
 74
0
  7

 75
0
147
1.0
148
0.0
149
0.0
100
AcDbLayout
  1
Layout1
 70
0
 71
1
 10
0.0
 20
0.0
 11
210.0
 21
297.0
 12
0.0
 22
0.0
 32
0.0
 14
0.0
 24
0.0
 34
0.0
 15
0.0
 25
0.0
 35
0.0
146
0.0
 13
0.0
 23
0.0
 33
0.0
 16
1.0
 26
0.0
 36
0.0
 17
0.0
 27
1.0
 37
0.0
 76
0
330
211
345
0
346
0
  0
ENDSEC
  0
EOF
