999
DXF file: C:\Users\sesa63760\Dev\_Creo\CAD\MCADID0000845_3D-CAD\drw0001_6.dxf
999
Pro/ENGINEER 2019471 by Parametric Technology Corporation
  0
SECTION
  2
HEADER
  9
$ACADVER
  1
AC1024
  9
$DWGCODEPAGE
  3
ANSI_1252
  9
$EXTMAX
 10
378.0873902438
 20
534.7235947734
 30
0.0
  9
$EXTMIN
 10
0.0
 20
0.0
 30
0.0
  9
$LIMMIN
 10
0.0
 20
0.0
  9
$LIMMAX
 10
378.0873902438
 20
534.7235947734
  9
$VIEWCTR
 10
189.0436951219
 20
267.3617973867
  9
$VIEWSIZE
 40
534.7235947734
  9
$CLAYER
  8
0
  9
$LTSCALE
 40
34.8560565482
  9
$CELTYPE
  6
BYLAYER
  9
$DIMSCALE
 40
1.0
  9
$DIMASZ
 40
4.50104036
  9
$DIMEXO
 40
1.0
  9
$DIMDLI
 40
24.0823663424
  9
$DIMEXE
 40
1.0
  9
$DIMCEN
 40
5.7037183442
  9
$DIMLFAC
 40
1.0
  9
$DIMBLK
  1
_FILLED
  9
$DIMALT
 70
0
  9
$DIMALTF
 40
0.0393700787
  9
$DIMTXT
 40
6.3014565041
  9
$DIMTOL
 70
1
  9
$DIMLIM
 70
0
  9
$DIMTFAC
 40
1.0
  9
$DIMTP
 40
0.01
  9
$DIMTM
 40
0.01
  9
$DIMGAP
 40
0.625
  9
$DIMDSEP
 70
46
  9
$AUNITS
 70
0
  9
$PDMODE
 70
3
  9
$PDSIZE
 40
0.3125
  9
$HANDSEED
  5
2CF
  9
$TILEMODE
 70
1
  9
$MEASUREMENT
 70
1
  9
$INSUNITS
 70
4
  0
ENDSEC
  0
SECTION
  2
CLASSES
  0
CLASS
  1
ACDBDICTIONARYWDFLT
  2
AcDbDictionaryWithDefault
  3
AutoCAD 2000
 90
0
 91
1
280
0
281
0
  0
CLASS
  1
ACDBPLACEHOLDER
  2
AcDbPlaceHolder
  3
AutoCAD 2000
 90
0
 91
1
280
0
281
0
  0
CLASS
  1
LAYOUT
  2
AcDbLayout
  3
AutoCAD 2000
 90
0
 91
0
280
0
281
0
  0
ENDSEC
  0
SECTION
  2
TABLES
  0
TABLE
  2
VPORT
  5
8
100
AcDbSymbolTable
 70
2
  0
VPORT
  5
1F4
100
AcDbSymbolTableRecord
100
AcDbViewportTableRecord
  2
*ACTIVE
 70
0
 10
0.0
 20
0.0
 11
1.0
 21
1.0
 12
189.0436951219
 22
267.3617973867
 13
0.0
 23
0.0
 14
1.0
 24
1.0
 15
0.0
 25
0.0
 16
0.0
 26
0.0
 36
1.0
 17
0.0
 27
0.0
 37
0.0
 40
534.7235947734
 41
0.7070707071
 42
50.0
 43
0.0
 44
0.0
 50
0.0
 51
0.0
 71
0
 72
100
 73
1
 74
1
 75
0
 76
0
 77
0
 78
0
  0
ENDTAB
  0
TABLE
  2
LTYPE
  5
5
100
AcDbSymbolTable
 70
6
  0
LTYPE
  5
14
100
AcDbSymbolTableRecord
100
AcDbLinetypeTableRecord
  2
BYBLOCK
 70
0
  3

 72
65
 73
0
 40
0.0
  0
LTYPE
  5
15
100
AcDbSymbolTableRecord
100
AcDbLinetypeTableRecord
  2
BYLAYER
 70
0
  3

 72
65
 73
0
 40
0.0
  0
LTYPE
  5
16
100
AcDbSymbolTableRecord
100
AcDbLinetypeTableRecord
  2
CONTINUOUS
 70
64
  3
Solid line
 72
65
 73
0
 40
0.0
  0
LTYPE
  5
1F5
100
AcDbSymbolTableRecord
100
AcDbLinetypeTableRecord
  2
CENTER
 70
64
  3
____ _ ____ _ ____ _ ____ _ ____ _ ____ _ ____
 72
65
 73
4
 40
0.6
 49
0.375
 74
0
 49
-0.075
 74
0
 49
0.075
 74
0
 49
-0.075
 74
0
  0
LTYPE
  5
1F6
100
AcDbSymbolTableRecord
100
AcDbLinetypeTableRecord
  2
HIDDEN
 70
64
  3
- - - - - - - - - - - - - - - - - - - -
 72
65
 73
2
 40
0.2
 49
0.1
 74
0
 49
-0.1
 74
0
  0
LTYPE
  5
1F7
100
AcDbSymbolTableRecord
100
AcDbLinetypeTableRecord
  2
PHANTOM
 70
64
  3
_____ _ _ _____ _ _ _____ _ _ _____
 72
65
 73
6
 40
0.8
 49
0.45
 74
0
 49
-0.05
 74
0
 49
0.1
 74
0
 49
-0.05
 74
0
 49
0.1
 74
0
 49
-0.05
 74
0
  0
LTYPE
  5
1F8
100
AcDbSymbolTableRecord
100
AcDbLinetypeTableRecord
  2
DOT
 70
64
  3
. . . . . . . . . . . . . . . . . . . .
 72
65
 73
2
 40
0.2
 49
0.1
 74
0
 49
-0.1
 74
0
  0
LTYPE
  5
1F9
100
AcDbSymbolTableRecord
100
AcDbLinetypeTableRecord
  2
DASHED
 70
64
  3
- - - - - - - - - - - - - - - - - - - -
 72
65
 73
2
 40
0.2
 49
0.1
 74
0
 49
-0.1
 74
0
  0
ENDTAB
  0
TABLE
  2
LAYER
  5
2
100
AcDbSymbolTable
 70
36
  0
LAYER
  5
10
100
AcDbSymbolTableRecord
100
AcDbLayerTableRecord
  2
0
 70
0
 62
7
  6
CONTINUOUS
370
-3
390
F
  0
LAYER
  5
1FA
100
AcDbSymbolTableRecord
100
AcDbLayerTableRecord
  2
DEFAULT_1
 70
0
 62
7
  6
CENTER
370
-3
390
F
  0
LAYER
  5
1FB
100
AcDbSymbolTableRecord
100
AcDbLayerTableRecord
  2
DEFAULT_2
 70
0
 62
8
  6
HIDDEN
370
-3
390
F
  0
LAYER
  5
1FC
100
AcDbSymbolTableRecord
100
AcDbLayerTableRecord
  2
DEFAULT_3
 70
0
 62
7
  6
PHANTOM
370
-3
390
F
  0
LAYER
  5
1FD
100
AcDbSymbolTableRecord
100
AcDbLayerTableRecord
  2
00_COMPONENTS
 70
0
 62
7
  6
CONTINUOUS
370
-3
390
F
  0
LAYER
  5
1FE
100
AcDbSymbolTableRecord
100
AcDbLayerTableRecord
  2
01_1_DEFAULT_DATUMS
 70
0
 62
7
  6
CONTINUOUS
370
-3
390
F
  0
LAYER
  5
1FF
100
AcDbSymbolTableRecord
100
AcDbLayerTableRecord
  2
01_PLANES
 70
0
 62
7
  6
CONTINUOUS
370
-3
390
F
  0
LAYER
  5
200
100
AcDbSymbolTableRecord
100
AcDbLayerTableRecord
  2
02_COORD_SYS
 70
0
 62
7
  6
CONTINUOUS
370
-3
390
F
  0
LAYER
  5
201
100
AcDbSymbolTableRecord
100
AcDbLayerTableRecord
  2
03_AXES
 70
0
 62
7
  6
CONTINUOUS
370
-3
390
F
  0
LAYER
  5
202
100
AcDbSymbolTableRecord
100
AcDbLayerTableRecord
  2
04_POINTS
 70
0
 62
7
  6
CONTINUOUS
370
-3
390
F
  0
LAYER
  5
203
100
AcDbSymbolTableRecord
100
AcDbLayerTableRecord
  2
05_CURVES
 70
0
 62
7
  6
CONTINUOUS
370
-3
390
F
  0
LAYER
  5
204
100
AcDbSymbolTableRecord
100
AcDbLayerTableRecord
  2
06_SURFS
 70
0
 62
7
  6
CONTINUOUS
370
-3
390
F
  0
LAYER
  5
205
100
AcDbSymbolTableRecord
100
AcDbLayerTableRecord
  2
07_COSMETICS
 70
0
 62
7
  6
CONTINUOUS
370
-3
390
F
  0
LAYER
  5
206
100
AcDbSymbolTableRecord
100
AcDbLayerTableRecord
  2
10_NOTES
 70
0
 62
7
  6
CONTINUOUS
370
-3
390
F
  0
LAYER
  5
207
100
AcDbSymbolTableRecord
100
AcDbLayerTableRecord
  2
11_NOTES_PUB
 70
0
 62
7
  6
CONTINUOUS
370
-3
390
F
  0
LAYER
  5
208
100
AcDbSymbolTableRecord
100
AcDbLayerTableRecord
  2
13_REF_GTOL
 70
0
 62
7
  6
CONTINUOUS
370
-3
390
F
  0
LAYER
  5
209
100
AcDbSymbolTableRecord
100
AcDbLayerTableRecord
  2
16_MISC
 70
0
 62
7
  6
CONTINUOUS
370
-3
390
F
  0
LAYER
  5
20A
100
AcDbSymbolTableRecord
100
AcDbLayerTableRecord
  2
17_NO_PRINT
 70
0
 62
7
  6
CONTINUOUS
370
-3
390
F
  0
LAYER
  5
20B
100
AcDbSymbolTableRecord
100
AcDbLayerTableRecord
  2
18_DATUM_CAMS_JOINTS
 70
0
 62
7
  6
CONTINUOUS
370
-3
390
F
  0
LAYER
  5
20C
100
AcDbSymbolTableRecord
100
AcDbLayerTableRecord
  2
19_DATUM_FUNCTIONAL
 70
0
 62
7
  6
CONTINUOUS
370
-3
390
F
  0
LAYER
  5
20D
100
AcDbSymbolTableRecord
100
AcDbLayerTableRecord
  2
20_DATUM_KINEMATIC_SCHEME
 70
0
 62
7
  6
CONTINUOUS
370
-3
390
F
  0
ENDTAB
  0
TABLE
  2
STYLE
  5
3
100
AcDbSymbolTable
 70
1
  0
STYLE
  5
11
100
AcDbSymbolTableRecord
100
AcDbTextStyleTableRecord
  2
STANDARD
 70
0
 40
0.0
 41
0.8
 50
0.0
 71
0
 42
0.2
  3
txt
  4

  0
STYLE
  5
20E
100
AcDbSymbolTableRecord
100
AcDbTextStyleTableRecord
  2
TEXTSTYLE_1
 70
0
 40
0.0
 41
0.8
 50
0.0
 71
0
 42
0.2
  3
gdt
  4

  0
ENDTAB
  0
TABLE
  2
VIEW
  5
6
100
AcDbSymbolTable
 70
0
  0
ENDTAB
  0
TABLE
  2
UCS
  5
7
100
AcDbSymbolTable
 70
0
  0
ENDTAB
  0
TABLE
  2
APPID
  5
9
100
AcDbSymbolTable
 70
1
  0
APPID
  5
20F
100
AcDbSymbolTableRecord
100
AcDbRegAppTableRecord
  2
ACAD
 70
0
  0
ENDTAB
  0
TABLE
  2
BLOCK_RECORD
  5
1
100
AcDbSymbolTable
 70
0
  0
BLOCK_RECORD
  5
210
100
AcDbSymbolTableRecord
100
AcDbBlockTableRecord
  2
*Model_Space
  0
BLOCK_RECORD
  5
211
100
AcDbSymbolTableRecord
100
AcDbBlockTableRecord
  2
*Paper_Space
  0
BLOCK_RECORD
  5
212
100
AcDbSymbolTableRecord
100
AcDbBlockTableRecord
  2
_FILLED
  0
ENDTAB
  0
TABLE
  2
DIMSTYLE
  5
A
100
AcDbSymbolTable
 70
1
100
AcDbDimStyleTable
 71
0
  0
DIMSTYLE
105
213
100
AcDbSymbolTableRecord
100
AcDbDimStyleTableRecord
  2
STANDARD
 70
0
  3

  4

 40
1.0
 41
4.50104036
 42
1.0
 43
0.38
 44
1.0
 45
0.0
 46
0.0
 47
0.01
 48
0.01
140
6.3014565041
141
0.09
142
0.0
143
25.4
144
1.0
145
0.0
146
1.0
147
0.625
 71
1
 72
0
 73
0
 74
0
 75
0
 76
0
 77
1
 78
8
 79
2
170
0
171
1
172
0
173
0
174
0
175
0
176
0
177
0
178
0
270
2
179
2
271
2
272
2
273
2
274
2
275
0
280
0
281
0
282
0
283
1
284
8
285
0
286
0
287
3
288
0
340
11
278
46
341
212
342
212
343
212
344
212
  0
ENDTAB
  0
ENDSEC
  0
SECTION
  2
BLOCKS
  0
BLOCK
  5
20
100
AcDbEntity
  8
0
100
AcDbBlockBegin
  2
*Model_Space
 70
0
 10
0.0
 20
0.0
 30
0.0
  3
*Model_Space
  1

  0
ENDBLK
  5
21
100
AcDbEntity
  8
0
100
AcDbBlockEnd
  0
BLOCK
  5
1C
100
AcDbEntity
  8
0
100
AcDbBlockBegin
  2
*Paper_Space
 70
0
 10
0.0
 20
0.0
 30
0.0
  3
*Paper_Space
  1

  0
ENDBLK
  5
1D
100
AcDbEntity
  8
0
100
AcDbBlockEnd
  0
BLOCK
  5
214
100
AcDbEntity
  8
0
100
AcDbBlockBegin
  2
_FILLED
 70
64
 10
0.0
 20
0.0
  3
_FILLED
  1

  0
SOLID
  5
215
100
AcDbEntity
  8
0
  6
BYBLOCK
 62
0
100
AcDbTrace
 10
0.0
 20
0.0
 11
-1.0
 21
0.25
 12
-1.0
 22
-0.25
 13
-1.0
 23
-0.25
  0
ENDBLK
  5
216
100
AcDbEntity
  8
0
  6
BYBLOCK
 62
0
100
AcDbBlockEnd
  0
ENDSEC
  0
SECTION
  2
ENTITIES
  0
LINE
  5
217
100
AcDbEntity
  8
0
100
AcDbLine
 62
7
  6
CONTINUOUS
 10
341.8686148032
 20
54.8617973867
 11
319.8686148032
 21
54.8617973867
  0
LINE
  5
218
100
AcDbEntity
  8
0
100
AcDbLine
 62
7
  6
CONTINUOUS
 10
182.0686148032
 20
54.8617973868
 11
187.0686148032
 21
54.8617973868
  0
LINE
  5
219
100
AcDbEntity
  8
0
100
AcDbLine
 62
7
  6
CONTINUOUS
 10
187.0686148032
 20
56.8617973867
 11
182.0686148032
 21
56.8617973867
  0
LINE
  5
21A
100
AcDbEntity
  8
0
100
AcDbLine
 62
7
  6
CONTINUOUS
 10
181.468614806
 20
86.3617973868
 11
187.6686148003
 21
86.3617973868
  0
LINE
  5
21B
100
AcDbEntity
  8
0
100
AcDbLine
 62
7
  6
CONTINUOUS
 10
282.4898660654
 20
94.7617973867
 11
278.4900185483
 21
94.7617973867
  0
LINE
  5
21C
100
AcDbEntity
  8
0
100
AcDbLine
 62
7
  6
CONTINUOUS
 10
229.2065660654
 20
94.7617973867
 11
225.2067185483
 21
94.7617973867
  0
LINE
  5
21D
100
AcDbEntity
  8
0
100
AcDbLine
 62
7
  6
CONTINUOUS
 10
196.6591660654
 20
94.7617973867
 11
192.6593185483
 21
94.7617973867
  0
LINE
  5
21E
100
AcDbEntity
  8
0
100
AcDbLine
 62
7
  6
CONTINUOUS
 10
102.3285660654
 20
94.7617973867
 11
98.3287185483
 21
94.7617973867
  0
LINE
  5
21F
100
AcDbEntity
  8
0
100
AcDbLine
 62
7
  6
CONTINUOUS
 10
90.2286148032
 20
94.8617973868
 11
84.5286148032
 21
94.8617973869
  0
LINE
  5
220
100
AcDbEntity
  8
0
100
AcDbLine
 62
7
  6
CONTINUOUS
 10
284.4898172289
 20
96.7623769457
 11
276.4900123775
 21
96.7623769457
  0
LINE
  5
221
100
AcDbEntity
  8
0
100
AcDbLine
 62
7
  6
CONTINUOUS
 10
231.2065172289
 20
96.7623769457
 11
223.2067123775
 21
96.7623769457
  0
LINE
  5
222
100
AcDbEntity
  8
0
100
AcDbLine
 62
7
  6
CONTINUOUS
 10
198.6591172289
 20
96.7623769457
 11
190.6593123775
 21
96.7623769457
  0
LINE
  5
223
100
AcDbEntity
  8
0
100
AcDbLine
 62
7
  6
CONTINUOUS
 10
104.3285172289
 20
96.7623769457
 11
96.3287123775
 21
96.7623769457
  0
LINE
  5
224
100
AcDbEntity
  8
0
100
AcDbLine
 62
7
  6
CONTINUOUS
 10
300.3055036921
 20
97.8617973867
 11
214.7966560403
 21
97.8617973867
  0
LINE
  5
225
100
AcDbEntity
  8
0
100
AcDbLine
 62
7
  6
CONTINUOUS
 10
207.0686148032
 20
97.8617973867
 11
90.2286148032
 21
97.8617973867
  0
LINE
  5
226
100
AcDbEntity
  8
0
100
AcDbLine
 62
7
  6
CONTINUOUS
 10
214.7966560403
 20
99.8617973868
 11
209.8970419279
 21
99.8617973867
  0
LINE
  5
227
100
AcDbEntity
  8
0
100
AcDbLine
 62
7
  6
CONTINUOUS
 10
43.2287876831
 20
222.0741701742
 11
43.2287796207
 21
222.0744456204
  0
LINE
  5
228
100
AcDbEntity
  8
0
100
AcDbLine
 62
7
  6
CONTINUOUS
 10
43.2332749328
 20
248.0549871475
 11
43.2288198576
 21
248.6770333797
  0
LINE
  5
229
100
AcDbEntity
  8
0
100
AcDbLine
 62
7
  6
CONTINUOUS
 10
43.2332749328
 20
269.0249871475
 11
43.2288198576
 21
269.6470333797
  0
LINE
  5
22A
100
AcDbEntity
  8
0
100
AcDbLine
 62
7
  6
CONTINUOUS
 10
42.763739881
 20
244.8649836948
 11
42.763739881
 21
245.5186110787
  0
LINE
  5
22B
100
AcDbEntity
  8
0
100
AcDbLine
 62
7
  6
CONTINUOUS
 10
42.763739881
 20
265.8349836948
 11
42.763739881
 21
266.4886110787
  0
LINE
  5
22C
100
AcDbEntity
  8
0
100
AcDbLine
 62
7
  6
CONTINUOUS
 10
43.063739881
 20
265.8349836948
 11
43.063739881
 21
266.4886110787
  0
LINE
  5
22D
100
AcDbEntity
  8
0
100
AcDbLine
 62
7
  6
CONTINUOUS
 10
43.2287796207
 20
222.0746734946
 11
43.2287796207
 21
241.7127575297
  0
LINE
  5
22E
100
AcDbEntity
  8
0
100
AcDbLine
 62
7
  6
CONTINUOUS
 10
43.2287796207
 20
248.6708372438
 11
43.2287796207
 21
262.6827575297
  0
LINE
  5
22F
100
AcDbEntity
  8
0
100
AcDbLine
 62
7
  6
CONTINUOUS
 10
43.2287796207
 20
269.6408372438
 11
43.2287796207
 21
360.3849503109
  0
LINE
  5
230
100
AcDbEntity
  8
0
100
AcDbLine
 62
7
  6
CONTINUOUS
 10
43.5332749271
 20
262.6617975431
 11
43.5332749271
 21
269.6617972303
  0
LINE
  5
231
100
AcDbEntity
  8
0
100
AcDbLine
 62
7
  6
CONTINUOUS
 10
44.2300304411
 20
189.3150752841
 11
44.2300304411
 21
222.0764874597
  0
LINE
  5
232
100
AcDbEntity
  8
0
100
AcDbLine
 62
7
  6
CONTINUOUS
 10
44.7743076083
 20
322.9476319143
 11
44.7743076083
 21
360.3849503109
  0
LINE
  5
233
100
AcDbEntity
  8
0
100
AcDbLine
 62
7
  6
CONTINUOUS
 10
45.7393388243
 20
322.0223992446
 11
45.7393388243
 21
360.3868818765
  0
LINE
  5
234
100
AcDbEntity
  8
0
100
AcDbLine
 62
7
  6
CONTINUOUS
 10
47.9002179459
 20
360.4742257343
 11
47.9002179459
 21
189.2449886237
  0
LINE
  5
235
100
AcDbEntity
  8
0
100
AcDbLine
 62
7
  6
CONTINUOUS
 10
48.8695575104
 20
189.2264779148
 11
48.8695575104
 21
360.5134069436
  0
LINE
  5
236
100
AcDbEntity
  8
0
100
AcDbLine
 62
7
  6
CONTINUOUS
 10
50.9786148032
 20
178.4118628471
 11
50.9786148032
 21
183.1717319264
  0
LINE
  5
237
100
AcDbEntity
  8
0
100
AcDbLine
 62
7
  6
CONTINUOUS
 10
52.9886145052
 20
183.7917830817
 11
52.9886145052
 21
176.3659871373
  0
LINE
  5
238
100
AcDbEntity
  8
0
100
AcDbLine
 62
7
  6
CONTINUOUS
 10
55.0286148032
 20
186.3617973867
 11
55.0286148032
 21
189.1088632817
  0
LINE
  5
239
100
AcDbEntity
  8
0
100
AcDbLine
 62
7
  6
CONTINUOUS
 10
45.7393388243
 20
322.0184932324
 11
45.8078189289
 21
343.7826597712
  0
LINE
  5
23A
100
AcDbEntity
  8
0
100
AcDbLine
 62
7
  6
CONTINUOUS
 10
43.2288183889
 20
241.706616345
 11
43.2332749278
 21
242.3286061937
  0
LINE
  5
23B
100
AcDbEntity
  8
0
100
AcDbLine
 62
7
  6
CONTINUOUS
 10
43.2288183889
 20
262.676616345
 11
43.2332749278
 21
263.2986061937
  0
LINE
  5
23C
100
AcDbEntity
  8
0
100
AcDbLine
 62
7
  6
CONTINUOUS
 10
43.2288182313
 20
269.6470301749
 11
42.763739881
 21
266.4886110787
  0
LINE
  5
23D
100
AcDbEntity
  8
0
100
AcDbLine
 62
7
  6
CONTINUOUS
 10
43.2288182313
 20
248.6770301749
 11
42.763739881
 21
245.5186110787
  0
LINE
  5
23E
100
AcDbEntity
  8
0
100
AcDbLine
 62
7
  6
CONTINUOUS
 10
43.5423251529
 20
269.6915567797
 11
43.063739881
 21
266.4886110787
  0
LINE
  5
23F
100
AcDbEntity
  8
0
100
AcDbLine
 62
7
  6
CONTINUOUS
 10
43.542325153
 20
262.6320379932
 11
43.063739881
 21
265.8349836948
  0
LINE
  5
240
100
AcDbEntity
  8
0
100
AcDbLine
 62
7
  6
CONTINUOUS
 10
43.2287820397
 20
241.7066848279
 11
42.763739881
 21
244.8649836948
  0
LINE
  5
241
100
AcDbEntity
  8
0
100
AcDbLine
 62
7
  6
CONTINUOUS
 10
43.2287820397
 20
262.6766848278
 11
42.763739881
 21
265.8349836948
  0
LINE
  5
242
100
AcDbEntity
  8
0
100
AcDbLine
 62
7
  6
CONTINUOUS
 10
58.5886127909
 20
175.6617863623
 11
58.5886127909
 21
175.5617846695
  0
LINE
  5
243
100
AcDbEntity
  8
0
100
AcDbLine
 62
7
  6
CONTINUOUS
 10
63.3565110622
 20
175.3617812839
 11
63.3565110622
 21
173.8614708068
  0
LINE
  5
244
100
AcDbEntity
  8
0
100
AcDbLine
 62
7
  6
CONTINUOUS
 10
63.5081737547
 20
188.9617973867
 11
63.5081737547
 21
173.8534248533
  0
LINE
  5
245
100
AcDbEntity
  8
0
100
AcDbLine
 62
7
  6
CONTINUOUS
 10
64.3755373934
 20
173.8074097961
 11
64.3755373934
 21
188.9617973867
  0
LINE
  5
246
100
AcDbEntity
  8
0
100
AcDbLine
 62
7
  6
CONTINUOUS
 10
82.2286148032
 20
437.5617973868
 11
82.2286148032
 21
97.1617973869
  0
LINE
  5
247
100
AcDbEntity
  8
0
100
AcDbLine
 62
7
  6
CONTINUOUS
 10
84.5286148032
 20
94.8617973869
 11
84.5286148032
 21
439.8617973868
  0
LINE
  5
248
100
AcDbEntity
  8
0
100
AcDbLine
 62
7
  6
CONTINUOUS
 10
90.2286148032
 20
439.8617973868
 11
90.2286148032
 21
94.8617973868
  0
LINE
  5
249
100
AcDbEntity
  8
0
100
AcDbLine
 62
7
  6
CONTINUOUS
 10
57.7396893071
 20
186.2816410127
 11
57.4935041031
 21
185.0191046444
  0
LINE
  5
24A
100
AcDbEntity
  8
0
100
AcDbLine
 62
7
  6
CONTINUOUS
 10
319.8686148032
 20
479.8617973867
 11
317.1123745693
 21
478.0102843004
  0
LINE
  5
24B
100
AcDbEntity
  8
0
100
AcDbLine
 62
7
  6
CONTINUOUS
 10
53.9352111181
 20
176.4823039022
 11
58.5886127909
 21
175.6617863623
  0
LINE
  5
24C
100
AcDbEntity
  8
0
100
AcDbLine
 62
7
  6
CONTINUOUS
 10
317.1123745693
 20
56.7133104729
 11
319.8686148032
 21
54.8617973867
  0
LINE
  5
24D
100
AcDbEntity
  8
0
100
AcDbLine
 62
7
  6
CONTINUOUS
 10
96.3287123775
 20
437.9612178278
 11
96.3287123775
 21
436.8617973867
  0
LINE
  5
24E
100
AcDbEntity
  8
0
100
AcDbLine
 62
7
  6
CONTINUOUS
 10
96.3287123775
 20
96.7623769457
 11
96.3287123775
 21
97.8617973867
  0
LINE
  5
24F
100
AcDbEntity
  8
0
100
AcDbLine
 62
7
  6
CONTINUOUS
 10
104.3285172289
 20
97.8617973867
 11
104.3285172289
 21
96.7623769457
  0
LINE
  5
250
100
AcDbEntity
  8
0
100
AcDbLine
 62
7
  6
CONTINUOUS
 10
104.3285172289
 20
436.8617973867
 11
104.3285172289
 21
437.9612178278
  0
LINE
  5
251
100
AcDbEntity
  8
0
100
AcDbLine
 62
7
  6
CONTINUOUS
 10
179.916380817
 20
445.7527804062
 11
175.7024572366
 21
437.8002431973
  0
LINE
  5
252
100
AcDbEntity
  8
0
100
AcDbLine
 62
7
  6
CONTINUOUS
 10
181.4686148061
 20
448.3617973867
 11
180.0489231411
 21
445.6825483267
  0
LINE
  5
253
100
AcDbEntity
  8
0
100
AcDbLine
 62
7
  6
CONTINUOUS
 10
176.7186148061
 20
437.2617973867
 11
179.6426052156
 21
442.7799664011
  0
LINE
  5
254
100
AcDbEntity
  8
0
100
AcDbLine
 62
7
  6
CONTINUOUS
 10
58.7886161765
 20
175.3617812839
 11
63.5081737547
 21
175.3617812839
  0
LINE
  5
255
100
AcDbEntity
  8
0
100
AcDbLine
 62
7
  6
CONTINUOUS
 10
50.9786148032
 20
178.4117973867
 11
52.9886145052
 21
178.4117973867
  0
LINE
  5
256
100
AcDbEntity
  8
0
100
AcDbLine
 62
7
  6
CONTINUOUS
 10
53.1798906277
 20
176.166177493
 11
53.7386126479
 21
176.1417825666
  0
LINE
  5
257
100
AcDbEntity
  8
0
100
AcDbLine
 62
7
  6
CONTINUOUS
 10
63.3565110622
 20
173.8614708068
 11
82.2286148032
 21
172.8602748896
  0
LINE
  5
258
100
AcDbEntity
  8
0
100
AcDbLine
 62
7
  6
CONTINUOUS
 10
175.7024572366
 20
96.9233515761
 11
179.916380817
 21
88.9708143673
  0
LINE
  5
259
100
AcDbEntity
  8
0
100
AcDbLine
 62
7
  6
CONTINUOUS
 10
180.0489231411
 20
89.0410464467
 11
181.468614806
 21
86.3617973868
  0
LINE
  5
25A
100
AcDbEntity
  8
0
100
AcDbLine
 62
7
  6
CONTINUOUS
 10
179.6426052156
 20
91.9436283723
 11
176.7186148061
 21
97.4617973867
  0
LINE
  5
25B
100
AcDbEntity
  8
0
100
AcDbLine
 62
7
  6
CONTINUOUS
 10
53.7386126479
 20
176.1417825666
 11
53.9352111181
 21
176.4823039022
  0
LINE
  5
25C
100
AcDbEntity
  8
0
100
AcDbLine
 62
7
  6
CONTINUOUS
 10
50.9786148032
 20
183.1717973867
 11
52.9886145052
 21
183.1717973867
  0
LINE
  5
25D
100
AcDbEntity
  8
0
100
AcDbLine
 62
7
  6
CONTINUOUS
 10
55.8886117896
 20
184.3917806593
 11
53.5886145052
 21
184.3917830817
  0
LINE
  5
25E
100
AcDbEntity
  8
0
100
AcDbLine
 62
7
  6
CONTINUOUS
 10
55.0286148032
 20
186.3617973867
 11
63.5081737547
 21
186.3617973867
  0
LINE
  5
25F
100
AcDbEntity
  8
0
100
AcDbLine
 62
7
  6
CONTINUOUS
 10
64.3755373934
 20
188.9617973867
 11
60.5285650242
 21
188.9617973867
  0
LINE
  5
260
100
AcDbEntity
  8
0
100
AcDbLine
 62
7
  6
CONTINUOUS
 10
60.5293674923
 20
189.0038197696
 11
44.2339791599
 21
189.3149998785
  0
LINE
  5
261
100
AcDbEntity
  8
0
100
AcDbLine
 62
7
  6
CONTINUOUS
 10
57.2672584785
 20
184.7937104211
 11
57.1259744128
 21
184.7617764917
  0
LINE
  5
262
100
AcDbEntity
  8
0
100
AcDbLine
 62
7
  6
CONTINUOUS
 10
43.2287876831
 20
222.0743839156
 11
44.2300884424
 21
222.0743839156
  0
LINE
  5
263
100
AcDbEntity
  8
0
100
AcDbLine
 62
7
  6
CONTINUOUS
 10
44.3568335617
 20
228.0376420816
 11
43.3602797919
 21
228.0376420816
  0
LINE
  5
264
100
AcDbEntity
  8
0
100
AcDbLine
 62
7
  6
CONTINUOUS
 10
180.6837046762
 20
436.8617973867
 11
180.5843366859
 21
442.5545857387
  0
LINE
  5
265
100
AcDbEntity
  8
0
100
AcDbLine
 62
7
  6
CONTINUOUS
 10
188.4535249301
 20
97.8617973867
 11
188.5528929205
 21
92.1690090347
  0
LINE
  5
266
100
AcDbEntity
  8
0
100
AcDbLine
 62
7
  6
CONTINUOUS
 10
182.0686148032
 20
54.8617973867
 11
182.0686148032
 21
86.3617973868
  0
LINE
  5
267
100
AcDbEntity
  8
0
100
AcDbLine
 62
7
  6
CONTINUOUS
 10
182.0686148032
 20
448.3617973867
 11
182.0686148032
 21
479.8617973868
  0
LINE
  5
268
100
AcDbEntity
  8
0
100
AcDbLine
 62
7
  6
CONTINUOUS
 10
187.0686148032
 20
54.8617973867
 11
187.0686148032
 21
86.3617973868
  0
LINE
  5
269
100
AcDbEntity
  8
0
100
AcDbLine
 62
7
  6
CONTINUOUS
 10
187.0686148032
 20
448.3617973867
 11
187.0686148032
 21
479.8617973868
  0
LINE
  5
26A
100
AcDbEntity
  8
0
100
AcDbLine
 62
7
  6
CONTINUOUS
 10
190.6593123775
 20
437.9612178278
 11
190.6593123775
 21
436.8617973867
  0
LINE
  5
26B
100
AcDbEntity
  8
0
100
AcDbLine
 62
7
  6
CONTINUOUS
 10
190.6593123775
 20
96.7623769457
 11
190.6593123775
 21
97.8617973867
  0
LINE
  5
26C
100
AcDbEntity
  8
0
100
AcDbLine
 62
7
  6
CONTINUOUS
 10
180.5843366859
 20
92.1690090347
 11
180.6837046762
 21
97.8617973867
  0
LINE
  5
26D
100
AcDbEntity
  8
0
100
AcDbLine
 62
7
  6
CONTINUOUS
 10
188.5528929204
 20
442.5545857387
 11
188.4535249301
 21
436.8617973867
  0
LINE
  5
26E
100
AcDbEntity
  8
0
100
AcDbLine
 62
7
  6
CONTINUOUS
 10
44.9190545442
 20
256.5033153667
 11
43.9325670864
 21
256.5033153667
  0
LINE
  5
26F
100
AcDbEntity
  8
0
100
AcDbLine
 62
7
  6
CONTINUOUS
 10
198.6591172289
 20
97.8617973867
 11
198.6591172289
 21
96.7623769457
  0
LINE
  5
270
100
AcDbEntity
  8
0
100
AcDbLine
 62
7
  6
CONTINUOUS
 10
198.6591172289
 20
436.8617973867
 11
198.6591172289
 21
437.9612178278
  0
LINE
  5
271
100
AcDbEntity
  8
0
100
AcDbLine
 62
7
  6
CONTINUOUS
 10
212.3672753452
 20
434.8617973867
 11
212.3672753452
 21
436.8617973867
  0
LINE
  5
272
100
AcDbEntity
  8
0
100
AcDbLine
 62
7
  6
CONTINUOUS
 10
214.7966560403
 20
97.8617973867
 11
214.7966560403
 21
99.8617973868
  0
LINE
  5
273
100
AcDbEntity
  8
0
100
AcDbLine
 62
7
  6
CONTINUOUS
 10
223.2067123775
 20
437.9612178278
 11
223.2067123775
 21
436.8617973867
  0
LINE
  5
274
100
AcDbEntity
  8
0
100
AcDbLine
 62
7
  6
CONTINUOUS
 10
223.2067123775
 20
96.7623769457
 11
223.2067123775
 21
97.8617973867
  0
LINE
  5
275
100
AcDbEntity
  8
0
100
AcDbLine
 62
7
  6
CONTINUOUS
 10
317.1123745693
 20
478.0102843004
 11
300.3055036921
 21
436.8617973867
  0
LINE
  5
276
100
AcDbEntity
  8
0
100
AcDbLine
 62
7
  6
CONTINUOUS
 10
300.3055036921
 20
97.8617973867
 11
317.1123745693
 21
56.7133104729
  0
LINE
  5
277
100
AcDbEntity
  8
0
100
AcDbLine
 62
7
  6
CONTINUOUS
 10
231.2065172289
 20
97.8617973867
 11
231.2065172289
 21
96.7623769457
  0
LINE
  5
278
100
AcDbEntity
  8
0
100
AcDbLine
 62
7
  6
CONTINUOUS
 10
231.2065172289
 20
436.8617973867
 11
231.2065172289
 21
437.9612178278
  0
LINE
  5
279
100
AcDbEntity
  8
0
100
AcDbLine
 62
7
  6
CONTINUOUS
 10
57.1259744128
 20
184.7617764917
 11
55.8886117896
 21
184.3917806593
  0
LINE
  5
27A
100
AcDbEntity
  8
0
100
AcDbLine
 62
7
  6
CONTINUOUS
 10
276.4900123775
 20
437.9612178278
 11
276.4900123775
 21
436.8617973867
  0
LINE
  5
27B
100
AcDbEntity
  8
0
100
AcDbLine
 62
7
  6
CONTINUOUS
 10
276.4900123775
 20
96.7623769457
 11
276.4900123775
 21
97.8617973867
  0
LINE
  5
27C
100
AcDbEntity
  8
0
100
AcDbLine
 62
7
  6
CONTINUOUS
 10
191.288792489
 20
95.3295911902
 11
189.4946243907
 21
91.9436283723
  0
LINE
  5
27D
100
AcDbEntity
  8
0
100
AcDbLine
 62
7
  6
CONTINUOUS
 10
187.6686148003
 20
86.3617973868
 11
192.2379399131
 21
94.9850501077
  0
LINE
  5
27E
100
AcDbEntity
  8
0
100
AcDbLine
 62
7
  6
CONTINUOUS
 10
189.4946243907
 20
442.7799664011
 11
191.2887924889
 21
439.3940035833
  0
LINE
  5
27F
100
AcDbEntity
  8
0
100
AcDbLine
 62
7
  6
CONTINUOUS
 10
192.237951972
 20
439.7385219081
 11
187.6686148002
 21
448.3617973867
  0
LINE
  5
280
100
AcDbEntity
  8
0
100
AcDbLine
 62
7
  6
CONTINUOUS
 10
284.4898172289
 20
97.8617973867
 11
284.4898172289
 21
96.7623769457
  0
LINE
  5
281
100
AcDbEntity
  8
0
100
AcDbLine
 62
7
  6
CONTINUOUS
 10
284.4898172289
 20
436.8617973867
 11
284.4898172289
 21
437.9612178278
  0
LINE
  5
282
100
AcDbEntity
  8
0
100
AcDbLine
 62
7
  6
CONTINUOUS
 10
45.7547958379
 20
360.3875066571
 11
82.2286148032
 21
361.8617973868
  0
LINE
  5
283
100
AcDbEntity
  8
0
100
AcDbLine
 62
7
  6
CONTINUOUS
 10
43.2288631623
 20
360.3849503109
 11
45.7393388243
 21
360.3849503109
  0
LINE
  5
284
100
AcDbEntity
  8
0
100
AcDbLine
 62
7
  6
CONTINUOUS
 10
339.0686148032
 20
479.8617973867
 11
339.0686148032
 21
54.8617973867
  0
LINE
  5
285
100
AcDbEntity
  8
0
100
AcDbLine
 62
7
  6
CONTINUOUS
 10
341.8686148032
 20
54.8617973867
 11
341.8686148032
 21
479.8617973867
  0
LINE
  5
286
100
AcDbEntity
  8
0
100
AcDbLine
 62
7
  6
CONTINUOUS
 10
176.7186148061
 20
97.4617973867
 11
175.7024572366
 21
96.9233515761
  0
LINE
  5
287
100
AcDbEntity
  8
0
100
AcDbLine
 62
7
  6
CONTINUOUS
 10
179.916380817
 20
88.9708143673
 11
180.0489231411
 21
89.0410464467
  0
LINE
  5
288
100
AcDbEntity
  8
0
100
AcDbLine
 62
7
  6
CONTINUOUS
 10
175.7024572366
 20
437.8002431973
 11
176.7186148061
 21
437.2617973867
  0
LINE
  5
289
100
AcDbEntity
  8
0
100
AcDbLine
 62
7
  6
CONTINUOUS
 10
180.0489231411
 20
445.6825483267
 11
179.916380817
 21
445.7527804062
  0
LINE
  5
28A
100
AcDbEntity
  8
0
100
AcDbLine
 62
7
  6
CONTINUOUS
 10
209.8970419279
 20
434.8617973867
 11
212.3672753452
 21
434.8617973867
  0
LINE
  5
28B
100
AcDbEntity
  8
0
100
AcDbLine
 62
7
  6
CONTINUOUS
 10
90.2286148032
 20
436.8617973867
 11
207.0686148032
 21
436.8617973867
  0
LINE
  5
28C
100
AcDbEntity
  8
0
100
AcDbLine
 62
7
  6
CONTINUOUS
 10
212.3672753452
 20
436.8617973867
 11
300.3055036921
 21
436.8617973867
  0
LINE
  5
28D
100
AcDbEntity
  8
0
100
AcDbLine
 62
7
  6
CONTINUOUS
 10
96.3287123775
 20
437.9612178278
 11
104.3285172289
 21
437.9612178278
  0
LINE
  5
28E
100
AcDbEntity
  8
0
100
AcDbLine
 62
7
  6
CONTINUOUS
 10
190.6593123775
 20
437.9612178278
 11
198.6591172289
 21
437.9612178278
  0
LINE
  5
28F
100
AcDbEntity
  8
0
100
AcDbLine
 62
7
  6
CONTINUOUS
 10
223.2067123775
 20
437.9612178278
 11
231.2065172289
 21
437.9612178278
  0
LINE
  5
290
100
AcDbEntity
  8
0
100
AcDbLine
 62
7
  6
CONTINUOUS
 10
276.4900123775
 20
437.9612178278
 11
284.4898172289
 21
437.9612178278
  0
LINE
  5
291
100
AcDbEntity
  8
0
100
AcDbLine
 62
7
  6
CONTINUOUS
 10
84.5286148032
 20
439.8617973868
 11
90.2286148032
 21
439.8617973868
  0
LINE
  5
292
100
AcDbEntity
  8
0
100
AcDbLine
 62
7
  6
CONTINUOUS
 10
98.328663541
 20
439.9617973867
 11
102.3285660654
 21
439.9617973867
  0
LINE
  5
293
100
AcDbEntity
  8
0
100
AcDbLine
 62
7
  6
CONTINUOUS
 10
192.659263541
 20
439.9617973867
 11
196.6591660654
 21
439.9617973867
  0
LINE
  5
294
100
AcDbEntity
  8
0
100
AcDbLine
 62
7
  6
CONTINUOUS
 10
225.206663541
 20
439.9617973867
 11
229.2065660654
 21
439.9617973867
  0
LINE
  5
295
100
AcDbEntity
  8
0
100
AcDbLine
 62
7
  6
CONTINUOUS
 10
278.489963541
 20
439.9617973867
 11
282.4898660654
 21
439.9617973867
  0
LINE
  5
296
100
AcDbEntity
  8
0
100
AcDbLine
 62
7
  6
CONTINUOUS
 10
187.6686148002
 20
448.3617973867
 11
181.4686148061
 21
448.3617973867
  0
LINE
  5
297
100
AcDbEntity
  8
0
100
AcDbLine
 62
7
  6
CONTINUOUS
 10
187.0686148032
 20
477.8617973867
 11
182.0686148032
 21
477.8617973867
  0
LINE
  5
298
100
AcDbEntity
  8
0
100
AcDbLine
 62
7
  6
CONTINUOUS
 10
187.0686148032
 20
479.8617973867
 11
182.0686148032
 21
479.8617973867
  0
LINE
  5
299
100
AcDbEntity
  8
0
100
AcDbLine
 62
7
  6
CONTINUOUS
 10
319.8686148032
 20
479.8617973867
 11
341.8686148032
 21
479.8617973867
  0
ARC
  5
29A
100
AcDbEntity
  8
0
100
AcDbCircle
 62
7
  6
CONTINUOUS
 10
-3622.1331898581
 20
343.7285074175
 40
3667.9410091868
100
AcDbArc
 50
0.0008458973
 51
0.1794477637
  0
ARC
  5
29B
100
AcDbEntity
  8
0
100
AcDbCircle
 62
7
  6
CONTINUOUS
 10
-463.8977924017
 20
245.1982899262
 40
507.139113237
100
AcDbArc
 50
359.9992664835
 51
0.3227468666
  0
ARC
  5
29C
100
AcDbEntity
  8
0
100
AcDbCircle
 62
7
  6
CONTINUOUS
 10
-449.5277262356
 20
245.1449229149
 40
492.7690492588
100
AcDbArc
 50
359.6725363725
 51
0.00545024
  0
ARC
  5
29D
100
AcDbEntity
  8
0
100
AcDbCircle
 62
7
  6
CONTINUOUS
 10
-41.4843413575
 20
266.1609118693
 40
85.1563872508
100
AcDbArc
 50
359.768064681
 51
0.2320381999
  0
CIRCLE
  5
29E
100
AcDbEntity
  8
0
100
AcDbCircle
 62
7
  6
CONTINUOUS
 10
323.3686148032
 20
84.8617973867
 40
8.0
  0
ARC
  5
29F
100
AcDbEntity
  8
0
100
AcDbCircle
 62
7
  6
CONTINUOUS
 10
207.0686148032
 20
100.8617973867
 40
3.0
100
AcDbArc
 50
270.0
 51
340.528779366
  0
ARC
  5
2A0
100
AcDbEntity
  8
0
100
AcDbCircle
 62
7
  6
CONTINUOUS
 10
84.5286148032
 20
97.1617973869
 40
2.3000000001
100
AcDbArc
 50
180.0
 51
270.0
  0
ARC
  5
2A1
100
AcDbEntity
  8
0
100
AcDbCircle
 62
7
  6
CONTINUOUS
 10
196.6591660654
 20
96.7617486489
 40
1.9999512622
100
AcDbArc
 50
270.0
 51
360.0
  0
ARC
  5
2A2
100
AcDbEntity
  8
0
100
AcDbCircle
 62
7
  6
CONTINUOUS
 10
192.659263541
 20
96.7617486489
 40
1.9999512622
100
AcDbArc
 50
180.0
 51
270.0
  0
ARC
  5
2A3
100
AcDbEntity
  8
0
100
AcDbCircle
 62
7
  6
CONTINUOUS
 10
102.3285660654
 20
96.7617486489
 40
1.9999512622
100
AcDbArc
 50
270.0
 51
360.0
  0
ARC
  5
2A4
100
AcDbEntity
  8
0
100
AcDbCircle
 62
7
  6
CONTINUOUS
 10
98.328663541
 20
96.7617486489
 40
1.9999512622
100
AcDbArc
 50
180.0
 51
270.0
  0
ARC
  5
2A5
100
AcDbEntity
  8
0
100
AcDbCircle
 62
7
  6
CONTINUOUS
 10
229.2065660654
 20
96.7617486489
 40
1.9999512622
100
AcDbArc
 50
270.0
 51
360.0
  0
ARC
  5
2A6
100
AcDbEntity
  8
0
100
AcDbCircle
 62
7
  6
CONTINUOUS
 10
225.206663541
 20
96.7617486489
 40
1.9999512622
100
AcDbArc
 50
180.0
 51
270.0
  0
ARC
  5
2A7
100
AcDbEntity
  8
0
100
AcDbCircle
 62
7
  6
CONTINUOUS
 10
282.4898660654
 20
96.7617486489
 40
1.9999512622
100
AcDbArc
 50
270.0
 51
360.0
  0
ARC
  5
2A8
100
AcDbEntity
  8
0
100
AcDbCircle
 62
7
  6
CONTINUOUS
 10
278.489963541
 20
96.7617486489
 40
1.9999512622
100
AcDbArc
 50
180.0
 51
270.0
  0
ARC
  5
2A9
100
AcDbEntity
  8
0
100
AcDbCircle
 62
7
  6
CONTINUOUS
 10
53.5886145052
 20
183.7917830817
 40
0.6
100
AcDbArc
 50
89.9999999999
 51
180.0000000001
  0
ARC
  5
2AA
100
AcDbEntity
  8
0
100
AcDbCircle
 62
7
  6
CONTINUOUS
 10
189.052816768
 20
92.1777352379
 40
0.5
100
AcDbArc
 50
180.9999999999
 51
332.0815916991
  0
ARC
  5
2AB
100
AcDbEntity
  8
0
100
AcDbCircle
 62
7
  6
CONTINUOUS
 10
180.0844128383
 20
92.1777352379
 40
0.5
100
AcDbArc
 50
207.9184083009
 51
359.0000000001
  0
ARC
  5
2AC
100
AcDbEntity
  8
0
100
AcDbCircle
 62
7
  6
CONTINUOUS
 10
57.2011333547
 20
185.0863325577
 40
0.3000004114
100
AcDbArc
 50
282.7335135003
 51
347.0504664191
  0
ARC
  5
2AD
100
AcDbEntity
  8
0
100
AcDbCircle
 62
7
  6
CONTINUOUS
 10
58.7886187862
 20
175.5617872792
 40
0.2000059953
100
AcDbArc
 50
180.0007476167
 51
269.9992523826
  0
ARC
  5
2AE
100
AcDbEntity
  8
0
100
AcDbCircle
 62
7
  6
CONTINUOUS
 10
53.1886145052
 20
176.3659871373
 40
0.2
100
AcDbArc
 50
180.0
 51
267.5000000008
  0
CIRCLE
  5
2AF
100
AcDbEntity
  8
0
100
AcDbCircle
 62
7
  6
CONTINUOUS
 10
323.3686148032
 20
449.8617973867
 40
8.0
  0
ARC
  5
2B0
100
AcDbEntity
  8
0
100
AcDbCircle
 62
7
  6
CONTINUOUS
 10
207.0686148032
 20
433.8617973867
 40
3.0
100
AcDbArc
 50
19.4712206345
 51
89.9999999999
  0
ARC
  5
2B1
100
AcDbEntity
  8
0
100
AcDbCircle
 62
7
  6
CONTINUOUS
 10
84.5286148032
 20
437.5617973868
 40
2.3
100
AcDbArc
 50
90.0
 51
180.0000000002
  0
ARC
  5
2B2
100
AcDbEntity
  8
0
100
AcDbCircle
 62
7
  6
CONTINUOUS
 10
196.6591660654
 20
437.9618461245
 40
1.9999512622
100
AcDbArc
 50
0.0
 51
90.0
  0
ARC
  5
2B3
100
AcDbEntity
  8
0
100
AcDbCircle
 62
7
  6
CONTINUOUS
 10
192.659263541
 20
437.9618461245
 40
1.9999512622
100
AcDbArc
 50
90.0
 51
180.0
  0
ARC
  5
2B4
100
AcDbEntity
  8
0
100
AcDbCircle
 62
7
  6
CONTINUOUS
 10
102.3285660654
 20
437.9618461245
 40
1.9999512622
100
AcDbArc
 50
0.0
 51
90.0
  0
ARC
  5
2B5
100
AcDbEntity
  8
0
100
AcDbCircle
 62
7
  6
CONTINUOUS
 10
98.328663541
 20
437.9618461245
 40
1.9999512622
100
AcDbArc
 50
90.0
 51
180.0
  0
ARC
  5
2B6
100
AcDbEntity
  8
0
100
AcDbCircle
 62
7
  6
CONTINUOUS
 10
282.4898660654
 20
437.9618461245
 40
1.9999512622
100
AcDbArc
 50
0.0
 51
90.0
  0
ARC
  5
2B7
100
AcDbEntity
  8
0
100
AcDbCircle
 62
7
  6
CONTINUOUS
 10
278.489963541
 20
437.9618461245
 40
1.9999512622
100
AcDbArc
 50
90.0
 51
180.0
  0
ARC
  5
2B8
100
AcDbEntity
  8
0
100
AcDbCircle
 62
7
  6
CONTINUOUS
 10
229.2065660654
 20
437.9618461245
 40
1.9999512622
100
AcDbArc
 50
0.0
 51
90.0
  0
ARC
  5
2B9
100
AcDbEntity
  8
0
100
AcDbCircle
 62
7
  6
CONTINUOUS
 10
225.206663541
 20
437.9618461245
 40
1.9999512622
100
AcDbArc
 50
90.0
 51
180.0
  0
ARC
  5
2BA
100
AcDbEntity
  8
0
100
AcDbCircle
 62
7
  6
CONTINUOUS
 10
189.052816768
 20
442.5458595355
 40
0.5
100
AcDbArc
 50
27.918408301
 51
179.0000000001
  0
ARC
  5
2BB
100
AcDbEntity
  8
0
100
AcDbCircle
 62
7
  6
CONTINUOUS
 10
180.0844128383
 20
442.5458595355
 40
0.5
100
AcDbArc
 50
0.9999999999
 51
152.0815916991
  0
SPLINE
  5
2BC
100
AcDbEntity
  8
0
100
AcDbSpline
 62
7
  6
CONTINUOUS
 70
0
 71
3
 72
14
 73
10
 74
0
 42
0.0000001
 43
0.0000001
 44
0.0000000001
 40
0.0
 40
0.0
 40
0.0
 40
0.0
 40
0.0263131745
 40
0.084947979
 40
0.1774066591
 40
0.3006652493
 40
0.4505003927
 40
0.6215099048
 40
1.0
 40
1.0
 40
1.0
 40
1.0
 10
46.6858380637
 20
212.6617985575
 30
0.0
 10
46.7098385696
 20
212.661773286
 30
0.0
 10
46.7563207444
 20
212.7483020403
 30
0.0
 10
46.7919898714
 20
212.8909763826
 30
0.0
 10
46.8371922946
 20
213.1451297618
 30
0.0
 10
46.8737098905
 20
213.4734992086
 30
0.0
 10
46.9059525585
 20
213.8784599662
 30
0.0
 10
46.9386980902
 20
214.5150750518
 30
0.0
 10
46.9478907119
 20
215.0165726464
 30
0.0
 10
46.9478907119
 20
215.3617973867
 30
0.0
  0
SPLINE
  5
2BD
100
AcDbEntity
  8
0
100
AcDbSpline
 62
7
  6
CONTINUOUS
 70
0
 71
3
 72
14
 73
10
 74
0
 42
0.0000001
 43
0.0000001
 44
0.0000000001
 40
0.0
 40
0.0
 40
0.0
 40
0.0
 40
0.027210328
 40
0.0862540575
 40
0.1786537701
 40
0.301854093
 40
0.4514624253
 40
0.6221287883
 40
1.0
 40
1.0
 40
1.0
 40
1.0
 10
47.0788443193
 20
347.8618890297
 30
0.0
 10
47.1156895935
 20
347.8619026154
 30
0.0
 10
47.1915396994
 20
347.9861396812
 30
0.0
 10
47.2484617567
 20
348.2017376105
 30
0.0
 10
47.3219065352
 20
348.5766088095
 30
0.0
 10
47.3807086669
 20
349.0638596239
 30
0.0
 10
47.4330965213
 20
349.6635646862
 30
0.0
 10
47.4862435213
 20
350.6069396318
 30
0.0
 10
47.5012382321
 20
351.350125152
 30
0.0
 10
47.5012382321
 20
351.8617973867
 30
0.0
  0
SPLINE
  5
2BE
100
AcDbEntity
  8
0
100
AcDbSpline
 62
7
  6
CONTINUOUS
 70
0
 71
3
 72
14
 73
10
 74
0
 42
0.0000001
 43
0.0000001
 44
0.0000000001
 40
0.0
 40
0.0
 40
0.0
 40
0.0
 40
0.3784740372
 40
0.5495002905
 40
0.6993494906
 40
0.8226024281
 40
0.9150667323
 40
0.9736928956
 40
1.0
 40
1.0
 40
1.0
 40
1.0
 10
46.9478907119
 20
215.3617973867
 30
0.0
 10
46.9478907119
 20
215.7070078275
 30
0.0
 10
46.9386969247
 20
216.2085054179
 30
0.0
 10
46.9059512063
 20
216.8451372071
 30
0.0
 10
46.8737116407
 20
217.2501153265
 30
0.0
 10
46.8371820435
 20
217.5785149304
 30
0.0
 10
46.7919780652
 20
217.832615994
 30
0.0
 10
46.7563158771
 20
217.9753706643
 30
0.0
 10
46.7098298006
 20
218.0617738492
 30
0.0
 10
46.6858348044
 20
218.0617964641
 30
0.0
  0
SPLINE
  5
2BF
100
AcDbEntity
  8
0
100
AcDbSpline
 62
7
  6
CONTINUOUS
 70
0
 71
3
 72
14
 73
10
 74
0
 42
0.0000001
 43
0.0000001
 44
0.0000000001
 40
0.0
 40
0.0
 40
0.0
 40
0.0
 40
0.3778600837
 40
0.5485378741
 40
0.6981559199
 40
0.8213543039
 40
0.9137555114
 40
0.9727888512
 40
1.0
 40
1.0
 40
1.0
 40
1.0
 10
47.5012382321
 20
351.8617973867
 30
0.0
 10
47.5012382321
 20
352.3734542661
 30
0.0
 10
47.4862485264
 20
353.1166409287
 30
0.0
 10
47.4330885602
 20
354.0600260245
 30
0.0
 10
47.3807115658
 20
354.6597625555
 30
0.0
 10
47.3218938356
 20
355.1470112462
 30
0.0
 10
47.2484785983
 20
355.521901376
 30
0.0
 10
47.1915107107
 20
355.7374259463
 30
0.0
 10
47.115685559
 20
355.8617172306
 30
0.0
 10
47.0788391934
 20
355.8617054165
 30
0.0
  0
SPLINE
  5
2C0
100
AcDbEntity
  8
0
100
AcDbSpline
 62
7
  6
CONTINUOUS
 70
0
 71
3
 72
14
 73
10
 74
0
 42
0.0000001
 43
0.0000001
 44
0.0000000001
 40
0.0
 40
0.0
 40
0.0
 40
0.0
 40
0.0261967705
 40
0.0847124946
 40
0.1771085312
 40
0.3003643176
 40
0.4502455454
 40
0.6213314396
 40
1.0
 40
1.0
 40
1.0
 40
1.0
 10
46.6858348044
 20
218.0617964641
 30
0.0
 10
46.6619561962
 20
218.0618189694
 30
0.0
 10
46.6160170983
 20
217.975131421
 30
0.0
 10
46.5819505824
 20
217.8325503707
 30
0.0
 10
46.5388396822
 20
217.5783229574
 30
0.0
 10
46.504876191
 20
217.2499461576
 30
0.0
 10
46.4751536297
 20
216.844948221
 30
0.0
 10
46.4453877166
 20
216.2083425135
 30
0.0
 10
46.4371485934
 20
215.7069575745
 30
0.0
 10
46.4371485934
 20
215.3617973867
 30
0.0
  0
SPLINE
  5
2C1
100
AcDbEntity
  8
0
100
AcDbSpline
 62
7
  6
CONTINUOUS
 70
0
 71
3
 72
14
 73
10
 74
0
 42
0.0000001
 43
0.0000001
 44
0.0000000001
 40
0.0
 40
0.0
 40
0.0
 40
0.0
 40
0.0270353122
 40
0.0858910269
 40
0.1781879474
 40
0.3013831619
 40
0.4510630078
 40
0.6218478821
 40
1.0
 40
1.0
 40
1.0
 40
1.0
 10
47.0788391934
 20
355.8617054165
 30
0.0
 10
47.0422688985
 20
355.8616936909
 30
0.0
 10
46.9675149658
 20
355.7371485594
 30
0.0
 10
46.9142232836
 20
355.5216667383
 30
0.0
 10
46.8453159089
 20
355.1466707152
 30
0.0
 10
46.7921736109
 20
354.6593789098
 30
0.0
 10
46.7453158639
 20
354.0595938563
 30
0.0
 10
46.6987307933
 20
353.1162363592
 30
0.0
 10
46.685836503
 20
352.3733185801
 30
0.0
 10
46.685836503
 20
351.8617973867
 30
0.0
  0
SPLINE
  5
2C2
100
AcDbEntity
  8
0
100
AcDbSpline
 62
7
  6
CONTINUOUS
 70
0
 71
3
 72
11
 73
7
 74
0
 42
0.0000001
 43
0.0000001
 44
0.0000000001
 40
0.0
 40
0.0
 40
0.0
 40
0.0
 40
0.0695234202
 40
0.2671453401
 40
0.5826752928
 40
1.0
 40
1.0
 40
1.0
 40
1.0
 10
43.2287801575
 20
222.07445012
 30
0.0
 10
43.2288916787
 20
222.2127071595
 30
0.0
 10
43.2509240058
 20
222.7436733047
 30
0.0
 10
43.2733039698
 20
223.9021193457
 30
0.0
 10
43.3198409245
 20
225.7519656051
 30
0.0
 10
43.3463405028
 20
227.2091078405
 30
0.0
 10
43.3602999178
 20
228.0388992165
 30
0.0
  0
SPLINE
  5
2C3
100
AcDbEntity
  8
0
100
AcDbSpline
 62
7
  6
CONTINUOUS
 70
0
 71
3
 72
11
 73
7
 74
0
 42
0.0000001
 43
0.0000001
 44
0.0000000001
 40
0.0
 40
0.0
 40
0.0
 40
0.0
 40
0.0738714684
 40
0.272834217
 40
0.5868374451
 40
1.0
 40
1.0
 40
1.0
 40
1.0
 10
44.2300288362
 20
222.0764938423
 30
0.0
 10
44.2300878113
 20
222.2233137144
 30
0.0
 10
44.2505814257
 20
222.7653306372
 30
0.0
 10
44.2731755205
 20
223.9313824768
 30
0.0
 10
44.3174682181
 20
225.7715795537
 30
0.0
 10
44.3433354128
 20
227.2165905469
 30
0.0
 10
44.3568335617
 20
228.0376420816
 30
0.0
  0
SPLINE
  5
2C4
100
AcDbEntity
  8
0
100
AcDbSpline
 62
7
  6
CONTINUOUS
 70
0
 71
3
 72
9
 73
5
 74
0
 42
0.0000001
 43
0.0000001
 44
0.0000000001
 40
0.0
 40
0.0
 40
0.0
 40
0.0
 40
0.4938180529
 40
1.0
 40
1.0
 40
1.0
 40
1.0
 10
43.9325678983
 20
256.503316907
 30
0.0
 10
44.1173202054
 20
267.4398147795
 30
0.0
 10
44.4835570724
 20
289.5867954739
 30
0.0
 10
44.7104788443
 20
311.7358962199
 30
0.0
 10
44.7743067405
 20
322.9476327905
 30
0.0
  0
SPLINE
  5
2C5
100
AcDbEntity
  8
0
100
AcDbSpline
 62
7
  6
CONTINUOUS
 70
0
 71
3
 72
9
 73
5
 74
0
 42
0.0000001
 43
0.0000001
 44
0.0000000001
 40
0.0
 40
0.0
 40
0.0
 40
0.0
 40
0.4711231462
 40
1.0
 40
1.0
 40
1.0
 40
1.0
 10
43.3602999178
 20
228.0388992165
 30
0.0
 10
43.4451340211
 20
232.5090823672
 30
0.0
 10
43.6651791299
 20
241.9966090966
 30
0.0
 10
43.8545130664
 20
251.4848495355
 30
0.0
 10
43.9325678983
 20
256.503316907
 30
0.0
  0
SPLINE
  5
2C6
100
AcDbEntity
  8
0
100
AcDbSpline
 62
7
  6
CONTINUOUS
 70
0
 71
3
 72
9
 73
5
 74
0
 42
0.0000001
 43
0.0000001
 44
0.0000000001
 40
0.0
 40
0.0
 40
0.0
 40
0.0
 40
0.4938476293
 40
1.0
 40
1.0
 40
1.0
 40
1.0
 10
44.9190626235
 20
256.5033153667
 30
0.0
 10
45.0984623034
 20
267.2881898513
 30
0.0
 10
45.4577506454
 20
289.1267655897
 30
0.0
 10
45.6746265456
 20
310.967437826
 30
0.0
 10
45.7393712932
 20
322.022368563
 30
0.0
  0
SPLINE
  5
2C7
100
AcDbEntity
  8
0
100
AcDbSpline
 62
7
  6
CONTINUOUS
 70
0
 71
3
 72
9
 73
5
 74
0
 42
0.0000001
 43
0.0000001
 44
0.0000000001
 40
0.0
 40
0.0
 40
0.0
 40
0.0
 40
0.4711218173
 40
1.0
 40
1.0
 40
1.0
 40
1.0
 10
44.356833402
 20
228.0376420816
 30
0.0
 10
44.4397410005
 20
232.5080142575
 30
0.0
 10
44.6558246988
 20
241.9959842043
 30
0.0
 10
44.842192218
 20
251.484631205
 30
0.0
 10
44.9190545442
 20
256.5033153667
 30
0.0
  0
SPLINE
  5
2C8
100
AcDbEntity
  8
0
100
AcDbSpline
 62
7
  6
CONTINUOUS
 70
0
 71
3
 72
16
 73
12
 74
0
 42
0.0000001
 43
0.0000001
 44
0.0000000001
 40
0.0
 40
0.0
 40
0.0
 40
0.0
 40
0.0060972516
 40
0.020780189
 40
0.0443588775
 40
0.0767714161
 40
0.1671556783
 40
0.2892036589
 40
0.4388427922
 40
0.6110697671
 40
1.0
 40
1.0
 40
1.0
 40
1.0
 10
43.5332749271
 20
262.6617975431
 30
0.0
 10
43.5397111749
 20
262.6617888372
 30
0.0
 10
43.5505574856
 20
262.6882503809
 30
0.0
 10
43.5627952957
 20
262.72772147
 30
0.0
 10
43.5768470483
 20
262.8041407024
 30
0.0
 10
43.594971064
 20
262.9558642453
 30
0.0
 10
43.6107984413
 20
263.2152315124
 30
0.0
 10
43.6285728436
 20
263.5963925662
 30
0.0
 10
43.6453992365
 20
264.0649270994
 30
0.0
 10
43.663399591
 20
264.8149405282
 30
0.0
 10
43.6696903381
 20
265.4073378314
 30
0.0
 10
43.6713480359
 20
265.8178889075
 30
0.0
  0
SPLINE
  5
2C9
100
AcDbEntity
  8
0
100
AcDbSpline
 62
7
  6
CONTINUOUS
 70
0
 71
3
 72
16
 73
12
 74
0
 42
0.0000001
 43
0.0000001
 44
0.0000000001
 40
0.0
 40
0.0
 40
0.0
 40
0.0
 40
0.38894549
 40
0.5611736847
 40
0.7108094469
 40
0.8328541338
 40
0.9232301812
 40
0.9556400714
 40
0.9792172387
 40
0.9939005647
 40
1.0
 40
1.0
 40
1.0
 40
1.0
 10
43.6713475638
 20
266.5057798677
 30
0.0
 10
43.6696891259
 20
266.9163393828
 30
0.0
 10
43.6633951117
 20
267.5087428692
 30
0.0
 10
43.6454022521
 20
268.2587564804
 30
0.0
 10
43.6285722943
 20
268.727276029
 30
0.0
 10
43.6107661129
 20
269.1084140977
 30
0.0
 10
43.5949728971
 20
269.3677600122
 30
0.0
 10
43.5769016932
 20
269.5194769191
 30
0.0
 10
43.5628419853
 20
269.5958856581
 30
0.0
 10
43.5505794628
 20
269.6353584577
 30
0.0
 10
43.5397133598
 20
269.6618059345
 30
0.0
 10
43.5332749271
 20
269.6617972303
 30
0.0
  0
SPLINE
  5
2CA
100
AcDbEntity
  8
0
100
AcDbSpline
 62
7
  6
CONTINUOUS
 70
0
 71
3
 72
14
 73
10
 74
0
 42
0.0000001
 43
0.0000001
 44
0.0000000001
 40
0.0
 40
0.0
 40
0.0
 40
0.0
 40
0.3786523574
 40
0.5497550444
 40
0.6996503978
 40
0.8229004599
 40
0.915302212
 40
0.9738095632
 40
1.0
 40
1.0
 40
1.0
 40
1.0
 10
46.4371485934
 20
215.3617973867
 30
0.0
 10
46.4371485934
 20
215.0166516694
 30
0.0
 10
46.4453885605
 20
214.5152668703
 30
0.0
 10
46.4751550458
 20
213.8786446123
 30
0.0
 10
46.5048733109
 20
213.4736292729
 30
0.0
 10
46.5388506447
 20
213.1452223953
 30
0.0
 10
46.5819614396
 20
212.8910468468
 30
0.0
 10
46.61602172
 20
212.7483855463
 30
0.0
 10
46.6619652106
 20
212.6618236946
 30
0.0
 10
46.6858380637
 20
212.6617985575
 30
0.0
  0
SPLINE
  5
2CB
100
AcDbEntity
  8
0
100
AcDbSpline
 62
7
  6
CONTINUOUS
 70
0
 71
3
 72
14
 73
10
 74
0
 42
0.0000001
 43
0.0000001
 44
0.0000000001
 40
0.0
 40
0.0
 40
0.0
 40
0.0
 40
0.3781407352
 40
0.5489370809
 40
0.6986266238
 40
0.8218199683
 40
0.9141185609
 40
0.9729635468
 40
1.0
 40
1.0
 40
1.0
 40
1.0
 10
46.685836503
 20
351.8617973867
 30
0.0
 10
46.685836503
 20
351.3502918691
 30
0.0
 10
46.6987269217
 20
350.6073733096
 30
0.0
 10
46.7453218555
 20
349.6640057365
 30
0.0
 10
46.7921705123
 20
349.0641892493
 30
0.0
 10
46.8453307446
 20
348.576899583
 30
0.0
 10
46.9142067981
 20
348.2018844582
 30
0.0
 10
46.9675444971
 20
347.9864755679
 30
0.0
 10
47.0422725015
 20
347.8618755449
 30
0.0
 10
47.0788443193
 20
347.8618890297
 30
0.0
  0
ELLIPSE
  5
2CC
100
AcDbEntity
  8
0
100
AcDbEllipse
 62
7
  6
CONTINUOUS
 10
3763.8117886799
 20
343.7826597712
 30
0.0
 11
3729.6505607715
 21
0.0
 31
0.0
 40
0.0741026057
 41
-3.0661347599
 42
-3.0627770524
  0
ENDSEC
  0
SECTION
  2
OBJECTS
  0
DICTIONARY
  5
C
100
AcDbDictionary
280
0
281
1
  3
ACAD_GROUP
350
D
  3
ACAD_MLINESTYLE
350
17
  3
ACAD_LAYOUT
350
1A
  3
ACAD_PLOTSETTINGS
350
19
  3
ACAD_PLOTSTYLENAME
350
E
  0
DICTIONARY
  5
D
102
{ACAD_REACTORS
330
C
102
}
100
AcDbDictionary
280
0
281
1
  0
ACDBDICTIONARYWDFLT
  5
E
102
{ACAD_REACTORS
330
C
102
}
100
AcDbDictionary
281
1
  3
Normal
350
F
100
AcDbDictionaryWithDefault
340
F
  0
DICTIONARY
  5
17
102
{ACAD_REACTORS
330
C
102
}
100
AcDbDictionary
280
0
281
1
  3
Standard
350
18
  0
DICTIONARY
  5
19
102
{ACAD_REACTORS
330
C
102
}
100
AcDbDictionary
281
1
  0
DICTIONARY
  5
1A
102
{ACAD_REACTORS
330
C
102
}
100
AcDbDictionary
281
1
  3
Model
350
2CD
  3
Layout1
350
2CE
  0
ACDBPLACEHOLDER
  5
F
102
{ACAD_REACTORS
330
E
102
}
  0
MLINESTYLE
  5
18
102
{ACAD_REACTORS
330
17
102
}
100
AcDbMlineStyle
  2
STANDARD
 70
0
  3

 62
256
 51
90.0
 52
90.0
 71
2
 49
0.5
 62
256
  6
BYLAYER
 49
-0.5
 62
256
  6
BYLAYER
  0
LAYOUT
  5
2CD
102
{ACAD_REACTORS
330
1A
102
}
100
AcDbPlotSettings
  1

  2
none_device
  4

  6

 40
0.0
 41
0.0
 42
0.0
 43
0.0
 44
210.0
 45
297.0
 46
0.0
 47
0.0
 48
0.0
 49
0.0
140
0.0
141
0.0
142
1.0
143
1.0
 70
1024
 72
1
 73
0
 74
0
  7

 75
0
147
1.0
148
0.0
149
0.0
100
AcDbLayout
  1
Model
 70
0
 71
0
 10
0.0
 20
0.0
 11
210.0
 21
297.0
 12
0.0
 22
0.0
 32
0.0
 14
0.0
 24
0.0
 34
0.0
 15
0.0
 25
0.0
 35
0.0
146
0.0
 13
0.0
 23
0.0
 33
0.0
 16
1.0
 26
0.0
 36
0.0
 17
0.0
 27
1.0
 37
0.0
 76
0
330
210
345
0
346
0
  0
LAYOUT
  5
2CE
102
{ACAD_REACTORS
330
1A
102
}
100
AcDbPlotSettings
  1

  2
none_device
  4

  6

 40
0.0
 41
0.0
 42
0.0
 43
0.0
 44
210.0
 45
297.0
 46
0.0
 47
0.0
 48
0.0
 49
0.0
140
0.0
141
0.0
142
1.0
143
1.0
 70
0
 72
1
 73
0
 74
0
  7

 75
0
147
1.0
148
0.0
149
0.0
100
AcDbLayout
  1
Layout1
 70
0
 71
1
 10
0.0
 20
0.0
 11
210.0
 21
297.0
 12
0.0
 22
0.0
 32
0.0
 14
0.0
 24
0.0
 34
0.0
 15
0.0
 25
0.0
 35
0.0
146
0.0
 13
0.0
 23
0.0
 33
0.0
 16
1.0
 26
0.0
 36
0.0
 17
0.0
 27
1.0
 37
0.0
 76
0
330
211
345
0
346
0
  0
ENDSEC
  0
EOF
