999
DXF file: C:\Users\sesa63760\Dev\_Creo\CAD\MCADPD0005318_3D-CAD\drw0001_1.dxf
999
Pro/ENGINEER 2019471 by Parametric Technology Corporation
  0
SECTION
  2
HEADER
  9
$ACADVER
  1
AC1024
  9
$DWGCODEPAGE
  3
ANSI_1252
  9
$EXTMAX
 10
259.7845327377
 20
367.4095534433
 30
0.0
  9
$EXTMIN
 10
0.0
 20
0.0
 30
0.0
  9
$LIMMIN
 10
0.0
 20
0.0
  9
$LIMMAX
 10
259.7845327377
 20
367.4095534433
  9
$VIEWCTR
 10
129.8922663688
 20
183.7047767217
  9
$VIEWSIZE
 40
367.4095534433
  9
$CLAYER
  8
0
  9
$LTSCALE
 40
23.94965978
  9
$CELTYPE
  6
BYLAYER
  9
$DIMSCALE
 40
1.0
  9
$DIMASZ
 40
3.0926730088
  9
$DIMEXO
 40
1.0
  9
$DIMDLI
 40
16.5470376662
  9
$DIMEXE
 40
1.0
  9
$DIMCEN
 40
3.9190352367
  9
$DIMLFAC
 40
1.0
  9
$DIMBLK
  1
_FILLED
  9
$DIMALT
 70
0
  9
$DIMALTF
 40
0.0393700787
  9
$DIMTXT
 40
4.3297422123
  9
$DIMTOL
 70
1
  9
$DIMLIM
 70
0
  9
$DIMTFAC
 40
1.0
  9
$DIMTP
 40
0.01
  9
$DIMTM
 40
0.01
  9
$DIMGAP
 40
0.625
  9
$DIMDSEP
 70
46
  9
$AUNITS
 70
0
  9
$PDMODE
 70
3
  9
$PDSIZE
 40
0.3125
  9
$HANDSEED
  5
3C4
  9
$TILEMODE
 70
1
  9
$MEASUREMENT
 70
1
  9
$INSUNITS
 70
4
  0
ENDSEC
  0
SECTION
  2
CLASSES
  0
CLASS
  1
ACDBDICTIONARYWDFLT
  2
AcDbDictionaryWithDefault
  3
AutoCAD 2000
 90
0
 91
1
280
0
281
0
  0
CLASS
  1
ACDBPLACEHOLDER
  2
AcDbPlaceHolder
  3
AutoCAD 2000
 90
0
 91
1
280
0
281
0
  0
CLASS
  1
LAYOUT
  2
AcDbLayout
  3
AutoCAD 2000
 90
0
 91
0
280
0
281
0
  0
ENDSEC
  0
SECTION
  2
TABLES
  0
TABLE
  2
VPORT
  5
8
100
AcDbSymbolTable
 70
2
  0
VPORT
  5
1F4
100
AcDbSymbolTableRecord
100
AcDbViewportTableRecord
  2
*ACTIVE
 70
0
 10
0.0
 20
0.0
 11
1.0
 21
1.0
 12
129.8922663688
 22
183.7047767217
 13
0.0
 23
0.0
 14
1.0
 24
1.0
 15
0.0
 25
0.0
 16
0.0
 26
0.0
 36
1.0
 17
0.0
 27
0.0
 37
0.0
 40
367.4095534433
 41
0.7070707071
 42
50.0
 43
0.0
 44
0.0
 50
0.0
 51
0.0
 71
0
 72
100
 73
1
 74
1
 75
0
 76
0
 77
0
 78
0
  0
ENDTAB
  0
TABLE
  2
LTYPE
  5
5
100
AcDbSymbolTable
 70
6
  0
LTYPE
  5
14
100
AcDbSymbolTableRecord
100
AcDbLinetypeTableRecord
  2
BYBLOCK
 70
0
  3

 72
65
 73
0
 40
0.0
  0
LTYPE
  5
15
100
AcDbSymbolTableRecord
100
AcDbLinetypeTableRecord
  2
BYLAYER
 70
0
  3

 72
65
 73
0
 40
0.0
  0
LTYPE
  5
16
100
AcDbSymbolTableRecord
100
AcDbLinetypeTableRecord
  2
CONTINUOUS
 70
64
  3
Solid line
 72
65
 73
0
 40
0.0
  0
LTYPE
  5
1F5
100
AcDbSymbolTableRecord
100
AcDbLinetypeTableRecord
  2
CENTER
 70
64
  3
____ _ ____ _ ____ _ ____ _ ____ _ ____ _ ____
 72
65
 73
4
 40
0.6
 49
0.375
 74
0
 49
-0.075
 74
0
 49
0.075
 74
0
 49
-0.075
 74
0
  0
LTYPE
  5
1F6
100
AcDbSymbolTableRecord
100
AcDbLinetypeTableRecord
  2
HIDDEN
 70
64
  3
- - - - - - - - - - - - - - - - - - - -
 72
65
 73
2
 40
0.2
 49
0.1
 74
0
 49
-0.1
 74
0
  0
LTYPE
  5
1F7
100
AcDbSymbolTableRecord
100
AcDbLinetypeTableRecord
  2
PHANTOM
 70
64
  3
_____ _ _ _____ _ _ _____ _ _ _____
 72
65
 73
6
 40
0.8
 49
0.45
 74
0
 49
-0.05
 74
0
 49
0.1
 74
0
 49
-0.05
 74
0
 49
0.1
 74
0
 49
-0.05
 74
0
  0
LTYPE
  5
1F8
100
AcDbSymbolTableRecord
100
AcDbLinetypeTableRecord
  2
DOT
 70
64
  3
. . . . . . . . . . . . . . . . . . . .
 72
65
 73
2
 40
0.2
 49
0.1
 74
0
 49
-0.1
 74
0
  0
LTYPE
  5
1F9
100
AcDbSymbolTableRecord
100
AcDbLinetypeTableRecord
  2
DASHED
 70
64
  3
- - - - - - - - - - - - - - - - - - - -
 72
65
 73
2
 40
0.2
 49
0.1
 74
0
 49
-0.1
 74
0
  0
ENDTAB
  0
TABLE
  2
LAYER
  5
2
100
AcDbSymbolTable
 70
36
  0
LAYER
  5
10
100
AcDbSymbolTableRecord
100
AcDbLayerTableRecord
  2
0
 70
0
 62
7
  6
CONTINUOUS
370
-3
390
F
  0
LAYER
  5
1FA
100
AcDbSymbolTableRecord
100
AcDbLayerTableRecord
  2
DEFAULT_1
 70
0
 62
7
  6
CENTER
370
-3
390
F
  0
LAYER
  5
1FB
100
AcDbSymbolTableRecord
100
AcDbLayerTableRecord
  2
DEFAULT_2
 70
0
 62
7
  6
HIDDEN
370
-3
390
F
  0
LAYER
  5
1FC
100
AcDbSymbolTableRecord
100
AcDbLayerTableRecord
  2
DEFAULT_3
 70
0
 62
7
  6
PHANTOM
370
-3
390
F
  0
LAYER
  5
1FD
100
AcDbSymbolTableRecord
100
AcDbLayerTableRecord
  2
00_COMPONENTS
 70
0
 62
7
  6
CONTINUOUS
370
-3
390
F
  0
LAYER
  5
1FE
100
AcDbSymbolTableRecord
100
AcDbLayerTableRecord
  2
01_1_DEFAULT_DATUMS
 70
0
 62
7
  6
CONTINUOUS
370
-3
390
F
  0
LAYER
  5
1FF
100
AcDbSymbolTableRecord
100
AcDbLayerTableRecord
  2
01_PLANES
 70
0
 62
7
  6
CONTINUOUS
370
-3
390
F
  0
LAYER
  5
200
100
AcDbSymbolTableRecord
100
AcDbLayerTableRecord
  2
02_COORD_SYS
 70
0
 62
7
  6
CONTINUOUS
370
-3
390
F
  0
LAYER
  5
201
100
AcDbSymbolTableRecord
100
AcDbLayerTableRecord
  2
03_AXES
 70
0
 62
7
  6
CONTINUOUS
370
-3
390
F
  0
LAYER
  5
202
100
AcDbSymbolTableRecord
100
AcDbLayerTableRecord
  2
04_POINTS
 70
0
 62
7
  6
CONTINUOUS
370
-3
390
F
  0
LAYER
  5
203
100
AcDbSymbolTableRecord
100
AcDbLayerTableRecord
  2
05_CURVES
 70
0
 62
7
  6
CONTINUOUS
370
-3
390
F
  0
LAYER
  5
204
100
AcDbSymbolTableRecord
100
AcDbLayerTableRecord
  2
06_SURFS
 70
0
 62
7
  6
CONTINUOUS
370
-3
390
F
  0
LAYER
  5
205
100
AcDbSymbolTableRecord
100
AcDbLayerTableRecord
  2
07_COSMETICS
 70
0
 62
7
  6
CONTINUOUS
370
-3
390
F
  0
LAYER
  5
206
100
AcDbSymbolTableRecord
100
AcDbLayerTableRecord
  2
10_NOTES
 70
0
 62
7
  6
CONTINUOUS
370
-3
390
F
  0
LAYER
  5
207
100
AcDbSymbolTableRecord
100
AcDbLayerTableRecord
  2
11_NOTES_PUB
 70
0
 62
7
  6
CONTINUOUS
370
-3
390
F
  0
LAYER
  5
208
100
AcDbSymbolTableRecord
100
AcDbLayerTableRecord
  2
13_REF_GTOL
 70
0
 62
7
  6
CONTINUOUS
370
-3
390
F
  0
LAYER
  5
209
100
AcDbSymbolTableRecord
100
AcDbLayerTableRecord
  2
16_MISC
 70
0
 62
7
  6
CONTINUOUS
370
-3
390
F
  0
LAYER
  5
20A
100
AcDbSymbolTableRecord
100
AcDbLayerTableRecord
  2
17_NO_PRINT
 70
0
 62
7
  6
CONTINUOUS
370
-3
390
F
  0
LAYER
  5
20B
100
AcDbSymbolTableRecord
100
AcDbLayerTableRecord
  2
18_DATUM_CAMS_JOINTS
 70
0
 62
7
  6
CONTINUOUS
370
-3
390
F
  0
LAYER
  5
20C
100
AcDbSymbolTableRecord
100
AcDbLayerTableRecord
  2
19_DATUM_FUNCTIONAL
 70
0
 62
7
  6
CONTINUOUS
370
-3
390
F
  0
LAYER
  5
20D
100
AcDbSymbolTableRecord
100
AcDbLayerTableRecord
  2
20_DATUM_KINEMATIC_SCHEME
 70
0
 62
7
  6
CONTINUOUS
370
-3
390
F
  0
ENDTAB
  0
TABLE
  2
STYLE
  5
3
100
AcDbSymbolTable
 70
1
  0
STYLE
  5
11
100
AcDbSymbolTableRecord
100
AcDbTextStyleTableRecord
  2
STANDARD
 70
0
 40
0.0
 41
1.0
 50
0.0
 71
0
 42
0.2
  3
ARIAL.TTF
  4

  0
STYLE
  5
20E
100
AcDbSymbolTableRecord
100
AcDbTextStyleTableRecord
  2
TEXTSTYLE_1
 70
0
 40
0.0
 41
0.8
 50
0.0
 71
0
 42
0.2
  3
gdt
  4

  0
ENDTAB
  0
TABLE
  2
VIEW
  5
6
100
AcDbSymbolTable
 70
0
  0
ENDTAB
  0
TABLE
  2
UCS
  5
7
100
AcDbSymbolTable
 70
0
  0
ENDTAB
  0
TABLE
  2
APPID
  5
9
100
AcDbSymbolTable
 70
1
  0
APPID
  5
20F
100
AcDbSymbolTableRecord
100
AcDbRegAppTableRecord
  2
ACAD
 70
0
  0
ENDTAB
  0
TABLE
  2
BLOCK_RECORD
  5
1
100
AcDbSymbolTable
 70
0
  0
BLOCK_RECORD
  5
210
100
AcDbSymbolTableRecord
100
AcDbBlockTableRecord
  2
*Model_Space
  0
BLOCK_RECORD
  5
211
100
AcDbSymbolTableRecord
100
AcDbBlockTableRecord
  2
*Paper_Space
  0
BLOCK_RECORD
  5
212
100
AcDbSymbolTableRecord
100
AcDbBlockTableRecord
  2
_FILLED
  0
ENDTAB
  0
TABLE
  2
DIMSTYLE
  5
A
100
AcDbSymbolTable
 70
1
100
AcDbDimStyleTable
 71
0
  0
DIMSTYLE
105
213
100
AcDbSymbolTableRecord
100
AcDbDimStyleTableRecord
  2
STANDARD
 70
0
  3

  4

 40
1.0
 41
3.0926730088
 42
1.0
 43
0.38
 44
1.0
 45
0.0
 46
0.0
 47
0.01
 48
0.01
140
4.3297422123
141
0.09
142
0.0
143
25.4
144
1.0
145
0.0
146
1.0
147
0.625
 71
1
 72
0
 73
0
 74
0
 75
0
 76
0
 77
1
 78
8
 79
2
170
0
171
1
172
0
173
0
174
0
175
0
176
0
177
0
178
0
270
2
179
2
271
2
272
2
273
2
274
2
275
0
280
0
281
0
282
0
283
1
284
8
285
0
286
0
287
3
288
0
340
11
278
46
341
212
342
212
343
212
344
212
  0
ENDTAB
  0
ENDSEC
  0
SECTION
  2
BLOCKS
  0
BLOCK
  5
20
100
AcDbEntity
  8
0
100
AcDbBlockBegin
  2
*Model_Space
 70
0
 10
0.0
 20
0.0
 30
0.0
  3
*Model_Space
  1

  0
ENDBLK
  5
21
100
AcDbEntity
  8
0
100
AcDbBlockEnd
  0
BLOCK
  5
1C
100
AcDbEntity
  8
0
100
AcDbBlockBegin
  2
*Paper_Space
 70
0
 10
0.0
 20
0.0
 30
0.0
  3
*Paper_Space
  1

  0
ENDBLK
  5
1D
100
AcDbEntity
  8
0
100
AcDbBlockEnd
  0
BLOCK
  5
214
100
AcDbEntity
  8
0
100
AcDbBlockBegin
  2
_FILLED
 70
64
 10
0.0
 20
0.0
  3
_FILLED
  1

  0
SOLID
  5
215
100
AcDbEntity
  8
0
  6
BYBLOCK
 62
0
100
AcDbTrace
 10
0.0
 20
0.0
 11
-1.0
 21
0.25
 12
-1.0
 22
-0.25
 13
-1.0
 23
-0.25
  0
ENDBLK
  5
216
100
AcDbEntity
  8
0
  6
BYBLOCK
 62
0
100
AcDbBlockEnd
  0
ENDSEC
  0
SECTION
  2
ENTITIES
  0
LINE
  5
217
100
AcDbEntity
  8
0
100
AcDbLine
 62
7
  6
BYLAYER
 10
134.1726244184
 20
33.0928046296
 11
135.2332801742
 21
33.3769991154
  0
LINE
  5
218
100
AcDbEntity
  8
0
100
AcDbLine
 62
7
  6
BYLAYER
 10
124.2731353698
 20
39.0532659879
 11
122.7175069279
 21
39.3798824751
  0
LINE
  5
219
100
AcDbEntity
  8
0
100
AcDbLine
 62
7
  6
BYLAYER
 10
122.7626542296
 20
336.5470887201
 11
120.261393218
 21
335.1029936218
  0
LINE
  5
21A
100
AcDbEntity
  8
0
100
AcDbLine
 62
7
  6
BYLAYER
 10
124.909358662
 20
337.1332910576
 11
123.2830198364
 21
336.1943295037
  0
LINE
  5
21B
100
AcDbEntity
  8
0
100
AcDbLine
 62
7
  6
BYLAYER
 10
120.8788667899
 20
334.8062993806
 11
119.2525279643
 21
333.8673378267
  0
LINE
  5
21C
100
AcDbEntity
  8
0
100
AcDbLine
 62
7
  6
BYLAYER
 10
119.5353718544
 20
333.7040415248
 11
121.0202899125
 21
334.561354248
  0
LINE
  5
21D
100
AcDbEntity
  8
0
100
AcDbLine
 62
7
  6
BYLAYER
 10
123.7072844939
 20
336.1126820327
 11
125.1922025521
 21
336.9699947558
  0
LINE
  5
21E
100
AcDbEntity
  8
0
100
AcDbLine
 62
7
  6
BYLAYER
 10
117.8383202899
 20
331.0095934761
 11
118.1211641799
 21
331.1728924974
  0
LINE
  5
21F
100
AcDbEntity
  8
0
100
AcDbLine
 62
7
  6
BYLAYER
 10
104.6861959832
 20
50.3615348881
 11
103.1305675413
 21
50.6881513753
  0
LINE
  5
220
100
AcDbEntity
  8
0
100
AcDbLine
 62
7
  6
BYLAYER
 10
131.9098921393
 20
28.3571131852
 11
102.2112836831
 21
45.5032248751
  0
LINE
  5
221
100
AcDbEntity
  8
0
100
AcDbLine
 62
7
  6
BYLAYER
 10
120.5961954163
 20
38.1551500134
 11
118.9698430484
 21
39.0941037488
  0
LINE
  5
222
100
AcDbEntity
  8
0
100
AcDbLine
 62
7
  6
BYLAYER
 10
115.1514505326
 20
41.2986038232
 11
111.898745797
 21
43.176511294
  0
LINE
  5
223
100
AcDbEntity
  8
0
100
AcDbLine
 62
7
  6
BYLAYER
 10
108.0803532812
 20
45.3810113685
 11
104.8276485455
 21
47.2589188392
  0
LINE
  5
224
100
AcDbEntity
  8
0
100
AcDbLine
 62
7
  6
BYLAYER
 10
101.0092560297
 20
49.4634189137
 11
99.3829036619
 21
50.4023726491
  0
LINE
  5
225
100
AcDbEntity
  8
0
100
AcDbLine
 62
7
  6
BYLAYER
 10
134.2419490989
 20
33.9493314307
 11
135.2332801742
 21
33.3769991154
  0
LINE
  5
226
100
AcDbEntity
  8
0
100
AcDbLine
 62
7
  6
BYLAYER
 10
110.2305698259
 20
308.6656121194
 11
91.8117850971
 21
298.0315852747
  0
LINE
  5
227
100
AcDbEntity
  8
0
100
AcDbLine
 62
7
  6
BYLAYER
 10
110.1339360336
 20
308.2716245084
 11
92.3117828587
 21
297.9820609957
  0
LINE
  5
228
100
AcDbEntity
  8
0
100
AcDbLine
 62
7
  6
BYLAYER
 10
109.9895230434
 20
50.9534981112
 11
111.8898265561
 21
49.8563821867
  0
LINE
  5
229
100
AcDbEntity
  8
0
100
AcDbLine
 62
7
  6
BYLAYER
 10
117.0606202948
 20
46.871090566
 11
118.9609238076
 21
45.7739746415
  0
LINE
  5
22A
100
AcDbEntity
  8
0
100
AcDbLine
 62
7
  6
BYLAYER
 10
149.7642595021
 20
43.1152136303
 11
149.9410399882
 21
43.013151678
  0
LINE
  5
22B
100
AcDbEntity
  8
0
100
AcDbLine
 62
7
  6
BYLAYER
 10
120.5961954163
 20
63.7545250131
 11
99.3829036619
 21
76.0017476487
  0
LINE
  5
22C
100
AcDbEntity
  8
0
100
AcDbLine
 62
7
  6
BYLAYER
 10
99.4536140456
 20
76.1839944312
 11
120.6669058
 21
63.9367717956
  0
LINE
  5
22D
100
AcDbEntity
  8
0
100
AcDbLine
 62
7
  6
BYLAYER
 10
159.133389872
 20
44.0745131093
 11
155.4563557612
 21
46.1974017168
  0
LINE
  5
22E
100
AcDbEntity
  8
0
100
AcDbLine
 62
7
  6
BYLAYER
 10
122.6846901246
 20
66.4469379303
 11
101.4713983702
 21
78.6941605659
  0
LINE
  5
22F
100
AcDbEntity
  8
0
100
AcDbLine
 62
7
  6
BYLAYER
 10
101.5421087539
 20
78.7568630976
 11
122.7554005083
 21
66.509640462
  0
LINE
  5
230
100
AcDbEntity
  8
0
100
AcDbLine
 62
7
  6
BYLAYER
 10
93.4431448766
 20
278.2063489092
 11
104.1349246437
 21
284.3792139888
  0
LINE
  5
231
100
AcDbEntity
  8
0
100
AcDbLine
 62
7
  6
BYLAYER
 10
127.6672337884
 20
69.3454718009
 11
126.9601240633
 21
69.7537125554
  0
LINE
  5
232
100
AcDbEntity
  8
0
100
AcDbLine
 62
7
  6
BYLAYER
 10
107.1610517591
 20
81.1844536819
 11
106.453942034
 21
81.5926944365
  0
LINE
  5
233
100
AcDbEntity
  8
0
100
AcDbLine
 62
7
  6
BYLAYER
 10
161.6082533023
 20
52.1986874683
 11
164.4366686511
 21
50.5656544153
  0
LINE
  5
234
100
AcDbEntity
  8
0
100
AcDbLine
 62
7
  6
BYLAYER
 10
100.0899721715
 20
90.1659282561
 11
100.7970818966
 21
89.7576875016
  0
LINE
  5
235
100
AcDbEntity
  8
0
100
AcDbLine
 62
7
  6
BYLAYER
 10
113.277505839
 20
83.8992807045
 11
126.9601240633
 21
75.9997960998
  0
LINE
  5
236
100
AcDbEntity
  8
0
100
AcDbLine
 62
7
  6
BYLAYER
 10
156.9100265741
 20
91.8870002913
 11
166.1995335506
 21
92.3562439759
  0
LINE
  5
237
100
AcDbEntity
  8
0
100
AcDbLine
 62
7
  6
BYLAYER
 10
166.1995335506
 20
93.8259483268
 11
156.9100265741
 21
93.3567046421
  0
LINE
  5
238
100
AcDbEntity
  8
0
100
AcDbLine
 62
7
  6
BYLAYER
 10
161.6082533023
 20
91.3908034905
 11
162.8508939894
 21
91.3908064774
  0
LINE
  5
239
100
AcDbEntity
  8
0
100
AcDbLine
 62
7
  6
BYLAYER
 10
103.2719482708
 20
95.5140136053
 11
107.1610517591
 21
93.2686894555
  0
LINE
  5
23A
100
AcDbEntity
  8
0
100
AcDbLine
 62
7
  6
BYLAYER
 10
126.9601240633
 20
81.8379483289
 11
130.8492275516
 21
79.592624179
  0
LINE
  5
23B
100
AcDbEntity
  8
0
100
AcDbLine
 62
7
  6
BYLAYER
 10
113.277505839
 20
95.9835164781
 11
131.6623586928
 21
85.3692568605
  0
LINE
  5
23C
100
AcDbEntity
  8
0
100
AcDbLine
 62
7
  6
BYLAYER
 10
133.3241469172
 20
274.3040972335
 11
171.5077541267
 21
296.3492815426
  0
LINE
  5
23D
100
AcDbEntity
  8
0
100
AcDbLine
 62
7
  6
BYLAYER
 10
172.2148638589
 20
295.124538375
 11
134.0312566292
 21
273.0793540543
  0
LINE
  5
23E
100
AcDbEntity
  8
0
100
AcDbLine
 62
7
  6
BYLAYER
 10
97.6200034348
 20
98.4269439202
 11
106.9095104113
 21
98.8961876049
  0
LINE
  5
23F
100
AcDbEntity
  8
0
100
AcDbLine
 62
7
  6
BYLAYER
 10
163.9182586604
 20
51.8311077117
 11
161.6082533023
 21
53.7091066039
  0
LINE
  5
240
100
AcDbEntity
  8
0
100
AcDbLine
 62
7
  6
BYLAYER
 10
161.6082533023
 20
55.703366206
 11
165.4998401197
 21
52.5395658684
  0
LINE
  5
241
100
AcDbEntity
  8
0
100
AcDbLine
 62
7
  6
BYLAYER
 10
111.0305285761
 20
81.2865283843
 11
111.6057905751
 21
80.4846562849
  0
LINE
  5
242
100
AcDbEntity
  8
0
100
AcDbLine
 62
7
  6
BYLAYER
 10
145.4184640247
 20
323.0081473538
 11
144.9205874354
 21
322.3141380711
  0
LINE
  5
243
100
AcDbEntity
  8
0
100
AcDbLine
 62
7
  6
BYLAYER
 10
172.2148638516
 20
291.6135779771
 11
134.0312566354
 21
269.5683936642
  0
LINE
  5
244
100
AcDbEntity
  8
0
100
AcDbLine
 62
7
  6
BYLAYER
 10
131.9097861565
 20
105.1080252381
 11
127.6671278056
 21
107.5574697652
  0
LINE
  5
245
100
AcDbEntity
  8
0
100
AcDbLine
 62
7
  6
BYLAYER
 10
150.5420311464
 20
96.2693757689
 11
138.4097684927
 21
103.2737824171
  0
LINE
  5
246
100
AcDbEntity
  8
0
100
AcDbLine
 62
7
  6
BYLAYER
 10
114.9588353597
 20
81.2865282514
 11
114.3835733606
 21
82.0884003508
  0
LINE
  5
247
100
AcDbEntity
  8
0
100
AcDbLine
 62
7
  6
BYLAYER
 10
118.1016258276
 20
77.2041208391
 11
118.6768878266
 21
76.4022487397
  0
LINE
  5
248
100
AcDbEntity
  8
0
100
AcDbLine
 62
7
  6
BYLAYER
 10
122.0299326112
 20
77.2041207062
 11
121.4546706121
 21
78.0059928056
  0
LINE
  5
249
100
AcDbEntity
  8
0
100
AcDbLine
 62
7
  6
BYLAYER
 10
125.172723079
 20
73.1217132939
 11
125.7479850781
 21
72.3198411945
  0
LINE
  5
24A
100
AcDbEntity
  8
0
100
AcDbLine
 62
7
  6
BYLAYER
 10
170.3763921087
 20
274.1241092919
 11
135.4454625504
 21
253.9568480907
  0
LINE
  5
24B
100
AcDbEntity
  8
0
100
AcDbLine
 62
7
  6
BYLAYER
 10
170.3763921087
 20
268.408592372
 11
154.6786869226
 21
259.3455721561
  0
LINE
  5
24C
100
AcDbEntity
  8
0
100
AcDbLine
 62
7
  6
BYLAYER
 10
152.9109273296
 20
258.3249617714
 11
135.4454625504
 21
248.2413311708
  0
LINE
  5
24D
100
AcDbEntity
  8
0
100
AcDbLine
 62
7
  6
BYLAYER
 10
136.1524091798
 20
110.8231234848
 11
136.8594129221
 21
110.4149439181
  0
LINE
  5
24E
100
AcDbEntity
  8
0
100
AcDbLine
 62
7
  6
BYLAYER
 10
156.6584852262
 20
98.9842027915
 11
160.5475887146
 21
96.7388786416
  0
LINE
  5
24F
100
AcDbEntity
  8
0
100
AcDbLine
 62
7
  6
BYLAYER
 10
131.9552331627
 20
84.9610127067
 11
131.6623586928
 21
85.3692568605
  0
LINE
  5
250
100
AcDbEntity
  8
0
100
AcDbLine
 62
7
  6
BYLAYER
 10
150.8085902092
 20
321.5827984562
 11
150.3584429238
 21
320.7565528733
  0
LINE
  5
251
100
AcDbEntity
  8
0
100
AcDbLine
 62
7
  6
BYLAYER
 10
150.3584429238
 20
307.692514218
 11
150.8085902092
 21
308.5187598009
  0
LINE
  5
252
100
AcDbEntity
  8
0
100
AcDbLine
 62
7
  6
BYLAYER
 10
90.726002309
 20
292.8381166759
 11
90.726002309
 21
296.3490770695
  0
LINE
  5
253
100
AcDbEntity
  8
0
100
AcDbLine
 62
7
  6
BYLAYER
 10
91.6046907841
 20
295.1243446155
 11
91.6046907904
 21
291.6133842182
  0
LINE
  5
254
100
AcDbEntity
  8
0
100
AcDbLine
 62
7
  6
BYLAYER
 10
91.9786935024
 20
270.4496282167
 11
91.9786935024
 21
276.1651451366
  0
LINE
  5
255
100
AcDbEntity
  8
0
100
AcDbLine
 62
7
  6
BYLAYER
 10
93.4431743163
 20
274.1239243672
 11
93.4431743163
 21
268.4084074473
  0
LINE
  5
256
100
AcDbEntity
  8
0
100
AcDbLine
 62
7
  6
BYLAYER
 10
93.968642996
 20
94.6566601882
 11
93.968642996
 21
96.1263645391
  0
LINE
  5
257
100
AcDbEntity
  8
0
100
AcDbLine
 62
7
  6
BYLAYER
 10
94.968642996
 20
93.161953931
 11
94.968642996
 21
91.3906505197
  0
LINE
  5
258
100
AcDbEntity
  8
0
100
AcDbLine
 62
7
  6
BYLAYER
 10
99.3829036619
 20
50.4023726491
 11
99.3829036619
 21
76.0017476487
  0
LINE
  5
259
100
AcDbEntity
  8
0
100
AcDbLine
 62
7
  6
BYLAYER
 10
100.0899721715
 20
92.8158145345
 11
100.0899721715
 21
90.1659282561
  0
LINE
  5
25A
100
AcDbEntity
  8
0
100
AcDbLine
 62
7
  6
BYLAYER
 10
100.7970818966
 20
89.7576875016
 11
100.7971541101
 21
94.4934313012
  0
LINE
  5
25B
100
AcDbEntity
  8
0
100
AcDbLine
 62
7
  6
BYLAYER
 10
101.0092560297
 20
56.1587387341
 11
101.0092560297
 21
49.4634189137
  0
LWPOLYLINE
  5
25C
100
AcDbEntity
  8
0
100
AcDbPolyline
 62
7
  6
BYLAYER
 90
5
 70
0
 10
113.010947155
 20
321.7380061705
 10
112.5221908756
 20
317.5390687354
 10
111.0600979581
 20
312.0476982342
 10
109.5954845376
 20
306.0762929006
 10
109.4097545656
 20
303.7288427657
  0
LINE
  5
25D
100
AcDbEntity
  8
0
100
AcDbLine
 62
7
  6
BYLAYER
 10
152.9109273296
 20
237.9124013432
 11
154.6786869226
 21
238.9330117278
  0
LINE
  5
25E
100
AcDbEntity
  8
0
100
AcDbLine
 62
7
  6
BYLAYER
 10
165.4998401197
 20
52.5395658684
 11
165.8689130859
 21
51.8709990444
  0
LINE
  5
25F
100
AcDbEntity
  8
0
100
AcDbLine
 62
7
  6
BYLAYER
 10
102.2097684927
 20
250.0371517524
 11
102.2097684927
 21
263.3471264412
  0
LINE
  5
260
100
AcDbEntity
  8
0
100
AcDbLine
 62
7
  6
BYLAYER
 10
102.2112836831
 20
45.5032248751
 11
102.2112836831
 21
50.1574057604
  0
LINE
  5
261
100
AcDbEntity
  8
0
100
AcDbLine
 62
7
  6
BYLAYER
 10
102.2112836831
 20
79.143209117
 11
102.2112836831
 21
90.3408912851
  0
LINE
  5
262
100
AcDbEntity
  8
0
100
AcDbLine
 62
7
  6
BYLAYER
 10
103.2719482708
 20
90.778299586
 11
103.2719482708
 21
95.5140136053
  0
LINE
  5
263
100
AcDbEntity
  8
0
100
AcDbLine
 62
7
  6
BYLAYER
 10
104.8276485455
 20
53.9542386597
 11
104.8276485455
 21
47.2589188392
  0
LINE
  5
264
100
AcDbEntity
  8
0
100
AcDbLine
 62
7
  6
BYLAYER
 10
107.1610517591
 20
81.1844536819
 11
107.1610517591
 21
93.2686894555
  0
LINE
  5
265
100
AcDbEntity
  8
0
100
AcDbLine
 62
7
  6
BYLAYER
 10
108.0803532812
 20
52.0763311889
 11
108.0803532812
 21
45.3810113685
  0
LINE
  5
266
100
AcDbEntity
  8
0
100
AcDbLine
 62
7
  6
BYLAYER
 10
109.141009037
 20
45.9933775993
 11
109.141009037
 21
52.6886974197
  0
LINE
  5
267
100
AcDbEntity
  8
0
100
AcDbLine
 62
7
  6
BYLAYER
 10
109.8038643436
 20
53.2532846994
 11
109.8038643436
 21
47.7488196424
  0
LINE
  5
268
100
AcDbEntity
  8
0
100
AcDbLine
 62
7
  6
BYLAYER
 10
109.9895230434
 20
53.145224265
 11
109.9895230434
 21
47.952943419
  0
LINE
  5
269
100
AcDbEntity
  8
0
100
AcDbLine
 62
7
  6
BYLAYER
 10
111.8632922766
 20
83.8992773052
 11
111.8632922766
 21
95.9835130787
  0
LINE
  5
26A
100
AcDbEntity
  8
0
100
AcDbLine
 62
7
  6
BYLAYER
 10
109.4097754282
 20
303.7287803834
 11
109.4097684927
 21
297.1656712691
  0
LINE
  5
26B
100
AcDbEntity
  8
0
100
AcDbLine
 62
7
  6
BYLAYER
 10
139.2751200759
 20
222.8542133571
 11
138.7081499291
 21
222.5268749441
  0
LINE
  5
26C
100
AcDbEntity
  8
0
100
AcDbLine
 62
7
  6
BYLAYER
 10
129.3540454072
 20
217.1263124174
 11
128.7870752604
 21
216.7989740044
  0
LINE
  5
26D
100
AcDbEntity
  8
0
100
AcDbLine
 62
7
  6
BYLAYER
 10
137.9201834926
 20
220.0307242561
 11
133.677560456
 21
217.5812593251
  0
LINE
  5
26E
100
AcDbEntity
  8
0
100
AcDbLine
 62
7
  6
BYLAYER
 10
111.898745797
 20
49.8718311145
 11
111.898745797
 21
43.176511294
  0
LINE
  5
26F
100
AcDbEntity
  8
0
100
AcDbLine
 62
7
  6
BYLAYER
 10
113.0109471546
 20
321.737894983
 11
113.0109467762
 21
334.8027277839
  0
LINE
  5
270
100
AcDbEntity
  8
0
100
AcDbLine
 62
7
  6
BYLAYER
 10
113.277505839
 20
95.9835164781
 11
113.277505839
 21
83.8992807045
  0
LINE
  5
271
100
AcDbEntity
  8
0
100
AcDbLine
 62
7
  6
BYLAYER
 10
113.7431871692
 20
333.7821174072
 11
113.7431871832
 21
320.7180787295
  0
LINE
  5
272
100
AcDbEntity
  8
0
100
AcDbLine
 62
7
  6
BYLAYER
 10
115.1514505326
 20
47.9939236437
 11
115.1514505326
 21
41.2986038232
  0
LINE
  5
273
100
AcDbEntity
  8
0
100
AcDbLine
 62
7
  6
BYLAYER
 10
116.2121062885
 20
41.9109700541
 11
116.2121062885
 21
48.6062898745
  0
LINE
  5
274
100
AcDbEntity
  8
0
100
AcDbLine
 62
7
  6
BYLAYER
 10
116.874961595
 20
49.1708771542
 11
116.874961595
 21
43.6664120972
  0
LINE
  5
275
100
AcDbEntity
  8
0
100
AcDbLine
 62
7
  6
BYLAYER
 10
117.0606202948
 20
49.0628167198
 11
117.0606202948
 21
43.8705358738
  0
LINE
  5
276
100
AcDbEntity
  8
0
100
AcDbLine
 62
7
  6
BYLAYER
 10
117.8383202899
 20
331.0095934761
 11
117.8383202899
 21
331.4178446847
  0
LINE
  5
277
100
AcDbEntity
  8
0
100
AcDbLine
 62
7
  6
BYLAYER
 10
118.1211641799
 20
330.8462971743
 11
118.1211641799
 21
331.2545483828
  0
LINE
  5
278
100
AcDbEntity
  8
0
100
AcDbLine
 62
7
  6
BYLAYER
 10
118.9510801456
 20
337.6673380598
 11
118.9510801456
 21
337.2590868513
  0
LINE
  5
279
100
AcDbEntity
  8
0
100
AcDbLine
 62
7
  6
BYLAYER
 10
118.9698430484
 20
45.7894235693
 11
118.9698430484
 21
39.0941037488
  0
LINE
  5
27A
100
AcDbEntity
  8
0
100
AcDbLine
 62
7
  6
BYLAYER
 10
120.5961954163
 20
38.1551500134
 11
120.5961954163
 21
63.7545250131
  0
LINE
  5
27B
100
AcDbEntity
  8
0
100
AcDbLine
 62
7
  6
BYLAYER
 10
120.8788667899
 20
334.4797040575
 11
120.8788667899
 21
334.8062993806
  0
LINE
  5
27C
100
AcDbEntity
  8
0
100
AcDbLine
 62
7
  6
BYLAYER
 10
122.5561017466
 20
336.6188707799
 11
122.5561017466
 21
337.0271219885
  0
LINE
  5
27D
100
AcDbEntity
  8
0
100
AcDbLine
 62
7
  6
BYLAYER
 10
123.7072844939
 20
335.9493857309
 11
123.7072844939
 21
336.1126820327
  0
LINE
  5
27E
100
AcDbEntity
  8
0
100
AcDbLine
 62
7
  6
BYLAYER
 10
124.5444169095
 20
219.2484185316
 11
124.5444169095
 21
233.7350051783
  0
LINE
  5
27F
100
AcDbEntity
  8
0
100
AcDbLine
 62
7
  6
BYLAYER
 10
124.8388184396
 20
40.6046149367
 11
124.8388184396
 21
39.379861311
  0
LINE
  5
280
100
AcDbEntity
  8
0
100
AcDbLine
 62
7
  6
BYLAYER
 10
125.4097684927
 20
96.1264461235
 11
125.4097684927
 21
107.5574799633
  0
LINE
  5
281
100
AcDbEntity
  8
0
100
AcDbLine
 62
7
  6
BYLAYER
 10
126.9601240633
 20
69.7537125554
 11
126.9601240633
 21
81.8379483289
  0
LINE
  5
282
100
AcDbEntity
  8
0
100
AcDbLine
 62
7
  6
BYLAYER
 10
127.6671278056
 20
217.1770699237
 11
127.6671278056
 21
107.5574697652
  0
LINE
  5
283
100
AcDbEntity
  8
0
100
AcDbLine
 62
7
  6
BYLAYER
 10
127.6672337884
 20
69.3454718009
 11
127.6672337884
 21
42.5233303731
  0
LINE
  5
284
100
AcDbEntity
  8
0
100
AcDbLine
 62
7
  6
BYLAYER
 10
127.9099098031
 20
75.0611039712
 11
127.9099098031
 21
76.5308083221
  0
LINE
  5
285
100
AcDbEntity
  8
0
100
AcDbLine
 62
7
  6
BYLAYER
 10
128.3743947386
 20
248.241314174
 11
128.3743947386
 21
253.9568310939
  0
LINE
  5
286
100
AcDbEntity
  8
0
100
AcDbLine
 62
7
  6
BYLAYER
 10
128.7870752604
 20
233.2483525364
 11
128.7870752604
 21
216.7989740044
  0
LINE
  5
287
100
AcDbEntity
  8
0
100
AcDbLine
 62
7
  6
BYLAYER
 10
128.9099098031
 20
73.6226681523
 11
128.9099098031
 21
71.7950943027
  0
LINE
  5
288
100
AcDbEntity
  8
0
100
AcDbLine
 62
7
  6
BYLAYER
 10
129.3540454072
 20
217.1263124174
 11
129.3540454072
 21
233.1833184241
  0
LINE
  5
289
100
AcDbEntity
  8
0
100
AcDbLine
 62
7
  6
BYLAYER
 10
129.7886159623
 20
273.0793438597
 11
129.7886159552
 21
269.5683834701
  0
LINE
  5
28A
100
AcDbEntity
  8
0
100
AcDbLine
 62
7
  6
BYLAYER
 10
130.6950334633
 20
233.0295008582
 11
130.6950334633
 21
217.3647071591
  0
LINE
  5
28B
100
AcDbEntity
  8
0
100
AcDbLine
 62
7
  6
BYLAYER
 10
131.6623586928
 20
84.5527719521
 11
131.6623586928
 21
85.3692568605
  0
LINE
  5
28C
100
AcDbEntity
  8
0
100
AcDbLine
 62
7
  6
BYLAYER
 10
131.9097861565
 20
217.3032688231
 11
131.9097861565
 21
105.1080252381
  0
LINE
  5
28D
100
AcDbEntity
  8
0
100
AcDbLine
 62
7
  6
BYLAYER
 10
131.9098921393
 20
70.1069727071
 11
131.9098921393
 21
28.3571131852
  0
LINE
  5
28E
100
AcDbEntity
  8
0
100
AcDbLine
 62
7
  6
BYLAYER
 10
132.8290289419
 20
232.9955371326
 11
132.8290289419
 21
217.3363113954
  0
LINE
  5
28F
100
AcDbEntity
  8
0
100
AcDbLine
 62
7
  6
BYLAYER
 10
133.6775604631
 20
233.0928791406
 11
133.677560456
 21
217.5812593251
  0
LINE
  5
290
100
AcDbEntity
  8
0
100
AcDbLine
 62
7
  6
BYLAYER
 10
134.0312566292
 20
273.0793540543
 11
134.0312566354
 21
269.5683936642
  0
LINE
  5
291
100
AcDbEntity
  8
0
100
AcDbLine
 62
7
  6
BYLAYER
 10
134.1726244184
 20
33.0928046296
 11
134.1726244184
 21
33.9093070467
  0
LINE
  5
292
100
AcDbEntity
  8
0
100
AcDbLine
 62
7
  6
BYLAYER
 10
134.9099098031
 20
73.7109220723
 11
134.9099098031
 21
71.7950943027
  0
LINE
  5
293
100
AcDbEntity
  8
0
100
AcDbLine
 62
7
  6
BYLAYER
 10
135.2332801742
 20
33.3769991154
 11
135.2332801742
 21
30.2758607084
  0
LINE
  5
294
100
AcDbEntity
  8
0
100
AcDbLine
 62
7
  6
BYLAYER
 10
135.4454625504
 20
253.9568480907
 11
135.4454625504
 21
248.2413311708
  0
LINE
  5
295
100
AcDbEntity
  8
0
100
AcDbLine
 62
7
  6
BYLAYER
 10
135.8946900469
 20
76.3295432116
 11
135.8946900469
 21
74.8598388608
  0
LINE
  5
296
100
AcDbEntity
  8
0
100
AcDbLine
 62
7
  6
BYLAYER
 10
136.1524091798
 20
219.0101053729
 11
136.1524091798
 21
107.5574901614
  0
LINE
  5
297
100
AcDbEntity
  8
0
100
AcDbLine
 62
7
  6
BYLAYER
 10
136.7073782172
 20
80.2230654484
 11
136.7073782172
 21
81.6927697992
  0
LINE
  5
298
100
AcDbEntity
  8
0
100
AcDbLine
 62
7
  6
BYLAYER
 10
136.7941038179
 20
81.8001471422
 11
136.7941038179
 21
80.3304427914
  0
LINE
  5
299
100
AcDbEntity
  8
0
100
AcDbLine
 62
7
  6
BYLAYER
 10
136.8594129221
 20
109.9551471571
 11
136.8594129221
 21
110.4149439181
  0
LINE
  5
29A
100
AcDbEntity
  8
0
100
AcDbLine
 62
7
  6
BYLAYER
 10
137.9201834926
 20
220.0307242561
 11
137.9201834926
 21
233.5795852141
  0
LINE
  5
29B
100
AcDbEntity
  8
0
100
AcDbLine
 62
7
  6
BYLAYER
 10
138.3444456799
 20
233.6282558082
 11
138.3444456799
 21
220.5206228951
  0
LINE
  5
29C
100
AcDbEntity
  8
0
100
AcDbLine
 62
7
  6
BYLAYER
 10
138.4097684927
 20
96.1264461235
 11
138.4097684927
 21
107.5574799633
  0
LINE
  5
29D
100
AcDbEntity
  8
0
100
AcDbLine
 62
7
  6
BYLAYER
 10
138.4097684927
 20
221.0513159443
 11
138.4097684927
 21
233.6357495237
  0
LINE
  5
29E
100
AcDbEntity
  8
0
100
AcDbLine
 62
7
  6
BYLAYER
 10
138.7081499291
 20
233.6699793047
 11
138.7081499291
 21
222.5268749441
  0
LINE
  5
29F
100
AcDbEntity
  8
0
100
AcDbLine
 62
7
  6
BYLAYER
 10
139.2751200759
 20
222.8542133571
 11
139.2751200759
 21
233.7350210989
  0
LINE
  5
2A0
100
AcDbEntity
  8
0
100
AcDbLine
 62
7
  6
BYLAYER
 10
141.5911037548
 20
304.6404403286
 11
141.5911037696
 21
317.7044789864
  0
LINE
  5
2A1
100
AcDbEntity
  8
0
100
AcDbLine
 62
7
  6
BYLAYER
 10
142.5164243794
 20
322.2324834615
 11
142.5164243794
 21
322.3141322922
  0
LINE
  5
2A2
100
AcDbEntity
  8
0
100
AcDbLine
 62
7
  6
BYLAYER
 10
143.5771054533
 20
39.3389542932
 11
143.5771054533
 21
39.5430798975
  0
LINE
  5
2A3
100
AcDbEntity
  8
0
100
AcDbLine
 62
7
  6
BYLAYER
 10
127.1121587682
 20
110.5601224477
 11
127.6671278056
 21
114.2225661814
  0
LINE
  5
2A4
100
AcDbEntity
  8
0
100
AcDbLine
 62
7
  6
BYLAYER
 10
144.7900001903
 20
304.4775913516
 11
144.7900001903
 21
317.5416301553
  0
LINE
  5
2A5
100
AcDbEntity
  8
0
100
AcDbLine
 62
7
  6
BYLAYER
 10
145.0619981934
 20
323.7021624154
 11
145.0619981934
 21
323.7838112462
  0
LINE
  5
2A6
100
AcDbEntity
  8
0
100
AcDbLine
 62
7
  6
BYLAYER
 10
149.9410399882
 20
43.2172772823
 11
149.9410399882
 21
43.013151678
  0
LINE
  5
2A7
100
AcDbEntity
  8
0
100
AcDbLine
 62
7
  6
BYLAYER
 10
150.3584429345
 20
320.7565528822
 11
150.3584429345
 21
307.6925139434
  0
LINE
  5
2A8
100
AcDbEntity
  8
0
100
AcDbLine
 62
7
  6
BYLAYER
 10
150.8085902092
 20
308.5187598009
 11
150.8085902092
 21
321.5827984562
  0
LINE
  5
2A9
100
AcDbEntity
  8
0
100
AcDbLine
 62
7
  6
BYLAYER
 10
152.9109273296
 20
258.3249617714
 11
152.9109273296
 21
237.9124013432
  0
LINE
  5
2AA
100
AcDbEntity
  8
0
100
AcDbLine
 62
7
  6
BYLAYER
 10
154.4097684927
 20
297.1656712691
 11
154.4097684927
 21
303.7161116251
  0
LINE
  5
2AB
100
AcDbEntity
  8
0
100
AcDbLine
 62
7
  6
BYLAYER
 10
154.6786869226
 20
238.9330117278
 11
154.6786869226
 21
259.3455721561
  0
LINE
  5
2AC
100
AcDbEntity
  8
0
100
AcDbLine
 62
7
  6
BYLAYER
 10
136.7073782172
 20
81.6927697993
 11
135.8946900469
 21
76.3295432117
  0
LINE
  5
2AD
100
AcDbEntity
  8
0
100
AcDbLine
 62
7
  6
BYLAYER
 10
135.8946900469
 20
74.8598388608
 11
136.7073782172
 21
80.2230654485
  0
LINE
  5
2AE
100
AcDbEntity
  8
0
100
AcDbLine
 62
7
  6
BYLAYER
 10
96.9079784083
 20
96.7387256708
 11
96.4686663921
 21
96.1263645276
  0
LINE
  5
2AF
100
AcDbEntity
  8
0
100
AcDbLine
 62
7
  6
BYLAYER
 10
118.3057942162
 20
337.3914371787
 11
118.3259259968
 21
337.3070247848
  0
LINE
  5
2B0
100
AcDbEntity
  8
0
100
AcDbLine
 62
7
  6
BYLAYER
 10
156.7240416237
 20
91.836929064
 11
156.7240416237
 21
93.3066334149
  0
LINE
  5
2B1
100
AcDbEntity
  8
0
100
AcDbLine
 62
7
  6
BYLAYER
 10
156.9100265741
 20
93.3567046421
 11
156.9100265741
 21
91.8870002913
  0
LINE
  5
2B2
100
AcDbEntity
  8
0
100
AcDbLine
 62
7
  6
BYLAYER
 10
159.133389872
 20
44.0745131093
 11
159.133389872
 21
48.3203256783
  0
LINE
  5
2B3
100
AcDbEntity
  8
0
100
AcDbLine
 62
7
  6
BYLAYER
 10
161.6082533023
 20
52.1986874683
 11
161.6082533023
 21
92.1243232436
  0
LINE
  5
2B4
100
AcDbEntity
  8
0
100
AcDbLine
 62
7
  6
BYLAYER
 10
162.8508939894
 20
91.3908064774
 11
162.8508939894
 21
92.1870931297
  0
LINE
  5
2B5
100
AcDbEntity
  8
0
100
AcDbLine
 62
7
  6
BYLAYER
 10
163.9182586604
 20
51.5107009614
 11
163.9182586604
 21
51.8311077117
  0
LINE
  5
2B6
100
AcDbEntity
  8
0
100
AcDbLine
 62
7
  6
BYLAYER
 10
165.283409986
 20
47.6252076828
 11
165.283409986
 21
51.0545178347
  0
LINE
  5
2B7
100
AcDbEntity
  8
0
100
AcDbLine
 62
7
  6
BYLAYER
 10
99.0293075838
 20
95.5140034073
 11
99.4686196
 21
96.1263645505
  0
LINE
  5
2B8
100
AcDbEntity
  8
0
100
AcDbLine
 62
7
  6
BYLAYER
 10
165.8691905357
 20
51.8709993438
 11
165.8691905357
 21
48.4416891918
  0
LINE
  5
2B9
100
AcDbEntity
  8
0
100
AcDbLine
 62
7
  6
BYLAYER
 10
166.1995335506
 20
92.3562439759
 11
166.1995335506
 21
93.8259483268
  0
LINE
  5
2BA
100
AcDbEntity
  8
0
100
AcDbLine
 62
7
  6
BYLAYER
 10
168.8508939894
 20
93.271955024
 11
168.8508939894
 21
91.3908136886
  0
LINE
  5
2BB
100
AcDbEntity
  8
0
100
AcDbLine
 62
7
  6
BYLAYER
 10
169.8508939894
 20
94.6568233571
 11
169.8508939894
 21
96.1265277079
  0
LINE
  5
2BC
100
AcDbEntity
  8
0
100
AcDbLine
 62
7
  6
BYLAYER
 10
170.3763921087
 20
268.408592372
 11
170.3763921087
 21
274.1241092919
  0
LINE
  5
2BD
100
AcDbEntity
  8
0
100
AcDbLine
 62
7
  6
BYLAYER
 10
171.840843483
 20
270.4497961446
 11
171.840843483
 21
276.1653130645
  0
LINE
  5
2BE
100
AcDbEntity
  8
0
100
AcDbLine
 62
7
  6
BYLAYER
 10
172.2148638589
 20
295.124538375
 11
172.2148638516
 21
291.6135779771
  0
LINE
  5
2BF
100
AcDbEntity
  8
0
100
AcDbLine
 62
7
  6
BYLAYER
 10
173.0935346764
 20
292.8383002408
 11
173.0935346764
 21
296.3492606345
  0
LINE
  5
2C0
100
AcDbEntity
  8
0
100
AcDbLine
 62
7
  6
BYLAYER
 10
101.4713983702
 20
78.6941605659
 11
99.4536140456
 21
76.1839944312
  0
LWPOLYLINE
  5
2C1
100
AcDbEntity
  8
0
100
AcDbPolyline
 62
7
  6
BYLAYER
 90
3
 70
0
 10
154.4097800464
 20
303.7170396444
 10
154.1768206447
 20
305.4818429512
 10
152.9433511731
 20
308.3692009838
  0
LINE
  5
2C2
100
AcDbEntity
  8
0
100
AcDbLine
 62
7
  6
BYLAYER
 10
128.3743947386
 20
248.241314174
 11
93.4431743163
 21
268.4084074473
  0
LINE
  5
2C3
100
AcDbEntity
  8
0
100
AcDbLine
 62
7
  6
BYLAYER
 10
131.6623645807
 20
84.5527719521
 11
131.9552331627
 21
84.9610127067
  0
LINE
  5
2C4
100
AcDbEntity
  8
0
100
AcDbLine
 62
7
  6
BYLAYER
 10
130.8492452154
 20
77.1431694539
 11
130.4099331991
 21
76.5308083106
  0
LINE
  5
2C5
100
AcDbEntity
  8
0
100
AcDbLine
 62
7
  6
BYLAYER
 10
132.9705743908
 20
75.9184471903
 11
133.409886407
 21
76.5308083336
  0
LINE
  5
2C6
100
AcDbEntity
  8
0
100
AcDbLine
 62
7
  6
BYLAYER
 10
107.0954953617
 20
98.9462588321
 11
127.0254331675
 21
110.4527451047
  0
LINE
  5
2C7
100
AcDbEntity
  8
0
100
AcDbLine
 62
7
  6
BYLAYER
 10
128.3743947386
 20
253.9568310939
 11
93.4431743163
 21
274.1239243672
  0
LINE
  5
2C8
100
AcDbEntity
  8
0
100
AcDbLine
 62
7
  6
BYLAYER
 10
118.3259259968
 20
337.3070247848
 11
119.4296865861
 21
335.2227136151
  0
LINE
  5
2C9
100
AcDbEntity
  8
0
100
AcDbLine
 62
7
  6
BYLAYER
 10
120.6669058
 20
63.9367717956
 11
122.6846901246
 21
66.4469379303
  0
LINE
  5
2CA
100
AcDbEntity
  8
0
100
AcDbLine
 62
7
  6
BYLAYER
 10
107.1610517591
 20
93.2686894555
 11
111.8632922766
 21
95.9835130787
  0
LINE
  5
2CB
100
AcDbEntity
  8
0
100
AcDbLine
 62
7
  6
BYLAYER
 10
136.4596069532
 20
110.1841172121
 11
136.8594129221
 21
110.4149439181
  0
LINE
  5
2CC
100
AcDbEntity
  8
0
100
AcDbLine
 62
7
  6
BYLAYER
 10
136.1524091798
 20
107.5574901614
 11
131.9097861565
 21
105.1080252381
  0
LINE
  5
2CD
100
AcDbEntity
  8
0
100
AcDbLine
 62
7
  6
BYLAYER
 10
106.453942034
 20
81.5926944365
 11
101.5421087539
 21
78.7568630976
  0
LINE
  5
2CE
100
AcDbEntity
  8
0
100
AcDbLine
 62
7
  6
BYLAYER
 10
103.2719482708
 20
95.5140136053
 11
100.7971472556
 21
94.4934362376
  0
LINE
  5
2CF
100
AcDbEntity
  8
0
100
AcDbLine
 62
7
  6
BYLAYER
 10
100.7970818966
 20
89.7576875016
 11
103.2719482708
 21
90.778299586
  0
LINE
  5
2D0
100
AcDbEntity
  8
0
100
AcDbLine
 62
7
  6
BYLAYER
 10
129.7886159552
 20
269.5683834701
 11
91.6046907904
 21
291.6133842182
  0
LINE
  5
2D1
100
AcDbEntity
  8
0
100
AcDbLine
 62
7
  6
BYLAYER
 10
129.7886159623
 20
273.0793438597
 11
91.6046907841
 21
295.1243446155
  0
LWPOLYLINE
  5
2D2
100
AcDbEntity
  8
0
100
AcDbPolyline
 62
7
  6
BYLAYER
 90
3
 70
0
 10
151.5953475142
 20
304.7175460927
 10
151.2288375106
 20
305.5221394346
 10
150.8085901025
 20
308.5183380757
  0
LINE
  5
2D3
100
AcDbEntity
  8
0
100
AcDbLine
 62
7
  6
BYLAYER
 10
164.7902294016
 20
96.7388888397
 11
164.3509173854
 21
96.1265276964
  0
LINE
  5
2D4
100
AcDbEntity
  8
0
100
AcDbLine
 62
7
  6
BYLAYER
 10
166.9115585771
 20
95.5141665761
 11
167.3508705933
 21
96.1265277194
  0
LINE
  5
2D5
100
AcDbEntity
  8
0
100
AcDbLine
 62
7
  6
BYLAYER
 10
129.0815436674
 20
78.1638170029
 11
130.8492275516
 21
79.592624179
  0
LINE
  5
2D6
100
AcDbEntity
  8
0
100
AcDbLine
 62
7
  6
BYLAYER
 10
107.1610517591
 20
81.1844536819
 11
111.8632922766
 21
83.8992773052
  0
LINE
  5
2D7
100
AcDbEntity
  8
0
100
AcDbLine
 62
7
  6
BYLAYER
 10
156.6584852262
 20
98.9842027915
 11
151.9562447088
 21
96.2693791683
  0
LINE
  5
2D8
100
AcDbEntity
  8
0
100
AcDbLine
 62
7
  6
BYLAYER
 10
131.6623645807
 20
84.5527719521
 11
126.9601240633
 21
81.8379483289
  0
LINE
  5
2D9
100
AcDbEntity
  8
0
100
AcDbLine
 62
7
  6
BYLAYER
 10
92.3117946345
 20
296.3490911789
 11
130.4957197925
 21
274.3040904348
  0
LINE
  5
2DA
100
AcDbEntity
  8
0
100
AcDbLine
 62
7
  6
BYLAYER
 10
151.742939349
 20
304.5137348957
 11
151.5953475142
 21
304.7175460927
  0
LINE
  5
2DB
100
AcDbEntity
  8
0
100
AcDbLine
 62
7
  6
BYLAYER
 10
152.9436900049
 20
308.3686389507
 11
152.9441447393
 21
308.3678837828
  0
LINE
  5
2DC
100
AcDbEntity
  8
0
100
AcDbLine
 62
7
  6
BYLAYER
 10
136.7941038179
 20
81.8001471422
 11
156.7240416237
 21
93.3066334149
  0
LINE
  5
2DD
100
AcDbEntity
  8
0
100
AcDbLine
 62
7
  6
BYLAYER
 10
102.0699117855
 20
56.7711049649
 11
101.0092560297
 21
56.1587387341
  0
LINE
  5
2DE
100
AcDbEntity
  8
0
100
AcDbLine
 62
7
  6
BYLAYER
 10
122.7554005083
 20
66.509640462
 11
127.6672337884
 21
69.3454718009
  0
LINE
  5
2DF
100
AcDbEntity
  8
0
100
AcDbLine
 62
7
  6
BYLAYER
 10
160.5475887146
 20
96.7388786416
 11
163.0223897298
 21
97.7594560094
  0
LINE
  5
2E0
100
AcDbEntity
  8
0
100
AcDbLine
 62
7
  6
BYLAYER
 10
125.346339086
 20
294.4233402848
 11
113.0174597569
 21
301.5412610543
  0
LINE
  5
2E1
100
AcDbEntity
  8
0
100
AcDbLine
 62
7
  6
BYLAYER
 10
144.9205774259
 20
323.7021624154
 11
145.4184640247
 21
323.0081473538
  0
LINE
  5
2E2
100
AcDbEntity
  8
0
100
AcDbLine
 62
7
  6
BYLAYER
 10
103.1305675413
 20
50.6881513753
 11
101.0092560297
 21
49.4634189137
  0
LINE
  5
2E3
100
AcDbEntity
  8
0
100
AcDbLine
 62
7
  6
BYLAYER
 10
104.8276485455
 20
50.4432020755
 11
104.6861959832
 21
50.3615348881
  0
LINE
  5
2E4
100
AcDbEntity
  8
0
100
AcDbLine
 62
7
  6
BYLAYER
 10
109.141009037
 20
52.6886974197
 11
108.0803532812
 21
52.0763311889
  0
LINE
  5
2E5
100
AcDbEntity
  8
0
100
AcDbLine
 62
7
  6
BYLAYER
 10
109.9895230434
 20
47.952943419
 11
109.7901694925
 21
47.8378472798
  0
LINE
  5
2E6
100
AcDbEntity
  8
0
100
AcDbLine
 62
7
  6
BYLAYER
 10
109.141009037
 20
45.9933775993
 11
108.0803532812
 21
45.3810113685
  0
LINE
  5
2E7
100
AcDbEntity
  8
0
100
AcDbLine
 62
7
  6
BYLAYER
 10
159.684614108
 20
284.3792780976
 11
170.3763626691
 21
278.2065338339
  0
LINE
  5
2E8
100
AcDbEntity
  8
0
100
AcDbLine
 62
7
  6
BYLAYER
 10
127.6672337884
 20
42.5233303731
 11
124.8388184396
 21
40.6046149367
  0
LINE
  5
2E9
100
AcDbEntity
  8
0
100
AcDbLine
 62
7
  6
BYLAYER
 10
116.2121062885
 20
48.6062898745
 11
115.1514505326
 21
47.9939236437
  0
LINE
  5
2EA
100
AcDbEntity
  8
0
100
AcDbLine
 62
7
  6
BYLAYER
 10
117.0606202948
 20
43.8705358738
 11
116.8612667439
 21
43.7554397346
  0
LINE
  5
2EB
100
AcDbEntity
  8
0
100
AcDbLine
 62
7
  6
BYLAYER
 10
116.2121062885
 20
41.9109700541
 11
115.1514505326
 21
41.2986038232
  0
LINE
  5
2EC
100
AcDbEntity
  8
0
100
AcDbLine
 62
7
  6
BYLAYER
 10
171.5077423509
 20
297.9822513594
 11
172.0077338674
 21
298.0317792439
  0
LINE
  5
2ED
100
AcDbEntity
  8
0
100
AcDbLine
 62
7
  6
BYLAYER
 10
91.811780777
 20
298.0315827804
 11
92.3117828587
 21
297.9820609957
  0
LINE
  5
2EE
100
AcDbEntity
  8
0
100
AcDbLine
 62
7
  6
BYLAYER
 10
141.5911037548
 20
304.6404403286
 11
113.7431871832
 21
320.7180787295
  0
LINE
  5
2EF
100
AcDbEntity
  8
0
100
AcDbLine
 62
7
  6
BYLAYER
 10
171.5077423509
 20
297.9822513594
 11
153.0871587233
 21
308.617139682
  0
LINE
  5
2F0
100
AcDbEntity
  8
0
100
AcDbLine
 62
7
  6
BYLAYER
 10
172.0077338674
 20
298.0317792439
 11
153.2331008299
 21
308.8710734644
  0
LINE
  5
2F1
100
AcDbEntity
  8
0
100
AcDbLine
 62
7
  6
BYLAYER
 10
122.7175069279
 20
39.3798824751
 11
120.5961954163
 21
38.1551500134
  0
LINE
  5
2F2
100
AcDbEntity
  8
0
100
AcDbLine
 62
7
  6
BYLAYER
 10
124.8388184396
 20
39.379861311
 11
124.2731353698
 21
39.0532659879
  0
LINE
  5
2F3
100
AcDbEntity
  8
0
100
AcDbLine
 62
7
  6
BYLAYER
 10
117.8383202899
 20
331.0095934761
 11
118.1211641799
 21
330.8462971743
  0
LINE
  5
2F4
100
AcDbEntity
  8
0
100
AcDbLine
 62
7
  6
BYLAYER
 10
141.5911037696
 20
317.7044789864
 11
118.1211641799
 21
331.2545483828
  0
LINE
  5
2F5
100
AcDbEntity
  8
0
100
AcDbLine
 62
7
  6
BYLAYER
 10
117.8383202899
 20
331.4178446847
 11
113.7431871692
 21
333.7821174072
  0
LINE
  5
2F6
100
AcDbEntity
  8
0
100
AcDbLine
 62
7
  6
BYLAYER
 10
115.1573948576
 20
336.2316105412
 11
119.2525279643
 21
333.8673378267
  0
LINE
  5
2F7
100
AcDbEntity
  8
0
100
AcDbLine
 62
7
  6
BYLAYER
 10
119.5353718544
 20
333.7040415248
 11
143.0053114301
 21
320.1539721365
  0
LINE
  5
2F8
100
AcDbEntity
  8
0
100
AcDbLine
 62
7
  6
BYLAYER
 10
142.3750036119
 20
322.2324834615
 11
121.0202899125
 21
334.561354248
  0
LINE
  5
2F9
100
AcDbEntity
  8
0
100
AcDbLine
 62
7
  6
BYLAYER
 10
120.8788667899
 20
334.8062993806
 11
142.5164243794
 21
322.3141322922
  0
LINE
  5
2FA
100
AcDbEntity
  8
0
100
AcDbLine
 62
7
  6
BYLAYER
 10
144.9205774259
 20
323.7021624154
 11
123.2830198364
 21
336.1943295037
  0
LINE
  5
2FB
100
AcDbEntity
  8
0
100
AcDbLine
 62
7
  6
BYLAYER
 10
123.7072844939
 20
336.1126820327
 11
145.0619981934
 21
323.7838112462
  0
LINE
  5
2FC
100
AcDbEntity
  8
0
100
AcDbLine
 62
7
  6
BYLAYER
 10
148.6621421278
 20
323.4199253674
 11
125.1922025521
 21
336.9699947558
  0
LINE
  5
2FD
100
AcDbEntity
  8
0
100
AcDbLine
 62
7
  6
BYLAYER
 10
124.909358662
 20
337.1332910576
 11
120.8142255553
 21
339.4975637722
  0
LINE
  5
2FE
100
AcDbEntity
  8
0
100
AcDbLine
 62
7
  6
BYLAYER
 10
149.6621251608
 20
323.5189811365
 11
126.192185585
 21
337.0690505249
  0
LINE
  5
2FF
100
AcDbEntity
  8
0
100
AcDbLine
 62
7
  6
BYLAYER
 10
125.909341695
 20
337.2323468267
 11
121.8142085883
 21
339.5966195413
  0
LINE
  5
300
100
AcDbEntity
  8
0
100
AcDbLine
 62
7
  6
BYLAYER
 10
163.864151127
 20
51.4598457033
 11
163.3760040634
 21
51.178015547
  0
LINE
  5
301
100
AcDbEntity
  8
0
100
AcDbLine
 62
7
  6
BYLAYER
 10
143.5771054533
 20
39.5430798975
 11
149.9410399882
 21
43.2172772823
  0
LINE
  5
302
100
AcDbEntity
  8
0
100
AcDbLine
 62
7
  6
BYLAYER
 10
134.1726244184
 20
33.9093070467
 11
143.5771054533
 21
39.3389542932
  0
LINE
  5
303
100
AcDbEntity
  8
0
100
AcDbLine
 62
7
  6
BYLAYER
 10
149.9410399882
 20
43.013151678
 11
159.133389872
 21
48.3203256783
  0
LINE
  5
304
100
AcDbEntity
  8
0
100
AcDbLine
 62
7
  6
BYLAYER
 10
164.4366686511
 20
50.5656544153
 11
165.283409986
 21
51.0545178347
  0
LINE
  5
305
100
AcDbEntity
  8
0
100
AcDbLine
 62
7
  6
BYLAYER
 10
165.283409986
 20
47.6252076828
 11
159.133389872
 21
44.0745131093
  0
LINE
  5
306
100
AcDbEntity
  8
0
100
AcDbLine
 62
7
  6
BYLAYER
 10
135.2332801742
 20
30.2758607084
 11
131.9098921393
 21
28.3571131852
  0
LINE
  5
307
100
AcDbEntity
  8
0
100
AcDbLine
 62
7
  6
BYLAYER
 10
118.9510801456
 20
337.2590868513
 11
122.5561017465
 21
336.6188707799
  0
LINE
  5
308
100
AcDbEntity
  8
0
100
AcDbLine
 62
7
  6
BYLAYER
 10
122.5561017465
 20
337.0271219885
 11
118.9510801456
 21
337.6673380599
  0
ARC
  5
309
100
AcDbEntity
  8
0
100
AcDbCircle
 62
7
  6
BYLAYER
 10
129.0140569541
 20
317.5814664791
 40
23.6618406474
100
AcDbArc
 50
111.9366282152
 51
114.1284638625
  0
ARC
  5
30A
100
AcDbEntity
  8
0
100
AcDbCircle
 62
7
  6
BYLAYER
 10
137.0191872991
 20
337.7173125257
 40
21.6035812433
100
AcDbArc
 50
298.794866646
 51
299.9962007839
  0
ARC
  5
30B
100
AcDbEntity
  8
0
100
AcDbCircle
 62
7
  6
BYLAYER
 10
128.0137078579
 20
319.7475838125
 40
21.2760655037
100
AcDbArc
 50
114.0544720318
 51
118.7702066731
  0
ARC
  5
30C
100
AcDbEntity
  8
0
100
AcDbCircle
 62
7
  6
BYLAYER
 10
141.107853743
 20
301.9376446528
 40
12.0650916121
100
AcDbArc
 50
33.8667720063
 51
36.5348496935
  0
ARC
  5
30D
100
AcDbEntity
  8
0
100
AcDbCircle
 62
7
  6
BYLAYER
 10
131.9100456522
 20
228.4740758154
 40
11.1756130284
100
AcDbArc
 50
263.7584679275
 51
274.7168090462
  0
ARC
  5
30E
100
AcDbEntity
  8
0
100
AcDbCircle
 62
7
  6
BYLAYER
 10
130.5126448081
 20
104.6630677482
 40
6.4042348435
100
AcDbArc
 50
116.6959682903
 51
119.9687250328
  0
ARC
  5
30F
100
AcDbEntity
  8
0
100
AcDbCircle
 62
7
  6
BYLAYER
 10
125.8380338332
 20
336.4298991205
 40
0.73198415
100
AcDbArc
 50
73.9412718593
 51
81.5004812363
  0
ARC
  5
310
100
AcDbEntity
  8
0
100
AcDbCircle
 62
7
  6
BYLAYER
 10
144.9808035051
 20
323.0077982861
 40
0.6376562765
100
AcDbArc
 50
351.1425515548
 51
8.8574882838
  0
SPLINE
  5
311
100
AcDbEntity
  8
0
100
AcDbSpline
 62
7
  6
BYLAYER
 70
0
 71
3
 72
9
 73
5
 74
0
 42
0.0000001
 43
0.0000001
 44
0.0000000001
 40
0.0
 40
0.0
 40
0.0
 40
0.0
 40
0.5000005437
 40
1.0
 40
1.0
 40
1.0
 40
1.0
 10
150.5420311464
 20
96.2693757689
 30
0.0
 10
150.7519115796
 20
96.1482039856
 30
0.0
 10
151.2491386197
 20
96.0523758028
 30
0.0
 10
151.7463656059
 20
96.148206135
 30
0.0
 10
151.9562447088
 20
96.2693791683
 30
0.0
  0
SPLINE
  5
312
100
AcDbEntity
  8
0
100
AcDbSpline
 62
7
  6
BYLAYER
 70
0
 71
3
 72
11
 73
7
 74
0
 42
0.0000001
 43
0.0000001
 44
0.0000000001
 40
0.0
 40
0.0
 40
0.0
 40
0.0
 40
0.2372512143
 40
0.4999983503
 40
0.7627464522
 40
1.0
 40
1.0
 40
1.0
 40
1.0
 10
163.0223897298
 20
97.7594560094
 30
0.0
 10
163.4239659828
 20
97.9913118553
 30
0.0
 10
164.3577750716
 20
98.3297046625
 30
0.0
 10
165.8508351585
 20
98.4914950587
 30
0.0
 10
167.3439021258
 20
98.3297295167
 30
0.0
 10
168.2777244013
 20
97.9913542497
 30
0.0
 10
168.6793093382
 20
97.7595043234
 30
0.0
  0
SPLINE
  5
313
100
AcDbEntity
  8
0
100
AcDbSpline
 62
7
  6
BYLAYER
 70
0
 71
3
 72
11
 73
7
 74
0
 42
0.0000001
 43
0.0000001
 44
0.0000000001
 40
0.0
 40
0.0
 40
0.0
 40
0.0
 40
0.2895075451
 40
0.5491417289
 40
0.7822877114
 40
1.0
 40
1.0
 40
1.0
 40
1.0
 10
168.6793093382
 20
97.7595043234
 30
0.0
 10
168.854703495
 20
97.6582427506
 30
0.0
 10
169.1729956906
 20
97.4386994801
 30
0.0
 10
169.5538657796
 20
97.0390010189
 30
0.0
 10
169.7947029792
 20
96.5963829932
 30
0.0
 10
169.8507262047
 20
96.2788300421
 30
0.0
 10
169.8506911108
 20
96.1265282274
 30
0.0
  0
SPLINE
  5
314
100
AcDbEntity
  8
0
100
AcDbSpline
 62
7
  6
BYLAYER
 70
0
 71
3
 72
9
 73
5
 74
0
 42
0.0000001
 43
0.0000001
 44
0.0000000001
 40
0.0
 40
0.0
 40
0.0
 40
0.0
 40
0.2674227005
 40
1.0
 40
1.0
 40
1.0
 40
1.0
 10
106.9095104113
 20
98.8961876049
 30
0.0
 10
106.9267394407
 20
98.8970579001
 30
0.0
 10
106.9908408014
 20
98.9035516649
 30
0.0
 10
107.0545692349
 20
98.9226302628
 30
0.0
 10
107.0954953617
 20
98.9462588321
 30
0.0
  0
SPLINE
  5
315
100
AcDbEntity
  8
0
100
AcDbSpline
 62
7
  6
BYLAYER
 70
0
 71
3
 72
9
 73
5
 74
0
 42
0.0000001
 43
0.0000001
 44
0.0000000001
 40
0.0
 40
0.0
 40
0.0
 40
0.0
 40
0.2760009982
 40
1.0
 40
1.0
 40
1.0
 40
1.0
 10
127.0254331675
 20
110.4527451047
 30
0.0
 10
127.0334078357
 20
110.4573492541
 30
0.0
 10
127.0614027821
 20
110.4753679045
 30
0.0
 10
127.0860557217
 20
110.4997846934
 30
0.0
 10
127.0980734358
 20
110.5207380445
 30
0.0
  0
SPLINE
  5
316
100
AcDbEntity
  8
0
100
AcDbSpline
 62
7
  6
BYLAYER
 70
0
 71
3
 72
8
 73
4
 74
0
 42
0.0000001
 43
0.0000001
 44
0.0000000001
 40
0.0
 40
0.0
 40
0.0
 40
0.0
 40
1.0
 40
1.0
 40
1.0
 40
1.0
 10
127.0980734358
 20
110.5207380445
 30
0.0
 10
127.1050101273
 20
110.5328324353
 30
0.0
 10
127.1100699176
 20
110.5463373586
 30
0.0
 10
127.1121587682
 20
110.5601224477
 30
0.0
  0
SPLINE
  5
317
100
AcDbEntity
  8
0
100
AcDbSpline
 62
7
  6
BYLAYER
 70
0
 71
3
 72
15
 73
11
 74
0
 42
0.0000001
 43
0.0000001
 44
0.0000000001
 40
0.0
 40
0.0
 40
0.0
 40
0.0
 40
0.0869264543
 40
0.1864288809
 40
0.3038105302
 40
0.4376141421
 40
0.5821079534
 40
0.7293955752
 40
0.8711895137
 40
1.0
 40
1.0
 40
1.0
 40
1.0
 10
162.8508939894
 20
91.3908064774
 30
0.0
 10
162.8508952371
 20
91.2177869532
 30
0.0
 10
162.9555105582
 20
90.8433736638
 30
0.0
 10
163.3635022889
 20
90.3791276625
 30
0.0
 10
163.9660936648
 20
90.0122826563
 30
0.0
 10
164.7180427032
 20
89.7609014522
 30
0.0
 10
165.5610412969
 20
89.6426474856
 30
0.0
 10
166.4278632657
 20
89.6663938849
 30
0.0
 10
167.2472887987
 20
89.8305269708
 30
0.0
 10
167.7501860129
 20
90.0378989808
 30
0.0
 10
167.9722231648
 20
90.166091425
 30
0.0
  0
SPLINE
  5
318
100
AcDbEntity
  8
0
100
AcDbSpline
 62
7
  6
BYLAYER
 70
0
 71
3
 72
11
 73
7
 74
0
 42
0.0000001
 43
0.0000001
 44
0.0000000001
 40
0.0
 40
0.0
 40
0.0
 40
0.0
 40
0.2893980704
 40
0.5491296536
 40
0.782314874
 40
1.0
 40
1.0
 40
1.0
 40
1.0
 10
167.9722231648
 20
90.166091425
 30
0.0
 10
168.1037160521
 20
90.2420084257
 30
0.0
 10
168.3423583279
 20
90.4067322983
 30
0.0
 10
168.6281535051
 20
90.7063987956
 30
0.0
 10
168.8086898519
 20
91.0384542025
 30
0.0
 10
168.8508468794
 20
91.2766036363
 30
0.0
 10
168.8507661549
 20
91.3908136012
 30
0.0
  0
SPLINE
  5
319
100
AcDbEntity
  8
0
100
AcDbSpline
 62
7
  6
BYLAYER
 70
0
 71
3
 72
9
 73
5
 74
0
 42
0.0000001
 43
0.0000001
 44
0.0000000001
 40
0.0
 40
0.0
 40
0.0
 40
0.0
 40
0.4731068714
 40
1.0
 40
1.0
 40
1.0
 40
1.0
 10
115.0607221385
 20
277.7990396022
 30
0.0
 10
115.884162169
 20
277.0556680915
 30
0.0
 10
117.8215295288
 20
275.699095742
 30
0.0
 10
119.9662739169
 20
274.7242449355
 30
0.0
 10
121.1250889222
 20
274.295843093
 30
0.0
  0
SPLINE
  5
31A
100
AcDbEntity
  8
0
100
AcDbSpline
 62
7
  6
BYLAYER
 70
0
 71
3
 72
9
 73
5
 74
0
 42
0.0000001
 43
0.0000001
 44
0.0000000001
 40
0.0
 40
0.0
 40
0.0
 40
0.0
 40
0.2602364476
 40
1.0
 40
1.0
 40
1.0
 40
1.0
 10
142.0482745967
 20
274.0667067544
 30
0.0
 10
142.4087731979
 20
274.1891010565
 30
0.0
 10
143.7833234403
 20
274.6897300346
 30
0.0
 10
145.1147255598
 20
275.314056207
 30
0.0
 10
146.0519629956
 20
275.8551672629
 30
0.0
  0
SPLINE
  5
31B
100
AcDbEntity
  8
0
100
AcDbSpline
 62
7
  6
BYLAYER
 70
0
 71
3
 72
9
 73
5
 74
0
 42
0.0000001
 43
0.0000001
 44
0.0000000001
 40
0.0
 40
0.0
 40
0.0
 40
0.0
 40
0.5508689854
 40
1.0
 40
1.0
 40
1.0
 40
1.0
 10
165.283409986
 20
47.6252076828
 30
0.0
 10
165.4488430657
 20
47.7207199458
 30
0.0
 10
165.7330210992
 20
47.9383106574
 30
0.0
 10
165.8691829962
 20
48.2859433145
 30
0.0
 10
165.8691400173
 20
48.4416889133
 30
0.0
  0
SPLINE
  5
31C
100
AcDbEntity
  8
0
100
AcDbSpline
 62
7
  6
BYLAYER
 70
0
 71
3
 72
8
 73
4
 74
0
 42
0.0000001
 43
0.0000001
 44
0.0000000001
 40
0.0
 40
0.0
 40
0.0
 40
0.0
 40
1.0
 40
1.0
 40
1.0
 40
1.0
 10
125.9092857422
 20
337.2322499133
 30
0.0
 10
125.9568256962
 20
337.2048033035
 30
0.0
 10
126.0012486402
 20
337.1712037498
 30
0.0
 10
126.0408169282
 20
337.1331549102
 30
0.0
  0
SPLINE
  5
31D
100
AcDbEntity
  8
0
100
AcDbSpline
 62
7
  6
BYLAYER
 70
0
 71
3
 72
9
 73
5
 74
0
 42
0.0000001
 43
0.0000001
 44
0.0000000001
 40
0.0
 40
0.0
 40
0.0
 40
0.0
 40
0.5504872753
 40
1.0
 40
1.0
 40
1.0
 40
1.0
 10
163.864151127
 20
51.4598457033
 30
0.0
 10
163.9054765103
 20
51.4837047821
 30
0.0
 10
163.9763781841
 20
51.5381872594
 30
0.0
 10
164.010633939
 20
51.625001319
 30
0.0
 10
164.0106271345
 20
51.6639668241
 30
0.0
  0
SPLINE
  5
31E
100
AcDbEntity
  8
0
100
AcDbSpline
 62
7
  6
BYLAYER
 70
0
 71
3
 72
9
 73
5
 74
0
 42
0.0000001
 43
0.0000001
 44
0.0000000001
 40
0.0
 40
0.0
 40
0.0
 40
0.0
 40
0.2450490301
 40
1.0
 40
1.0
 40
1.0
 40
1.0
 10
152.9441447393
 20
308.3678837828
 30
0.0
 10
152.8173359944
 20
308.5786136785
 30
0.0
 10
152.2721102889
 20
309.4217615683
 30
0.0
 10
151.6223736657
 20
310.1956739908
 30
0.0
 10
151.0915186033
 20
310.7363273423
 30
0.0
  0
SPLINE
  5
31F
100
AcDbEntity
  8
0
100
AcDbSpline
 62
7
  6
BYLAYER
 70
0
 71
3
 72
9
 73
5
 74
0
 42
0.0000001
 43
0.0000001
 44
0.0000000001
 40
0.0
 40
0.0
 40
0.0
 40
0.0
 40
0.5008068814
 40
1.0
 40
1.0
 40
1.0
 40
1.0
 10
119.4267378762
 20
339.7521036813
 30
0.0
 10
119.8064936242
 20
339.9051766673
 30
0.0
 10
120.6437943494
 20
340.0345806353
 30
0.0
 10
121.4607588321
 20
339.8006792367
 30
0.0
 10
121.8142085883
 20
339.5966195413
 30
0.0
  0
SPLINE
  5
320
100
AcDbEntity
  8
0
100
AcDbSpline
 62
7
  6
BYLAYER
 70
0
 71
3
 72
9
 73
5
 74
0
 42
0.0000001
 43
0.0000001
 44
0.0000000001
 40
0.0
 40
0.0
 40
0.0
 40
0.0
 40
0.5002168095
 40
1.0
 40
1.0
 40
1.0
 40
1.0
 10
150.8085902092
 20
321.5827984562
 30
0.0
 10
150.8085902092
 20
321.9713838484
 30
0.0
 10
150.5890813012
 20
322.7630749684
 30
0.0
 10
149.9983601629
 20
323.3248601592
 30
0.0
 10
149.6621251608
 20
323.5189811366
 30
0.0
  0
SPLINE
  5
321
100
AcDbEntity
  8
0
100
AcDbSpline
 62
7
  6
BYLAYER
 70
0
 71
3
 72
8
 73
4
 74
0
 42
0.0000001
 43
0.0000001
 44
0.0000000001
 40
0.0
 40
0.0
 40
0.0
 40
0.0
 40
1.0
 40
1.0
 40
1.0
 40
1.0
 10
126.1921296336
 20
337.0689536107
 30
0.0
 10
126.1445816476
 20
337.0964048239
 30
0.0
 10
126.0932623288
 20
337.1180781192
 30
0.0
 10
126.0405171213
 20
337.1333202702
 30
0.0
  0
SPLINE
  5
322
100
AcDbEntity
  8
0
100
AcDbSpline
 62
7
  6
BYLAYER
 70
0
 71
3
 72
9
 73
5
 74
0
 42
0.0000001
 43
0.0000001
 44
0.0000000001
 40
0.0
 40
0.0
 40
0.0
 40
0.0
 40
0.223198177
 40
1.0
 40
1.0
 40
1.0
 40
1.0
 10
125.9462218988
 20
337.1538439652
 30
0.0
 10
125.8884743202
 20
337.1625265666
 30
0.0
 10
125.6249722914
 20
337.1715883325
 30
0.0
 10
125.3682131885
 20
337.0716139376
 30
0.0
 10
125.1922025521
 20
336.9699947558
 30
0.0
  0
SPLINE
  5
323
100
AcDbEntity
  8
0
100
AcDbSpline
 62
7
  6
BYLAYER
 70
0
 71
3
 72
9
 73
5
 74
0
 42
0.0000001
 43
0.0000001
 44
0.0000000001
 40
0.0
 40
0.0
 40
0.0
 40
0.0
 40
0.2632314753
 40
1.0
 40
1.0
 40
1.0
 40
1.0
 10
119.4267378762
 20
339.7521036814
 30
0.0
 10
118.8989764748
 20
339.5393721717
 30
0.0
 10
116.9216545442
 20
338.6675145883
 30
0.0
 10
115.0537801152
 20
337.5242115027
 30
0.0
 10
113.8264218537
 20
336.5092462259
 30
0.0
  0
SPLINE
  5
324
100
AcDbEntity
  8
0
100
AcDbSpline
 62
7
  6
BYLAYER
 70
0
 71
3
 72
9
 73
5
 74
0
 42
0.0000001
 43
0.0000001
 44
0.0000000001
 40
0.0
 40
0.0
 40
0.0
 40
0.0
 40
0.4996490109
 40
1.0
 40
1.0
 40
1.0
 40
1.0
 10
113.8264218537
 20
336.5092462259
 30
0.0
 10
113.5776304624
 20
336.3035079087
 30
0.0
 10
113.160285575
 20
335.7806602586
 30
0.0
 10
113.0109467762
 20
335.1260209616
 30
0.0
 10
113.0109467762
 20
334.8027277839
 30
0.0
  0
SPLINE
  5
325
100
AcDbEntity
  8
0
100
AcDbSpline
 62
7
  6
BYLAYER
 70
0
 71
3
 72
11
 73
7
 74
0
 42
0.0000001
 43
0.0000001
 44
0.0000000001
 40
0.0
 40
0.0
 40
0.0
 40
0.0
 40
0.217743412
 40
0.4508805377
 40
0.7104578121
 40
1.0
 40
1.0
 40
1.0
 40
1.0
 10
90.7261701679
 20
292.8381166771
 30
0.0
 10
90.7261702033
 20
292.7238737571
 30
0.0
 10
90.7681227951
 20
292.4856879564
 30
0.0
 10
90.948806821
 20
292.1537664457
 30
0.0
 10
91.2343882589
 20
291.8539569414
 30
0.0
 10
91.4731291783
 20
291.6893396328
 30
0.0
 10
91.6046907973
 20
291.6133842142
 30
0.0
  0
SPLINE
  5
326
100
AcDbEntity
  8
0
100
AcDbSpline
 62
7
  6
BYLAYER
 70
0
 71
3
 72
10
 73
6
 74
0
 42
0.0000001
 43
0.0000001
 44
0.0000000001
 40
0.0
 40
0.0
 40
0.0
 40
0.0
 40
0.5028651916
 40
0.7508816319
 40
1.0
 40
1.0
 40
1.0
 40
1.0
 10
91.8117850971
 20
298.0315852747
 30
0.0
 10
91.508889257
 20
297.8567093237
 30
0.0
 10
91.0938722431
 20
297.5009707828
 30
0.0
 10
90.7811652564
 20
296.8705965614
 30
0.0
 10
90.726002309
 20
296.5223442087
 30
0.0
 10
90.726002309
 20
296.3490770695
 30
0.0
  0
SPLINE
  5
327
100
AcDbEntity
  8
0
100
AcDbSpline
 62
7
  6
BYLAYER
 70
0
 71
3
 72
10
 73
6
 74
0
 42
0.0000001
 43
0.0000001
 44
0.0000000001
 40
0.0
 40
0.0
 40
0.0
 40
0.0
 40
0.2491071803
 40
0.4971189206
 40
1.0
 40
1.0
 40
1.0
 40
1.0
 10
173.0935346764
 20
296.3492606345
 30
0.0
 10
173.0935346764
 20
296.5225213881
 30
0.0
 10
173.0383906412
 20
296.8707700525
 30
0.0
 10
172.7256453784
 20
297.5011319436
 30
0.0
 10
172.3106429787
 20
297.8568985433
 30
0.0
 10
172.0077338674
 20
298.0317792439
 30
0.0
  0
SPLINE
  5
328
100
AcDbEntity
  8
0
100
AcDbSpline
 62
7
  6
BYLAYER
 70
0
 71
3
 72
9
 73
5
 74
0
 42
0.0000001
 43
0.0000001
 44
0.0000000001
 40
0.0
 40
0.0
 40
0.0
 40
0.0
 40
0.2294537769
 40
1.0
 40
1.0
 40
1.0
 40
1.0
 10
125.7479850781
 20
72.3198411945
 30
0.0
 10
125.8311894546
 20
72.271804212
 30
0.0
 10
126.2101870103
 20
72.0911791545
 30
0.0
 10
126.6319015951
 20
72.0100549612
 30
0.0
 10
126.9540698385
 20
71.9926364083
 30
0.0
  0
SPLINE
  5
329
100
AcDbEntity
  8
0
100
AcDbSpline
 62
7
  6
BYLAYER
 70
0
 71
3
 72
13
 73
9
 74
0
 42
0.0000001
 43
0.0000001
 44
0.0000000001
 40
0.0
 40
0.0
 40
0.0
 40
0.0
 40
0.2699328989
 40
0.5613265492
 40
0.6954683899
 40
0.8131400379
 40
0.9128525218
 40
1.0
 40
1.0
 40
1.0
 40
1.0
 10
118.6768878266
 20
76.4022487397
 30
0.0
 10
118.9807883556
 20
76.2267956567
 30
0.0
 10
119.7071621357
 20
76.0302616236
 30
0.0
 10
120.6255772601
 20
76.0767014737
 30
0.0
 10
121.2998970766
 20
76.3014340268
 30
0.0
 10
121.6942688905
 20
76.5418906295
 30
0.0
 10
121.9614731804
 20
76.8457096581
 30
0.0
 10
122.0299246732
 20
77.0908291971
 30
0.0
 10
122.0299638545
 20
77.2041207026
 30
0.0
  0
SPLINE
  5
32A
100
AcDbEntity
  8
0
100
AcDbSpline
 62
7
  6
BYLAYER
 70
0
 71
3
 72
13
 73
9
 74
0
 42
0.0000001
 43
0.0000001
 44
0.0000000001
 40
0.0
 40
0.0
 40
0.0
 40
0.0
 40
0.2699328989
 40
0.5613265492
 40
0.6954683899
 40
0.8131400379
 40
0.9128525218
 40
1.0
 40
1.0
 40
1.0
 40
1.0
 10
111.6057905751
 20
80.4846562849
 30
0.0
 10
111.9096911041
 20
80.3092032019
 30
0.0
 10
112.6360648842
 20
80.1126691688
 30
0.0
 10
113.5544800086
 20
80.1591090189
 30
0.0
 10
114.2287998252
 20
80.383841572
 30
0.0
 10
114.623171639
 20
80.6242981747
 30
0.0
 10
114.890375929
 20
80.9281172033
 30
0.0
 10
114.9588274217
 20
81.1732367423
 30
0.0
 10
114.958866603
 20
81.2865282478
 30
0.0
  0
SPLINE
  5
32B
100
AcDbEntity
  8
0
100
AcDbSpline
 62
7
  6
BYLAYER
 70
0
 71
3
 72
11
 73
7
 74
0
 42
0.0000001
 43
0.0000001
 44
0.0000000001
 40
0.0
 40
0.0
 40
0.0
 40
0.0
 40
0.2177821605
 40
0.4509085882
 40
0.7102951949
 40
1.0
 40
1.0
 40
1.0
 40
1.0
 10
91.9787184517
 20
276.1651451365
 30
0.0
 10
91.9787185051
 20
276.3555851541
 30
0.0
 10
92.049094628
 20
276.7525221306
 30
0.0
 10
92.3500109656
 20
277.305583363
 30
0.0
 10
92.8257174916
 20
277.8055291618
 30
0.0
 10
93.2237518147
 20
278.0796830219
 30
0.0
 10
93.4431448766
 20
278.2063489092
 30
0.0
  0
SPLINE
  5
32C
100
AcDbEntity
  8
0
100
AcDbSpline
 62
7
  6
BYLAYER
 70
0
 71
3
 72
11
 73
7
 74
0
 42
0.0000001
 43
0.0000001
 44
0.0000000001
 40
0.0
 40
0.0
 40
0.0
 40
0.0
 40
0.2177817009
 40
0.4509079353
 40
0.7102947134
 40
1.0
 40
1.0
 40
1.0
 40
1.0
 10
91.9787184517
 20
270.4496282167
 30
0.0
 10
91.978718487
 20
270.2591861479
 30
0.0
 10
92.0490962632
 20
269.8622445949
 30
0.0
 10
92.3500190825
 20
269.3091780045
 30
0.0
 10
92.825735273
 20
268.8092285005
 30
0.0
 10
93.2237771503
 20
268.5350735946
 30
0.0
 10
93.4431743163
 20
268.4084074473
 30
0.0
  0
SPLINE
  5
32D
100
AcDbEntity
  8
0
100
AcDbSpline
 62
7
  6
BYLAYER
 70
0
 71
3
 72
12
 73
8
 74
0
 42
0.0000001
 43
0.0000001
 44
0.0000000001
 40
0.0
 40
0.0
 40
0.0
 40
0.0
 40
0.108160862
 40
0.2183615194
 40
0.4513628574
 40
0.7104168543
 40
1.0
 40
1.0
 40
1.0
 40
1.0
 10
102.2098191967
 20
250.0371517524
 30
0.0
 10
102.2098191589
 20
249.4748963509
 30
0.0
 10
102.3077909771
 20
248.3374520853
 30
0.0
 10
102.8983156083
 20
246.0569914871
 30
0.0
 10
104.4153637601
 20
243.2609155645
 30
0.0
 10
107.2403738361
 20
240.2935666943
 30
0.0
 10
109.6051079404
 20
238.6649613834
 30
0.0
 10
110.9087845274
 20
237.9123003824
 30
0.0
  0
SPLINE
  5
32E
100
AcDbEntity
  8
0
100
AcDbSpline
 62
7
  6
BYLAYER
 70
0
 71
3
 72
9
 73
5
 74
0
 42
0.0000001
 43
0.0000001
 44
0.0000000001
 40
0.0
 40
0.0
 40
0.0
 40
0.0
 40
0.2319853261
 40
1.0
 40
1.0
 40
1.0
 40
1.0
 10
138.4027795084
 20
222.2722692684
 30
0.0
 10
138.4218492477
 20
222.2965229918
 30
0.0
 10
138.5103643677
 20
222.3961045985
 30
0.0
 10
138.6196922578
 20
222.4758041886
 30
0.0
 10
138.7081499291
 20
222.5268749441
 30
0.0
  0
SPLINE
  5
32F
100
AcDbEntity
  8
0
100
AcDbSpline
 62
7
  6
BYLAYER
 70
0
 71
3
 72
11
 73
7
 74
0
 42
0.0000001
 43
0.0000001
 44
0.0000000001
 40
0.0
 40
0.0
 40
0.0
 40
0.0
 40
0.2177648073
 40
0.4508950352
 40
0.7103684932
 40
1.0
 40
1.0
 40
1.0
 40
1.0
 10
125.4099047446
 20
107.5574795246
 30
0.0
 10
125.4100030762
 20
107.8050309758
 30
0.0
 10
125.5010975425
 20
108.3210710497
 30
0.0
 10
125.8925101389
 20
109.0401119654
 30
0.0
 10
126.5110279059
 20
109.6899190684
 30
0.0
 10
127.0284174107
 20
110.0464214252
 30
0.0
 10
127.3135552792
 20
110.2110448677
 30
0.0
  0
SPLINE
  5
330
100
AcDbEntity
  8
0
100
AcDbSpline
 62
7
  6
BYLAYER
 70
0
 71
3
 72
13
 73
9
 74
0
 42
0.0000001
 43
0.0000001
 44
0.0000000001
 40
0.0
 40
0.0
 40
0.0
 40
0.0
 40
0.0871382313
 40
0.1868460714
 40
0.3045099889
 40
0.4386443369
 40
0.7300494959
 40
1.0
 40
1.0
 40
1.0
 40
1.0
 10
164.3509170642
 20
96.1265276964
 30
0.0
 10
164.3509664989
 20
96.0400199288
 30
0.0
 10
164.4032068333
 20
95.8528449809
 30
0.0
 10
164.6072536282
 20
95.6208400552
 30
0.0
 10
164.9083911141
 20
95.4372042312
 30
0.0
 10
165.4233459688
 20
95.2655888625
 30
0.0
 10
166.1247253565
 20
95.2300653305
 30
0.0
 10
166.6794656756
 20
95.3801684769
 30
0.0
 10
166.9115585771
 20
95.5141665761
 30
0.0
  0
SPLINE
  5
331
100
AcDbEntity
  8
0
100
AcDbSpline
 62
7
  6
BYLAYER
 70
0
 71
3
 72
9
 73
5
 74
0
 42
0.0000001
 43
0.0000001
 44
0.0000000001
 40
0.0
 40
0.0
 40
0.0
 40
0.0
 40
0.2704257751
 40
1.0
 40
1.0
 40
1.0
 40
1.0
 10
102.0699117855
 20
56.7711049649
 30
0.0
 10
102.0699117855
 20
56.8401455234
 30
0.0
 10
102.0804699765
 20
57.0949692972
 30
0.0
 10
102.1354478796
 20
57.3506879257
 30
0.0
 10
102.2108256134
 20
57.5210168983
 30
0.0
  0
SPLINE
  5
332
100
AcDbEntity
  8
0
100
AcDbSpline
 62
7
  6
BYLAYER
 70
0
 71
3
 72
13
 73
9
 74
0
 42
0.0000001
 43
0.0000001
 44
0.0000000001
 40
0.0
 40
0.0
 40
0.0
 40
0.0
 40
0.0871382313
 40
0.1868460714
 40
0.3045099889
 40
0.4386443369
 40
0.7300494959
 40
1.0
 40
1.0
 40
1.0
 40
1.0
 10
96.4686660709
 20
96.1263645275
 30
0.0
 10
96.4687155056
 20
96.0398567599
 30
0.0
 10
96.52095584
 20
95.852681812
 30
0.0
 10
96.7250026348
 20
95.6206768864
 30
0.0
 10
97.0261401208
 20
95.4370410624
 30
0.0
 10
97.5410949755
 20
95.2654256937
 30
0.0
 10
98.2424743632
 20
95.2299021616
 30
0.0
 10
98.7972146823
 20
95.380005308
 30
0.0
 10
99.0293075838
 20
95.5140034073
 30
0.0
  0
SPLINE
  5
333
100
AcDbEntity
  8
0
100
AcDbSpline
 62
7
  6
BYLAYER
 70
0
 71
3
 72
9
 73
5
 74
0
 42
0.0000001
 43
0.0000001
 44
0.0000000001
 40
0.0
 40
0.0
 40
0.0
 40
0.0
 40
0.2664290671
 40
1.0
 40
1.0
 40
1.0
 40
1.0
 10
109.1434323885
 20
47.2590619335
 30
0.0
 10
109.1809263283
 20
47.264536404
 30
0.0
 10
109.3206284068
 20
47.2906836832
 30
0.0
 10
109.4572342365
 20
47.3394450521
 30
0.0
 10
109.5475853531
 20
47.3916089822
 30
0.0
  0
SPLINE
  5
334
100
AcDbEntity
  8
0
100
AcDbSpline
 62
7
  6
BYLAYER
 70
0
 71
3
 72
9
 73
5
 74
0
 42
0.0000001
 43
0.0000001
 44
0.0000000001
 40
0.0
 40
0.0
 40
0.0
 40
0.0
 40
0.5506987134
 40
1.0
 40
1.0
 40
1.0
 40
1.0
 10
109.5475853531
 20
47.3916089822
 30
0.0
 10
109.6199384549
 20
47.4333818157
 30
0.0
 10
109.744313933
 20
47.5285416869
 30
0.0
 10
109.8037996141
 20
47.6806562909
 30
0.0
 10
109.8037992034
 20
47.7488194131
 30
0.0
  0
SPLINE
  5
335
100
AcDbEntity
  8
0
100
AcDbSpline
 62
7
  6
BYLAYER
 70
0
 71
3
 72
15
 73
11
 74
0
 42
0.0000001
 43
0.0000001
 44
0.0000000001
 40
0.0
 40
0.0
 40
0.0
 40
0.0
 40
0.0869241835
 40
0.1863937465
 40
0.3037874828
 40
0.4375979431
 40
0.5820957183
 40
0.7293802427
 40
0.871202141
 40
1.0
 40
1.0
 40
1.0
 40
1.0
 10
94.9687708305
 20
91.3906506071
 30
0.0
 10
94.9688931185
 20
91.2176360715
 30
0.0
 10
95.0730400432
 20
90.8432136723
 30
0.0
 10
95.4812588955
 20
90.3791039906
 30
0.0
 10
96.0836476776
 20
90.0120925358
 30
0.0
 10
96.8357109047
 20
89.7608001086
 30
0.0
 10
97.6786973856
 20
89.6425028218
 30
0.0
 10
98.5455838783
 20
89.6662242911
 30
0.0
 10
99.3650236662
 20
89.8303909257
 30
0.0
 10
99.8679573321
 20
90.037748694
 30
0.0
 10
100.0899721715
 20
90.1659282561
 30
0.0
  0
SPLINE
  5
336
100
AcDbEntity
  8
0
100
AcDbSpline
 62
7
  6
BYLAYER
 70
0
 71
3
 72
13
 73
9
 74
0
 42
0.0000001
 43
0.0000001
 44
0.0000000001
 40
0.0
 40
0.0
 40
0.0
 40
0.0
 40
0.0871382313
 40
0.1868460714
 40
0.3045099889
 40
0.4386443369
 40
0.7300494959
 40
1.0
 40
1.0
 40
1.0
 40
1.0
 10
130.409932878
 20
76.5308083105
 30
0.0
 10
130.4099823127
 20
76.444300543
 30
0.0
 10
130.4622226471
 20
76.2571255951
 30
0.0
 10
130.6662694419
 20
76.0251206694
 30
0.0
 10
130.9674069278
 20
75.8414848454
 30
0.0
 10
131.4823617825
 20
75.6698694767
 30
0.0
 10
132.1837411702
 20
75.6343459446
 30
0.0
 10
132.7384814894
 20
75.784449091
 30
0.0
 10
132.9705743908
 20
75.9184471903
 30
0.0
  0
SPLINE
  5
337
100
AcDbEntity
  8
0
100
AcDbSpline
 62
7
  6
BYLAYER
 70
0
 71
3
 72
15
 73
11
 74
0
 42
0.0000001
 43
0.0000001
 44
0.0000000001
 40
0.0
 40
0.0
 40
0.0
 40
0.0
 40
0.0869241835
 40
0.1863937465
 40
0.3037874828
 40
0.4375979431
 40
0.5820957183
 40
0.7293802427
 40
0.871202141
 40
1.0
 40
1.0
 40
1.0
 40
1.0
 10
128.9100376376
 20
71.7950943901
 30
0.0
 10
128.9101599256
 20
71.6220798545
 30
0.0
 10
129.0143068503
 20
71.2476574554
 30
0.0
 10
129.4225257025
 20
70.7835477736
 30
0.0
 10
130.0249144847
 20
70.4165363188
 30
0.0
 10
130.7769777117
 20
70.1652438916
 30
0.0
 10
131.6199641926
 20
70.0469466049
 30
0.0
 10
132.4868506854
 20
70.0706680741
 30
0.0
 10
133.3062904733
 20
70.2348347087
 30
0.0
 10
133.8092241391
 20
70.442192477
 30
0.0
 10
134.0312389785
 20
70.5703720392
 30
0.0
  0
SPLINE
  5
338
100
AcDbEntity
  8
0
100
AcDbSpline
 62
7
  6
BYLAYER
 70
0
 71
3
 72
9
 73
5
 74
0
 42
0.0000001
 43
0.0000001
 44
0.0000000001
 40
0.0
 40
0.0
 40
0.0
 40
0.0
 40
0.2324915825
 40
1.0
 40
1.0
 40
1.0
 40
1.0
 10
101.5421087539
 20
78.7568630976
 30
0.0
 10
101.5357452093
 20
78.7531891253
 30
0.0
 10
101.5093032652
 20
78.7357862497
 30
0.0
 10
101.4865961135
 20
78.7130668782
 30
0.0
 10
101.4713983702
 20
78.6941605659
 30
0.0
  0
SPLINE
  5
339
100
AcDbEntity
  8
0
100
AcDbSpline
 62
7
  6
BYLAYER
 70
0
 71
3
 72
9
 73
5
 74
0
 42
0.0000001
 43
0.0000001
 44
0.0000000001
 40
0.0
 40
0.0
 40
0.0
 40
0.0
 40
0.2629608211
 40
1.0
 40
1.0
 40
1.0
 40
1.0
 10
99.4536140456
 20
76.1839944312
 30
0.0
 10
99.442777889
 20
76.1705140246
 30
0.0
 10
99.4059044916
 20
76.1162201782
 30
0.0
 10
99.3829036619
 20
76.0502250603
 30
0.0
 10
99.3829036619
 20
76.0017476487
 30
0.0
  0
SPLINE
  5
33A
100
AcDbEntity
  8
0
100
AcDbSpline
 62
7
  6
BYLAYER
 70
0
 71
3
 72
11
 73
7
 74
0
 42
0.0000001
 43
0.0000001
 44
0.0000000001
 40
0.0
 40
0.0
 40
0.0
 40
0.0
 40
0.2177425945
 40
0.4508795295
 40
0.710457256
 40
1.0
 40
1.0
 40
1.0
 40
1.0
 10
127.9101335918
 20
76.5308083204
 30
0.0
 10
127.9101336377
 20
76.6831358985
 30
0.0
 10
127.966073381
 20
77.0007252119
 30
0.0
 10
128.2069972191
 20
77.4432966285
 30
0.0
 10
128.5877889422
 20
77.8430490334
 30
0.0
 10
128.9061220476
 20
78.0625416263
 30
0.0
 10
129.0815436674
 20
78.1638170029
 30
0.0
  0
SPLINE
  5
33B
100
AcDbEntity
  8
0
100
AcDbSpline
 62
7
  6
BYLAYER
 70
0
 71
3
 72
9
 73
5
 74
0
 42
0.0000001
 43
0.0000001
 44
0.0000000001
 40
0.0
 40
0.0
 40
0.0
 40
0.0
 40
0.244927504
 40
1.0
 40
1.0
 40
1.0
 40
1.0
 10
127.9101335367
 20
75.0611039728
 30
0.0
 10
127.9101335602
 20
75.0060855074
 30
0.0
 10
127.9237663605
 20
74.7814843441
 30
0.0
 10
127.995008496
 20
74.5618252742
 30
0.0
 10
128.0718816684
 20
74.4106328728
 30
0.0
  0
SPLINE
  5
33C
100
AcDbEntity
  8
0
100
AcDbSpline
 62
7
  6
BYLAYER
 70
0
 71
3
 72
9
 73
5
 74
0
 42
0.0000001
 43
0.0000001
 44
0.0000000001
 40
0.0
 40
0.0
 40
0.0
 40
0.0
 40
0.2254005844
 40
1.0
 40
1.0
 40
1.0
 40
1.0
 10
128.0718816684
 20
74.4106328728
 30
0.0
 10
128.1202497245
 20
74.3155036836
 30
0.0
 10
128.3758217898
 20
73.9139928268
 30
0.0
 10
128.7638812041
 20
73.6114973028
 30
0.0
 10
129.0814944542
 20
73.4281273558
 30
0.0
  0
SPLINE
  5
33D
100
AcDbEntity
  8
0
100
AcDbSpline
 62
7
  6
BYLAYER
 70
0
 71
3
 72
15
 73
11
 74
0
 42
0.0000001
 43
0.0000001
 44
0.0000000001
 40
0.0
 40
0.0
 40
0.0
 40
0.0
 40
0.1287972074
 40
0.2706054898
 40
0.4178799053
 40
0.562375555
 40
0.6961915357
 40
0.8135903033
 40
0.913065596
 40
1.0
 40
1.0
 40
1.0
 40
1.0
 10
118.9698430484
 20
45.7894235693
 30
0.0
 10
118.9698430484
 20
46.0201466871
 30
0.0
 10
118.9051521405
 20
46.5054310781
 30
0.0
 10
118.6643810773
 20
47.217956459
 30
0.0
 10
118.2928141874
 20
47.9042731933
 30
0.0
 10
117.821277065
 20
48.5080752012
 30
0.0
 10
117.286985296
 20
48.9811924619
 30
0.0
 10
116.7298351019
 20
49.2855759805
 30
0.0
 10
116.1843632893
 20
49.3949382165
 30
0.0
 10
115.8456372132
 20
49.3076084778
 30
0.0
 10
115.7107107024
 20
49.2298452262
 30
0.0
  0
SPLINE
  5
33E
100
AcDbEntity
  8
0
100
AcDbSpline
 62
7
  6
BYLAYER
 70
0
 71
3
 72
15
 73
11
 74
0
 42
0.0000001
 43
0.0000001
 44
0.0000000001
 40
0.0
 40
0.0
 40
0.0
 40
0.0
 40
0.1287972074
 40
0.2706054898
 40
0.4178799053
 40
0.562375555
 40
0.6961915357
 40
0.8135903033
 40
0.913065596
 40
1.0
 40
1.0
 40
1.0
 40
1.0
 10
111.898745797
 20
49.8718311145
 30
0.0
 10
111.898745797
 20
50.1025542323
 30
0.0
 10
111.834054889
 20
50.5878386233
 30
0.0
 10
111.5932838258
 20
51.3003640042
 30
0.0
 10
111.2217169359
 20
51.9866807385
 30
0.0
 10
110.7501798135
 20
52.5904827464
 30
0.0
 10
110.2158880445
 20
53.0636000071
 30
0.0
 10
109.6587378504
 20
53.3679835257
 30
0.0
 10
109.1132660378
 20
53.4773457617
 30
0.0
 10
108.7745399617
 20
53.390016023
 30
0.0
 10
108.6396134509
 20
53.3122527714
 30
0.0
  0
SPLINE
  5
33F
100
AcDbEntity
  8
0
100
AcDbSpline
 62
7
  6
BYLAYER
 70
0
 71
3
 72
15
 73
11
 74
0
 42
0.0000001
 43
0.0000001
 44
0.0000000001
 40
0.0
 40
0.0
 40
0.0
 40
0.0
 40
0.1287972074
 40
0.2706054898
 40
0.4178799053
 40
0.562375555
 40
0.6961915357
 40
0.8135903033
 40
0.913065596
 40
1.0
 40
1.0
 40
1.0
 40
1.0
 10
104.8276485455
 20
53.9542386597
 30
0.0
 10
104.8276485455
 20
54.1849617775
 30
0.0
 10
104.7629576376
 20
54.6702461685
 30
0.0
 10
104.5221865744
 20
55.3827715494
 30
0.0
 10
104.1506196844
 20
56.0690882837
 30
0.0
 10
103.679082562
 20
56.6728902916
 30
0.0
 10
103.144790793
 20
57.1460075523
 30
0.0
 10
102.587640599
 20
57.4503910709
 30
0.0
 10
102.0421687864
 20
57.5597533069
 30
0.0
 10
101.7034427102
 20
57.4724235683
 30
0.0
 10
101.5685161995
 20
57.3946603166
 30
0.0
  0
SPLINE
  5
340
100
AcDbEntity
  8
0
100
AcDbSpline
 62
7
  6
BYLAYER
 70
0
 71
3
 72
9
 73
5
 74
0
 42
0.0000001
 43
0.0000001
 44
0.0000000001
 40
0.0
 40
0.0
 40
0.0
 40
0.0
 40
0.2704257751
 40
1.0
 40
1.0
 40
1.0
 40
1.0
 10
116.2121062885
 20
48.6062898745
 30
0.0
 10
116.2121062885
 20
48.675330433
 30
0.0
 10
116.2226644794
 20
48.9301542068
 30
0.0
 10
116.2776423826
 20
49.1858728353
 30
0.0
 10
116.3530201164
 20
49.3562018079
 30
0.0
  0
SPLINE
  5
341
100
AcDbEntity
  8
0
100
AcDbSpline
 62
7
  6
BYLAYER
 70
0
 71
3
 72
9
 73
5
 74
0
 42
0.0000001
 43
0.0000001
 44
0.0000000001
 40
0.0
 40
0.0
 40
0.0
 40
0.0
 40
0.2664290671
 40
1.0
 40
1.0
 40
1.0
 40
1.0
 10
116.21452964
 20
43.1766543883
 30
0.0
 10
116.2520235798
 20
43.1821288588
 30
0.0
 10
116.3917256583
 20
43.2082761379
 30
0.0
 10
116.528331488
 20
43.2570375069
 30
0.0
 10
116.6186826046
 20
43.309201437
 30
0.0
  0
SPLINE
  5
342
100
AcDbEntity
  8
0
100
AcDbSpline
 62
7
  6
BYLAYER
 70
0
 71
3
 72
9
 73
5
 74
0
 42
0.0000001
 43
0.0000001
 44
0.0000000001
 40
0.0
 40
0.0
 40
0.0
 40
0.0
 40
0.5506987134
 40
1.0
 40
1.0
 40
1.0
 40
1.0
 10
116.6186826046
 20
43.309201437
 30
0.0
 10
116.6910357064
 20
43.3509742705
 30
0.0
 10
116.8154111845
 20
43.4461341417
 30
0.0
 10
116.8748968656
 20
43.5982487457
 30
0.0
 10
116.8748964548
 20
43.6664118679
 30
0.0
  0
SPLINE
  5
343
100
AcDbEntity
  8
0
100
AcDbSpline
 62
7
  6
BYLAYER
 70
0
 71
3
 72
13
 73
9
 74
0
 42
0.0000001
 43
0.0000001
 44
0.0000000001
 40
0.0
 40
0.0
 40
0.0
 40
0.0
 40
0.0920869931
 40
0.1900391251
 40
0.2980652687
 40
0.418196072
 40
0.6926979899
 40
1.0
 40
1.0
 40
1.0
 40
1.0
 10
93.9688458746
 20
96.1263640196
 30
0.0
 10
93.9688789992
 20
96.2701198898
 30
0.0
 10
94.0182769663
 20
96.5686877196
 30
0.0
 10
94.2328278833
 20
96.9881814602
 30
0.0
 10
94.5735754877
 20
97.3723728408
 30
0.0
 10
95.2063427118
 20
97.8435572574
 30
0.0
 10
96.2358055977
 20
98.2637230461
 30
0.0
 10
97.1408889041
 20
98.4027422625
 30
0.0
 10
97.6200034348
 20
98.4269439202
 30
0.0
  0
SPLINE
  5
344
100
AcDbEntity
  8
0
100
AcDbSpline
 62
7
  6
BYLAYER
 70
0
 71
3
 72
11
 73
7
 74
0
 42
0.0000001
 43
0.0000001
 44
0.0000000001
 40
0.0
 40
0.0
 40
0.0
 40
0.0
 40
0.2177122886
 40
0.4508582711
 40
0.7104924549
 40
1.0
 40
1.0
 40
1.0
 40
1.0
 10
93.9688458746
 20
94.6566596687
 30
0.0
 10
93.9688107807
 20
94.504357854
 30
0.0
 10
94.0248340062
 20
94.1868049029
 30
0.0
 10
94.2656712058
 20
93.7441868773
 30
0.0
 10
94.6465412947
 20
93.344488416
 30
0.0
 10
94.9648334904
 20
93.1249451455
 30
0.0
 10
95.1402276472
 20
93.0236835727
 30
0.0
  0
SPLINE
  5
345
100
AcDbEntity
  8
0
100
AcDbSpline
 62
7
  6
BYLAYER
 70
0
 71
3
 72
9
 73
5
 74
0
 42
0.0000001
 43
0.0000001
 44
0.0000000001
 40
0.0
 40
0.0
 40
0.0
 40
0.0
 40
0.2704257751
 40
1.0
 40
1.0
 40
1.0
 40
1.0
 10
109.141009037
 20
52.6886974197
 30
0.0
 10
109.141009037
 20
52.7577379782
 30
0.0
 10
109.1515672279
 20
53.012561752
 30
0.0
 10
109.2065451311
 20
53.2682803805
 30
0.0
 10
109.2819228649
 20
53.4386093531
 30
0.0
  0
SPLINE
  5
346
100
AcDbEntity
  8
0
100
AcDbSpline
 62
7
  6
BYLAYER
 70
0
 71
3
 72
15
 73
11
 74
0
 42
0.0000001
 43
0.0000001
 44
0.0000000001
 40
0.0
 40
0.0
 40
0.0
 40
0.0
 40
0.1269513203
 40
0.2664798737
 40
0.4118111954
 40
0.5553717366
 40
0.6897801129
 40
0.8093290181
 40
0.911693564
 40
1.0
 40
1.0
 40
1.0
 40
1.0
 10
129.0814944542
 20
73.4281273558
 30
0.0
 10
129.3660044372
 20
73.2638691565
 30
0.0
 10
130.0081391562
 20
72.9953641602
 30
0.0
 10
131.0554966341
 20
72.7742572697
 30
0.0
 10
132.1681109801
 20
72.7265682547
 30
0.0
 10
133.2608422004
 20
72.855585749
 30
0.0
 10
134.252130347
 20
73.1521026946
 30
0.0
 10
135.0696933131
 20
73.5963052996
 30
0.0
 10
135.6564464205
 20
74.1633193516
 30
0.0
 10
135.8604536733
 20
74.6339005045
 30
0.0
 10
135.8946900469
 20
74.8598388608
 30
0.0
  0
SPLINE
  5
347
100
AcDbEntity
  8
0
100
AcDbSpline
 62
7
  6
BYLAYER
 70
0
 71
3
 72
9
 73
5
 74
0
 42
0.0000001
 43
0.0000001
 44
0.0000000001
 40
0.0
 40
0.0
 40
0.0
 40
0.0
 40
0.2206065295
 40
1.0
 40
1.0
 40
1.0
 40
1.0
 10
136.7073782172
 20
80.2230654485
 30
0.0
 10
136.7089304375
 20
80.2333091184
 30
0.0
 10
136.7232581688
 20
80.2788055892
 30
0.0
 10
136.7624041399
 20
80.3121410831
 30
0.0
 10
136.7941038179
 20
80.3304427914
 30
0.0
  0
SPLINE
  5
348
100
AcDbEntity
  8
0
100
AcDbSpline
 62
7
  6
BYLAYER
 70
0
 71
3
 72
11
 73
7
 74
0
 42
0.0000001
 43
0.0000001
 44
0.0000000001
 40
0.0
 40
0.0
 40
0.0
 40
0.0
 40
0.2894534168
 40
0.5491428569
 40
0.7823044194
 40
1.0
 40
1.0
 40
1.0
 40
1.0
 10
134.0312389785
 20
70.5703720392
 30
0.0
 10
134.162757056
 20
70.6463035833
 30
0.0
 10
134.4014339265
 20
70.8110015683
 30
0.0
 10
134.6871592064
 20
71.1107164472
 30
0.0
 10
134.8677406988
 20
71.4427235901
 30
0.0
 10
134.9098149277
 20
71.6808782093
 30
0.0
 10
134.9097543001
 20
71.7950937086
 30
0.0
  0
SPLINE
  5
349
100
AcDbEntity
  8
0
100
AcDbSpline
 62
7
  6
BYLAYER
 70
0
 71
3
 72
11
 73
7
 74
0
 42
0.0000001
 43
0.0000001
 44
0.0000000001
 40
0.0
 40
0.0
 40
0.0
 40
0.0
 40
0.2372533431
 40
0.5000010777
 40
0.7627479805
 40
1.0
 40
1.0
 40
1.0
 40
1.0
 10
95.1402276472
 20
93.0236835727
 30
0.0
 10
95.5418092194
 20
92.791835589
 30
0.0
 10
96.4756226271
 20
92.4534624005
 30
0.0
 10
97.9686768114
 20
92.2916924814
 30
0.0
 10
99.4617243116
 20
92.4534801796
 30
0.0
 10
100.3955345676
 20
92.7918537059
 30
0.0
 10
100.7971091652
 20
93.0237085961
 30
0.0
  0
SPLINE
  5
34A
100
AcDbEntity
  8
0
100
AcDbSpline
 62
7
  6
BYLAYER
 70
0
 71
3
 72
9
 73
5
 74
0
 42
0.0000001
 43
0.0000001
 44
0.0000000001
 40
0.0
 40
0.0
 40
0.0
 40
0.0
 40
0.2298437472
 40
1.0
 40
1.0
 40
1.0
 40
1.0
 10
156.7240416237
 20
91.836929064
 30
0.0
 10
156.7368886622
 20
91.8443462609
 30
0.0
 10
156.795304357
 20
91.872204546
 30
0.0
 10
156.8603828294
 20
91.8844926217
 30
0.0
 10
156.9100265741
 20
91.8870002913
 30
0.0
  0
SPLINE
  5
34B
100
AcDbEntity
  8
0
100
AcDbSpline
 62
7
  6
BYLAYER
 70
0
 71
3
 72
13
 73
9
 74
0
 42
0.0000001
 43
0.0000001
 44
0.0000000001
 40
0.0
 40
0.0
 40
0.0
 40
0.0
 40
0.3073020101
 40
0.581803928
 40
0.7019347313
 40
0.8099608749
 40
0.9079130069
 40
1.0
 40
1.0
 40
1.0
 40
1.0
 10
166.1995335506
 20
92.3562439759
 30
0.0
 10
166.6786480812
 20
92.3804456336
 30
0.0
 10
167.5837313877
 20
92.5194648501
 30
0.0
 10
168.6131942736
 20
92.9396306388
 30
0.0
 10
169.2459614977
 20
93.4108150553
 30
0.0
 10
169.5867091021
 20
93.7950064359
 30
0.0
 10
169.8012600191
 20
94.2145001765
 30
0.0
 10
169.8506579862
 20
94.5130680064
 30
0.0
 10
169.8506911108
 20
94.6568238766
 30
0.0
  0
SPLINE
  5
34C
100
AcDbEntity
  8
0
100
AcDbSpline
 62
7
  6
BYLAYER
 70
0
 71
3
 72
11
 73
7
 74
0
 42
0.0000001
 43
0.0000001
 44
0.0000000001
 40
0.0
 40
0.0
 40
0.0
 40
0.0
 40
0.2934855739
 40
0.5541875536
 40
0.7858833099
 40
1.0
 40
1.0
 40
1.0
 40
1.0
 10
136.1872115491
 20
110.3830317439
 30
0.0
 10
136.5164875315
 20
110.2168215999
 30
0.0
 10
137.1152558843
 20
109.8518083034
 30
0.0
 10
137.8379631577
 20
109.1650272795
 30
0.0
 10
138.3002777951
 20
108.3910896106
 30
0.0
 10
138.4097391311
 20
107.8265784717
 30
0.0
 10
138.4096322408
 20
107.557480402
 30
0.0
  0
SPLINE
  5
34D
100
AcDbEntity
  8
0
100
AcDbSpline
 62
7
  6
BYLAYER
 70
0
 71
3
 72
10
 73
6
 74
0
 42
0.0000001
 43
0.0000001
 44
0.0000000001
 40
0.0
 40
0.0
 40
0.0
 40
0.0
 40
0.4520908132
 40
0.7158769985
 40
1.0
 40
1.0
 40
1.0
 40
1.0
 10
124.5444169095
 20
219.2484185316
 30
0.0
 10
124.9882134112
 20
218.644090597
 30
0.0
 10
125.9554866483
 20
217.8820925097
 30
0.0
 10
127.4571994721
 20
217.1808269378
 30
0.0
 10
128.3293782123
 20
216.9110069054
 30
0.0
 10
128.7870752604
 20
216.7989740044
 30
0.0
  0
SPLINE
  5
34E
100
AcDbEntity
  8
0
100
AcDbSpline
 62
7
  6
BYLAYER
 70
0
 71
3
 72
9
 73
5
 74
0
 42
0.0000001
 43
0.0000001
 44
0.0000000001
 40
0.0
 40
0.0
 40
0.0
 40
0.0
 40
0.4758548261
 40
1.0
 40
1.0
 40
1.0
 40
1.0
 10
129.3540454072
 20
217.1263124174
 30
0.0
 10
129.5433000706
 20
217.235577996
 30
0.0
 10
129.991062137
 20
217.3776302388
 30
0.0
 10
130.4557631982
 20
217.390986203
 30
0.0
 10
130.6950334632
 20
217.3647071591
 30
0.0
  0
SPLINE
  5
34F
100
AcDbEntity
  8
0
100
AcDbSpline
 62
7
  6
BYLAYER
 70
0
 71
3
 72
9
 73
5
 74
0
 42
0.0000001
 43
0.0000001
 44
0.0000000001
 40
0.0
 40
0.0
 40
0.0
 40
0.0
 40
0.2673085249
 40
1.0
 40
1.0
 40
1.0
 40
1.0
 10
132.8290262779
 20
217.3363111757
 30
0.0
 10
132.9077813949
 20
217.3428067274
 30
0.0
 10
133.2006448728
 20
217.3808305578
 30
0.0
 10
133.4899787341
 20
217.4729596139
 30
0.0
 10
133.6775604711
 20
217.5812593338
 30
0.0
  0
SPLINE
  5
350
100
AcDbEntity
  8
0
100
AcDbSpline
 62
7
  6
BYLAYER
 70
0
 71
3
 72
9
 73
5
 74
0
 42
0.0000001
 43
0.0000001
 44
0.0000000001
 40
0.0
 40
0.0
 40
0.0
 40
0.0
 40
0.2872662187
 40
1.0
 40
1.0
 40
1.0
 40
1.0
 10
137.9201834926
 20
220.0307242561
 30
0.0
 10
137.9746662226
 20
220.0621796871
 30
0.0
 10
138.1560171616
 20
220.1823309707
 30
0.0
 10
138.3069586433
 20
220.3691100748
 30
0.0
 10
138.3444473315
 20
220.52062957
 30
0.0
  0
SPLINE
  5
351
100
AcDbEntity
  8
0
100
AcDbSpline
 62
7
  6
BYLAYER
 70
0
 71
3
 72
8
 73
4
 74
0
 42
0.0000001
 43
0.0000001
 44
0.0000000001
 40
0.0
 40
0.0
 40
0.0
 40
0.0
 40
1.0
 40
1.0
 40
1.0
 40
1.0
 10
138.3444473315
 20
220.52062957
 30
0.0
 10
138.3872557776
 20
220.693642737
 30
0.0
 10
138.4097690208
 20
220.8730854213
 30
0.0
 10
138.4097699479
 20
221.0513159435
 30
0.0
  0
SPLINE
  5
352
100
AcDbEntity
  8
0
100
AcDbSpline
 62
7
  6
BYLAYER
 70
0
 71
3
 72
15
 73
11
 74
0
 42
0.0000001
 43
0.0000001
 44
0.0000000001
 40
0.0
 40
0.0
 40
0.0
 40
0.0
 40
0.1141549974
 40
0.2373268943
 40
0.3669765742
 40
0.5000005394
 40
0.633024429
 40
0.7626738905
 40
0.8858454396
 40
1.0
 40
1.0
 40
1.0
 40
1.0
 10
110.9087845274
 20
237.9123003824
 30
0.0
 10
112.3464834325
 20
237.0822633106
 30
0.0
 10
115.4902663376
 20
235.6183477787
 30
0.0
 10
120.6097264026
 20
234.0623694731
 30
0.0
 10
126.152333424
 20
233.1046163443
 30
0.0
 10
131.9098920924
 20
232.7814919115
 30
0.0
 10
137.6674460566
 20
233.1046438126
 30
0.0
 10
143.2100391039
 20
234.0624233845
 30
0.0
 10
148.3294766492
 20
235.6184259513
 30
0.0
 10
151.4732399141
 20
237.0823570815
 30
0.0
 10
152.9109273296
 20
237.9124013432
 30
0.0
  0
SPLINE
  5
353
100
AcDbEntity
  8
0
100
AcDbSpline
 62
7
  6
BYLAYER
 70
0
 71
3
 72
11
 73
7
 74
0
 42
0.0000001
 43
0.0000001
 44
0.0000000001
 40
0.0
 40
0.0
 40
0.0
 40
0.0
 40
0.2897048043
 40
0.5490913404
 40
0.7822177947
 40
1.0
 40
1.0
 40
1.0
 40
1.0
 10
170.3763921087
 20
268.408592372
 30
0.0
 10
170.5957851708
 20
268.5352582593
 30
0.0
 10
170.9938194901
 20
268.8094120177
 30
0.0
 10
171.4695259578
 20
269.3093578399
 30
0.0
 10
171.7704422733
 20
269.8624190467
 30
0.0
 10
171.840818569
 20
270.2593560872
 30
0.0
 10
171.8408185337
 20
270.4497961446
 30
0.0
  0
SPLINE
  5
354
100
AcDbEntity
  8
0
100
AcDbSpline
 62
7
  6
BYLAYER
 70
0
 71
3
 72
11
 73
7
 74
0
 42
0.0000001
 43
0.0000001
 44
0.0000000001
 40
0.0
 40
0.0
 40
0.0
 40
0.0
 40
0.2897052857
 40
0.5490919933
 40
0.7822182543
 40
1.0
 40
1.0
 40
1.0
 40
1.0
 10
170.3763626691
 20
278.2065338339
 30
0.0
 10
170.5957598352
 20
278.0798676866
 30
0.0
 10
170.9938017088
 20
277.8057128824
 30
0.0
 10
171.4695178409
 20
277.305763355
 30
0.0
 10
171.7704406381
 20
276.7526967903
 30
0.0
 10
171.840818587
 20
276.3557551732
 30
0.0
 10
171.8408185337
 20
276.1653130646
 30
0.0
  0
SPLINE
  5
355
100
AcDbEntity
  8
0
100
AcDbSpline
 62
7
  6
BYLAYER
 70
0
 71
3
 72
11
 73
7
 74
0
 42
0.0000001
 43
0.0000001
 44
0.0000000001
 40
0.0
 40
0.0
 40
0.0
 40
0.0
 40
0.2372405738
 40
0.5000004574
 40
0.7627600882
 40
1.0
 40
1.0
 40
1.0
 40
1.0
 10
128.3743947386
 20
248.241314174
 30
0.0
 10
128.8763438665
 20
247.9515202659
 30
0.0
 10
130.0436160639
 20
247.5286443155
 30
0.0
 10
131.909933774
 20
247.3260454316
 30
0.0
 10
133.7762489386
 20
247.5286526726
 30
0.0
 10
134.9435169128
 20
247.9515344517
 30
0.0
 10
135.4454625504
 20
248.2413311708
 30
0.0
  0
SPLINE
  5
356
100
AcDbEntity
  8
0
100
AcDbSpline
 62
7
  6
BYLAYER
 70
0
 71
3
 72
9
 73
5
 74
0
 42
0.0000001
 43
0.0000001
 44
0.0000000001
 40
0.0
 40
0.0
 40
0.0
 40
0.0
 40
0.2630547453
 40
1.0
 40
1.0
 40
1.0
 40
1.0
 10
146.0519629956
 20
275.8551672629
 30
0.0
 10
146.3456020034
 20
276.0246988112
 30
0.0
 10
147.4437826447
 20
276.6991515599
 30
0.0
 10
148.468963715
 20
277.4987683886
 30
0.0
 10
149.146981607
 20
278.1640318184
 30
0.0
  0
SPLINE
  5
357
100
AcDbEntity
  8
0
100
AcDbSpline
 62
7
  6
BYLAYER
 70
0
 71
3
 72
11
 73
7
 74
0
 42
0.0000001
 43
0.0000001
 44
0.0000000001
 40
0.0
 40
0.0
 40
0.0
 40
0.0
 40
0.2372531816
 40
0.5000006935
 40
0.7627478297
 40
1.0
 40
1.0
 40
1.0
 40
1.0
 10
129.7886159552
 20
269.5683834701
 30
0.0
 10
130.0898004164
 20
269.3944984748
 30
0.0
 10
130.7901561545
 20
269.1407191739
 30
0.0
 10
131.9099402489
 20
269.0193915532
 30
0.0
 10
133.029722267
 20
269.1407245247
 30
0.0
 10
133.7300747195
 20
269.394507242
 30
0.0
 10
134.0312566427
 20
269.5683936684
 30
0.0
  0
SPLINE
  5
358
100
AcDbEntity
  8
0
100
AcDbSpline
 62
7
  6
BYLAYER
 70
0
 71
3
 72
11
 73
7
 74
0
 42
0.0000001
 43
0.0000001
 44
0.0000000001
 40
0.0
 40
0.0
 40
0.0
 40
0.0
 40
0.2895416688
 40
0.549118971
 40
0.7822562702
 40
1.0
 40
1.0
 40
1.0
 40
1.0
 10
172.2148638515
 20
291.6135779771
 30
0.0
 10
172.3464229905
 20
291.689533228
 30
0.0
 10
172.5851593277
 20
291.8541500908
 30
0.0
 10
172.8707351868
 20
292.1539572813
 30
0.0
 10
173.0514151422
 20
292.4858756763
 30
0.0
 10
173.093366853
 20
292.7240586264
 30
0.0
 10
173.0933668175
 20
292.8383002396
 30
0.0
  0
SPLINE
  5
359
100
AcDbEntity
  8
0
100
AcDbSpline
 62
7
  6
BYLAYER
 70
0
 71
3
 72
9
 73
5
 74
0
 42
0.0000001
 43
0.0000001
 44
0.0000000001
 40
0.0
 40
0.0
 40
0.0
 40
0.0
 40
0.2778800571
 40
1.0
 40
1.0
 40
1.0
 40
1.0
 10
145.0620093804
 20
322.2324899202
 30
0.0
 10
145.1168794488
 20
322.2641689799
 30
0.0
 10
145.3074108084
 20
322.3881433744
 30
0.0
 10
145.4736168751
 20
322.5607259172
 30
0.0
 10
145.5462049832
 20
322.70850919
 30
0.0
  0
SPLINE
  5
35A
100
AcDbEntity
  8
0
100
AcDbSpline
 62
7
  6
BYLAYER
 70
0
 71
3
 72
8
 73
4
 74
0
 42
0.0000001
 43
0.0000001
 44
0.0000000001
 40
0.0
 40
0.0
 40
0.0
 40
0.0
 40
1.0
 40
1.0
 40
1.0
 40
1.0
 10
145.5462049832
 20
322.70850919
 30
0.0
 10
145.5773458921
 20
322.771909457
 30
0.0
 10
145.6000014266
 20
322.8405158201
 30
0.0
 10
145.6108554
 20
322.9103122478
 30
0.0
  0
SPLINE
  5
35B
100
AcDbEntity
  8
0
100
AcDbSpline
 62
7
  6
BYLAYER
 70
0
 71
3
 72
11
 73
7
 74
0
 42
0.0000001
 43
0.0000001
 44
0.0000000001
 40
0.0
 40
0.0
 40
0.0
 40
0.0
 40
0.2372436391
 40
0.5000005261
 40
0.7627571268
 40
1.0
 40
1.0
 40
1.0
 40
1.0
 10
142.3750036119
 20
322.2324834615
 30
0.0
 10
142.5657459948
 20
322.1223607867
 30
0.0
 10
143.0093150848
 20
321.9616862067
 30
0.0
 10
143.7185086084
 20
321.8847004917
 30
0.0
 10
144.4277010618
 20
321.9616894432
 30
0.0
 10
144.8712684075
 20
322.1223662255
 30
0.0
 10
145.0620093804
 20
322.2324899202
 30
0.0
  0
SPLINE
  5
35C
100
AcDbEntity
  8
0
100
AcDbSpline
 62
7
  6
BYLAYER
 70
0
 71
3
 72
11
 73
7
 74
0
 42
0.0000001
 43
0.0000001
 44
0.0000000001
 40
0.0
 40
0.0
 40
0.0
 40
0.0
 40
0.2372518718
 40
0.4999985497
 40
0.7627460178
 40
1.0
 40
1.0
 40
1.0
 40
1.0
 10
119.5353718544
 20
333.7040415248
 30
0.0
 10
119.3345839212
 20
333.5881172496
 30
0.0
 10
118.9546108541
 20
333.2683634301
 30
0.0
 10
118.5113003648
 20
332.6622995942
 30
0.0
 10
118.2080918535
 20
331.9753459743
 30
0.0
 10
118.1211641799
 20
331.4864000336
 30
0.0
 10
118.1211641799
 20
331.2545483828
 30
0.0
  0
SPLINE
  5
35D
100
AcDbEntity
  8
0
100
AcDbSpline
 62
7
  6
BYLAYER
 70
0
 71
3
 72
9
 73
5
 74
0
 42
0.0000001
 43
0.0000001
 44
0.0000000001
 40
0.0
 40
0.0
 40
0.0
 40
0.0
 40
0.5500408388
 40
1.0
 40
1.0
 40
1.0
 40
1.0
 10
122.7626542296
 20
336.5470887201
 30
0.0
 10
122.8039383675
 20
336.570923986
 30
0.0
 10
122.874676882
 20
336.6255044225
 30
0.0
 10
122.9091454933
 20
336.7122122068
 30
0.0
 10
122.9091455131
 20
336.7512091085
 30
0.0
  0
SPLINE
  5
35E
100
AcDbEntity
  8
0
100
AcDbSpline
 62
7
  6
BYLAYER
 70
0
 71
3
 72
9
 73
5
 74
0
 42
0.0000001
 43
0.0000001
 44
0.0000000001
 40
0.0
 40
0.0
 40
0.0
 40
0.0
 40
0.2417621858
 40
1.0
 40
1.0
 40
1.0
 40
1.0
 10
119.5542864368
 20
335.1029919222
 30
0.0
 10
119.6056918155
 20
335.0733136843
 30
0.0
 10
119.8384056313
 20
334.990198258
 30
0.0
 10
120.1134140746
 20
335.0175583335
 30
0.0
 10
120.2746358951
 20
335.1106392394
 30
0.0
  0
SPLINE
  5
35F
100
AcDbEntity
  8
0
100
AcDbSpline
 62
7
  6
BYLAYER
 70
0
 71
3
 72
9
 73
5
 74
0
 42
0.0000001
 43
0.0000001
 44
0.0000000001
 40
0.0
 40
0.0
 40
0.0
 40
0.0
 40
0.2258454353
 40
1.0
 40
1.0
 40
1.0
 40
1.0
 10
119.4296865861
 20
335.2227136151
 30
0.0
 10
119.4358216131
 20
335.2111283986
 30
0.0
 10
119.4678117659
 20
335.1623549962
 30
0.0
 10
119.5153701366
 20
335.1254597503
 30
0.0
 10
119.5542864368
 20
335.1029919222
 30
0.0
  0
SPLINE
  5
360
100
AcDbEntity
  8
0
100
AcDbSpline
 62
7
  6
BYLAYER
 70
0
 71
3
 72
9
 73
5
 74
0
 42
0.0000001
 43
0.0000001
 44
0.0000000001
 40
0.0
 40
0.0
 40
0.0
 40
0.0
 40
0.2292889062
 40
1.0
 40
1.0
 40
1.0
 40
1.0
 10
120.5961954163
 20
63.7545250131
 30
0.0
 10
120.5961954163
 20
63.7696200649
 30
0.0
 10
120.6040548916
 20
63.8353295856
 30
0.0
 10
120.6351166767
 20
63.8972254577
 30
0.0
 10
120.6669058
 20
63.9367717956
 30
0.0
  0
SPLINE
  5
361
100
AcDbEntity
  8
0
100
AcDbSpline
 62
7
  6
BYLAYER
 70
0
 71
3
 72
9
 73
5
 74
0
 42
0.0000001
 43
0.0000001
 44
0.0000000001
 40
0.0
 40
0.0
 40
0.0
 40
0.0
 40
0.7675084175
 40
1.0
 40
1.0
 40
1.0
 40
1.0
 10
122.6846901246
 20
66.4469379303
 30
0.0
 10
122.6998878679
 20
66.4658442426
 30
0.0
 10
122.7225950196
 20
66.4885636141
 30
0.0
 10
122.7490369637
 20
66.5059664897
 30
0.0
 10
122.7554005083
 20
66.509640462
 30
0.0
  0
SPLINE
  5
362
100
AcDbEntity
  8
0
100
AcDbSpline
 62
7
  6
BYLAYER
 70
0
 71
3
 72
11
 73
7
 74
0
 42
0.0000001
 43
0.0000001
 44
0.0000000001
 40
0.0
 40
0.0
 40
0.0
 40
0.0
 40
0.2177821605
 40
0.4509085882
 40
0.7102951949
 40
1.0
 40
1.0
 40
1.0
 40
1.0
 10
171.8408185337
 20
276.1653130646
 30
0.0
 10
171.8408184803
 20
275.974873047
 30
0.0
 10
171.7704423574
 20
275.5779360705
 30
0.0
 10
171.4695260197
 20
275.0248748381
 30
0.0
 10
170.9938194937
 20
274.5249290393
 30
0.0
 10
170.5957851707
 20
274.2507751792
 30
0.0
 10
170.3763921087
 20
274.1241092919
 30
0.0
  0
SPLINE
  5
363
100
AcDbEntity
  8
0
100
AcDbSpline
 62
7
  6
BYLAYER
 70
0
 71
3
 72
9
 73
5
 74
0
 42
0.0000001
 43
0.0000001
 44
0.0000000001
 40
0.0
 40
0.0
 40
0.0
 40
0.0
 40
0.2674227005
 40
1.0
 40
1.0
 40
1.0
 40
1.0
 10
156.9100265741
 20
93.3567046421
 30
0.0
 10
156.8927975447
 20
93.3558343469
 30
0.0
 10
156.828696184
 20
93.349340582
 30
0.0
 10
156.7649677504
 20
93.3302619841
 30
0.0
 10
156.7240416237
 20
93.3066334149
 30
0.0
  0
SPLINE
  5
364
100
AcDbEntity
  8
0
100
AcDbSpline
 62
7
  6
BYLAYER
 70
0
 71
3
 72
9
 73
5
 74
0
 42
0.0000001
 43
0.0000001
 44
0.0000000001
 40
0.0
 40
0.0
 40
0.0
 40
0.0
 40
0.2905469472
 40
1.0
 40
1.0
 40
1.0
 40
1.0
 10
136.7941038179
 20
81.8001471422
 30
0.0
 10
136.7823285061
 20
81.7933487034
 30
0.0
 10
136.7437102514
 20
81.7676224152
 30
0.0
 10
136.7123523421
 20
81.7255958692
 30
0.0
 10
136.7073782172
 20
81.6927697993
 30
0.0
  0
SPLINE
  5
365
100
AcDbEntity
  8
0
100
AcDbSpline
 62
7
  6
BYLAYER
 70
0
 71
3
 72
9
 73
5
 74
0
 42
0.0000001
 43
0.0000001
 44
0.0000000001
 40
0.0
 40
0.0
 40
0.0
 40
0.0
 40
0.2249659775
 40
1.0
 40
1.0
 40
1.0
 40
1.0
 10
121.3214560992
 20
274.4441572003
 30
0.0
 10
121.4522121282
 20
274.175860018
 30
0.0
 10
122.1536989126
 20
273.0409522659
 30
0.0
 10
123.2411376561
 20
272.1886556258
 30
0.0
 10
124.1316262833
 20
271.674543408
 30
0.0
  0
SPLINE
  5
366
100
AcDbEntity
  8
0
100
AcDbSpline
 62
7
  6
BYLAYER
 70
0
 71
3
 72
16
 73
12
 74
0
 42
0.0000001
 43
0.0000001
 44
0.0000000001
 40
0.0
 40
0.0
 40
0.0
 40
0.0
 40
0.0428757442
 40
0.087521923
 40
0.1869262484
 40
0.3042380343
 40
0.4379641723
 40
0.5823700573
 40
0.7295935095
 40
0.87125452
 40
1.0
 40
1.0
 40
1.0
 40
1.0
 10
125.4098847625
 20
96.1264459153
 30
0.0
 10
125.409810432
 20
95.9414192722
 30
0.0
 10
125.4593520884
 20
95.5621130393
 30
0.0
 10
125.7596411404
 20
94.805864749
 30
0.0
 10
126.5201679279
 20
93.9325146895
 30
0.0
 10
127.8256409121
 20
93.1401868667
 30
0.0
 10
129.4550199488
 20
92.594787319
 30
0.0
 10
131.2817077521
 20
92.3384941
 30
0.0
 10
133.1598149547
 20
92.3903160072
 30
0.0
 10
134.9353653368
 20
92.7455942859
 30
0.0
 10
136.0248257082
 20
93.1950873323
 30
0.0
 10
136.5059817062
 20
93.4728812191
 30
0.0
  0
SPLINE
  5
367
100
AcDbEntity
  8
0
100
AcDbSpline
 62
7
  6
BYLAYER
 70
0
 71
3
 72
9
 73
5
 74
0
 42
0.0000001
 43
0.0000001
 44
0.0000000001
 40
0.0
 40
0.0
 40
0.0
 40
0.0
 40
0.2368993435
 40
1.0
 40
1.0
 40
1.0
 40
1.0
 10
135.8946900469
 20
76.3295432117
 30
0.0
 10
135.8840248177
 20
76.2591594616
 30
0.0
 10
135.8154071211
 20
75.9655649807
 30
0.0
 10
135.6559500025
 20
75.6978851234
 30
0.0
 10
135.5083968081
 20
75.5223562165
 30
0.0
  0
SPLINE
  5
368
100
AcDbEntity
  8
0
100
AcDbSpline
 62
7
  6
BYLAYER
 70
0
 71
3
 72
11
 73
7
 74
0
 42
0.0000001
 43
0.0000001
 44
0.0000000001
 40
0.0
 40
0.0
 40
0.0
 40
0.0
 40
0.2141493465
 40
0.4751824915
 40
0.7503769712
 40
1.0
 40
1.0
 40
1.0
 40
1.0
 10
135.5083968081
 20
75.5223562165
 30
0.0
 10
135.194116134
 20
75.1484887214
 30
0.0
 10
134.2351838979
 20
74.5510872911
 30
0.0
 10
132.5493104408
 20
74.171275302
 30
0.0
 10
130.7395438997
 20
74.2378406491
 30
0.0
 10
129.5745433686
 20
74.6131762229
 30
0.0
 10
129.0814944542
 20
74.8978317066
 30
0.0
  0
SPLINE
  5
369
100
AcDbEntity
  8
0
100
AcDbSpline
 62
7
  6
BYLAYER
 70
0
 71
3
 72
11
 73
7
 74
0
 42
0.0000001
 43
0.0000001
 44
0.0000000001
 40
0.0
 40
0.0
 40
0.0
 40
0.0
 40
0.2177648073
 40
0.4508950352
 40
0.7103684932
 40
1.0
 40
1.0
 40
1.0
 40
1.0
 10
138.4096322408
 20
107.557480402
 30
0.0
 10
138.4095339091
 20
107.3099289508
 30
0.0
 10
138.3184394429
 20
106.7938888769
 30
0.0
 10
137.9270268465
 20
106.0748479612
 30
0.0
 10
137.3085090795
 20
105.4250408582
 30
0.0
 10
136.7911195747
 20
105.0685385014
 30
0.0
 10
136.5059817062
 20
104.9039150589
 30
0.0
  0
SPLINE
  5
36A
100
AcDbEntity
  8
0
100
AcDbSpline
 62
7
  6
BYLAYER
 70
0
 71
3
 72
10
 73
6
 74
0
 42
0.0000001
 43
0.0000001
 44
0.0000000001
 40
0.0
 40
0.0
 40
0.0
 40
0.0
 40
0.2183605629
 40
0.4522009726
 40
1.0
 40
1.0
 40
1.0
 40
1.0
 10
121.8141623107
 20
339.5965393943
 30
0.0
 10
121.7482229623
 20
339.6346228176
 30
0.0
 10
121.5966797109
 20
339.689803231
 30
0.0
 10
121.2436099354
 20
339.6985351673
 30
0.0
 10
120.9796616807
 20
339.5930777935
 30
0.0
 10
120.8142255553
 20
339.4975637722
 30
0.0
  0
SPLINE
  5
36B
100
AcDbEntity
  8
0
100
AcDbSpline
 62
7
  6
BYLAYER
 70
0
 71
3
 72
13
 73
9
 74
0
 42
0.0000001
 43
0.0000001
 44
0.0000000001
 40
0.0
 40
0.0
 40
0.0
 40
0.0
 40
0.0871382313
 40
0.1868460714
 40
0.3045099889
 40
0.4386443369
 40
0.7300494959
 40
1.0
 40
1.0
 40
1.0
 40
1.0
 10
167.3508709145
 20
96.1265277195
 30
0.0
 10
167.3508214798
 20
96.213035487
 30
0.0
 10
167.2985811454
 20
96.4002104349
 30
0.0
 10
167.0945343505
 20
96.6322153606
 30
0.0
 10
166.7933968646
 20
96.8158511846
 30
0.0
 10
166.2784420099
 20
96.9874665533
 30
0.0
 10
165.5770626222
 20
97.0229900854
 30
0.0
 10
165.0223223031
 20
96.872886939
 30
0.0
 10
164.7902294016
 20
96.7388888397
 30
0.0
  0
SPLINE
  5
36C
100
AcDbEntity
  8
0
100
AcDbSpline
 62
7
  6
BYLAYER
 70
0
 71
3
 72
9
 73
5
 74
0
 42
0.0000001
 43
0.0000001
 44
0.0000000001
 40
0.0
 40
0.0
 40
0.0
 40
0.0
 40
0.2673237542
 40
1.0
 40
1.0
 40
1.0
 40
1.0
 10
129.0814944542
 20
74.8978317066
 30
0.0
 10
129.0049047053
 20
74.9420498184
 30
0.0
 10
128.7246471971
 20
75.1175044693
 30
0.0
 10
128.4686662942
 20
75.3357248226
 30
0.0
 10
128.3124965412
 20
75.5210980195
 30
0.0
  0
SPLINE
  5
36D
100
AcDbEntity
  8
0
100
AcDbSpline
 62
7
  6
BYLAYER
 70
0
 71
3
 72
9
 73
5
 74
0
 42
0.0000001
 43
0.0000001
 44
0.0000000001
 40
0.0
 40
0.0
 40
0.0
 40
0.0
 40
0.5219173756
 40
1.0
 40
1.0
 40
1.0
 40
1.0
 10
128.3124965412
 20
75.5210980195
 30
0.0
 10
128.1887236022
 20
75.6680162605
 30
0.0
 10
127.9863767014
 20
75.9839887952
 30
0.0
 10
127.9101335388
 20
76.354836915
 30
0.0
 10
127.9101335918
 20
76.5308083204
 30
0.0
  0
SPLINE
  5
36E
100
AcDbEntity
  8
0
100
AcDbSpline
 62
7
  6
BYLAYER
 70
0
 71
3
 72
9
 73
5
 74
0
 42
0.0000001
 43
0.0000001
 44
0.0000000001
 40
0.0
 40
0.0
 40
0.0
 40
0.0
 40
0.4733003476
 40
1.0
 40
1.0
 40
1.0
 40
1.0
 10
169.8506911108
 20
96.1265282274
 30
0.0
 10
169.8506452982
 20
95.9277083946
 30
0.0
 10
169.7510250935
 20
95.5041494105
 30
0.0
 10
169.4961426082
 20
95.1584724622
 30
0.0
 10
169.3422082021
 20
94.9995499738
 30
0.0
  0
SPLINE
  5
36F
100
AcDbEntity
  8
0
100
AcDbSpline
 62
7
  6
BYLAYER
 70
0
 71
3
 72
9
 73
5
 74
0
 42
0.0000001
 43
0.0000001
 44
0.0000000001
 40
0.0
 40
0.0
 40
0.0
 40
0.0
 40
0.4543857662
 40
1.0
 40
1.0
 40
1.0
 40
1.0
 10
169.3422082021
 20
94.9995499738
 30
0.0
 10
168.9830634574
 20
94.628767522
 30
0.0
 10
167.9492411231
 20
94.0601853441
 30
0.0
 10
166.8185858578
 20
93.8572187038
 30
0.0
 10
166.1995335506
 20
93.8259483268
 30
0.0
  0
SPLINE
  5
370
100
AcDbEntity
  8
0
100
AcDbSpline
 62
7
  6
BYLAYER
 70
0
 71
3
 72
9
 73
5
 74
0
 42
0.0000001
 43
0.0000001
 44
0.0000000001
 40
0.0
 40
0.0
 40
0.0
 40
0.0
 40
0.2298661447
 40
1.0
 40
1.0
 40
1.0
 40
1.0
 10
164.0106271345
 20
51.6639668241
 30
0.0
 10
164.0106245268
 20
51.6788993566
 30
0.0
 10
164.0016783022
 20
51.7441056011
 30
0.0
 10
163.957077914
 20
51.7995482545
 30
0.0
 10
163.9182586604
 20
51.8311077117
 30
0.0
  0
SPLINE
  5
371
100
AcDbEntity
  8
0
100
AcDbSpline
 62
7
  6
BYLAYER
 70
0
 71
3
 72
13
 73
9
 74
0
 42
0.0000001
 43
0.0000001
 44
0.0000000001
 40
0.0
 40
0.0
 40
0.0
 40
0.0
 40
0.0871382313
 40
0.1868460714
 40
0.3045099889
 40
0.4386443369
 40
0.7300494959
 40
1.0
 40
1.0
 40
1.0
 40
1.0
 10
99.4686199211
 20
96.1263645506
 30
0.0
 10
99.4685704865
 20
96.2128723182
 30
0.0
 10
99.4163301521
 20
96.4000472661
 30
0.0
 10
99.2122833572
 20
96.6320521917
 30
0.0
 10
98.9111458713
 20
96.8156880158
 30
0.0
 10
98.3961910166
 20
96.9873033844
 30
0.0
 10
97.6948116289
 20
97.0228269165
 30
0.0
 10
97.1400713098
 20
96.8727237701
 30
0.0
 10
96.9079784083
 20
96.7387256708
 30
0.0
  0
SPLINE
  5
372
100
AcDbEntity
  8
0
100
AcDbSpline
 62
7
  6
BYLAYER
 70
0
 71
3
 72
9
 73
5
 74
0
 42
0.0000001
 43
0.0000001
 44
0.0000000001
 40
0.0
 40
0.0
 40
0.0
 40
0.0
 40
0.5000005437
 40
1.0
 40
1.0
 40
1.0
 40
1.0
 10
113.277505839
 20
95.9835164781
 30
0.0
 10
113.0676254058
 20
96.1046882614
 30
0.0
 10
112.5703983657
 20
96.2005164441
 30
0.0
 10
112.0731713795
 20
96.104686112
 30
0.0
 10
111.8632922766
 20
95.9835130787
 30
0.0
  0
SPLINE
  5
373
100
AcDbEntity
  8
0
100
AcDbSpline
 62
7
  6
BYLAYER
 70
0
 71
3
 72
11
 73
7
 74
0
 42
0.0000001
 43
0.0000001
 44
0.0000000001
 40
0.0
 40
0.0
 40
0.0
 40
0.0
 40
0.2372512143
 40
0.4999983503
 40
0.7627464522
 40
1.0
 40
1.0
 40
1.0
 40
1.0
 10
100.7971472556
 20
94.4934362376
 30
0.0
 10
100.3955710026
 20
94.2615803916
 30
0.0
 10
99.4617619138
 20
93.9231875844
 30
0.0
 10
97.9687018269
 20
93.7613971883
 30
0.0
 10
96.4756348595
 20
93.9231627303
 30
0.0
 10
95.5418125841
 20
94.2615379973
 30
0.0
 10
95.1402276472
 20
94.4933879236
 30
0.0
  0
SPLINE
  5
374
100
AcDbEntity
  8
0
100
AcDbSpline
 62
7
  6
BYLAYER
 70
0
 71
3
 72
9
 73
5
 74
0
 42
0.0000001
 43
0.0000001
 44
0.0000000001
 40
0.0
 40
0.0
 40
0.0
 40
0.0
 40
0.266932493
 40
1.0
 40
1.0
 40
1.0
 40
1.0
 10
95.1402276472
 20
94.4933879236
 30
0.0
 10
95.0648865885
 20
94.53688512
 30
0.0
 10
94.7886898842
 20
94.7095938039
 30
0.0
 10
94.5360737875
 20
94.9236956801
 30
0.0
 10
94.3808578216
 20
95.1053210838
 30
0.0
  0
SPLINE
  5
375
100
AcDbEntity
  8
0
100
AcDbSpline
 62
7
  6
BYLAYER
 70
0
 71
3
 72
9
 73
5
 74
0
 42
0.0000001
 43
0.0000001
 44
0.0000000001
 40
0.0
 40
0.0
 40
0.0
 40
0.0
 40
0.5224331077
 40
1.0
 40
1.0
 40
1.0
 40
1.0
 10
94.3808578216
 20
95.1053210838
 30
0.0
 10
94.2542676179
 20
95.253450155
 30
0.0
 10
94.04722451
 20
95.5724549066
 30
0.0
 10
93.968804832
 20
95.9482457885
 30
0.0
 10
93.9688458746
 20
96.1263640196
 30
0.0
  0
SPLINE
  5
376
100
AcDbEntity
  8
0
100
AcDbSpline
 62
7
  6
BYLAYER
 70
0
 71
3
 72
13
 73
9
 74
0
 42
0.0000001
 43
0.0000001
 44
0.0000000001
 40
0.0
 40
0.0
 40
0.0
 40
0.0
 40
0.0871382313
 40
0.1868460714
 40
0.3045099889
 40
0.4386443369
 40
0.7300494959
 40
1.0
 40
1.0
 40
1.0
 40
1.0
 10
133.4098867282
 20
76.5308083336
 30
0.0
 10
133.4098372935
 20
76.6173161012
 30
0.0
 10
133.3575969591
 20
76.8044910491
 30
0.0
 10
133.1535501643
 20
77.0364959748
 30
0.0
 10
132.8524126784
 20
77.2201317988
 30
0.0
 10
132.3374578237
 20
77.3917471675
 30
0.0
 10
131.6360784359
 20
77.4272706995
 30
0.0
 10
131.0813381168
 20
77.2771675531
 30
0.0
 10
130.8492452154
 20
77.1431694539
 30
0.0
  0
SPLINE
  5
377
100
AcDbEntity
  8
0
100
AcDbSpline
 62
7
  6
BYLAYER
 70
0
 71
3
 72
10
 73
6
 74
0
 42
0.0000001
 43
0.0000001
 44
0.0000000001
 40
0.0
 40
0.0
 40
0.0
 40
0.0
 40
0.2247054328
 40
0.4619650795
 40
1.0
 40
1.0
 40
1.0
 40
1.0
 10
113.8264539867
 20
336.5092073465
 30
0.0
 10
113.9034484426
 20
336.5727969252
 30
0.0
 10
114.0853617344
 20
336.6772636385
 30
0.0
 10
114.5263353093
 20
336.7672714752
 30
0.0
 10
114.8792115479
 20
336.6903696651
 30
0.0
 10
115.1009762333
 20
336.6009817347
 30
0.0
  0
SPLINE
  5
378
100
AcDbEntity
  8
0
100
AcDbSpline
 62
7
  6
BYLAYER
 70
0
 71
3
 72
10
 73
6
 74
0
 42
0.0000001
 43
0.0000001
 44
0.0000000001
 40
0.0
 40
0.0
 40
0.0
 40
0.0
 40
0.2295651201
 40
0.471771019
 40
1.0
 40
1.0
 40
1.0
 40
1.0
 10
113.0112309895
 20
321.7378948471
 30
0.0
 10
113.0110870399
 20
321.637866658
 30
0.0
 10
113.050256969
 20
321.4307842311
 30
0.0
 10
113.2690181461
 20
321.0475140414
 30
0.0
 10
113.5438573604
 20
320.8331592699
 30
0.0
 10
113.7431871762
 20
320.7180787496
 30
0.0
  0
SPLINE
  5
379
100
AcDbEntity
  8
0
100
AcDbSpline
 62
7
  6
BYLAYER
 70
0
 71
3
 72
9
 73
5
 74
0
 42
0.0000001
 43
0.0000001
 44
0.0000000001
 40
0.0
 40
0.0
 40
0.0
 40
0.0
 40
0.5140111366
 40
1.0
 40
1.0
 40
1.0
 40
1.0
 10
109.4097689793
 20
303.7160938462
 30
0.0
 10
109.4097157783
 20
302.8765235617
 30
0.0
 10
109.5922902702
 20
301.2314234368
 30
0.0
 10
110.2446457459
 20
299.7052736235
 30
0.0
 10
110.6559211623
 20
299.0263257181
 30
0.0
  0
SPLINE
  5
37A
100
AcDbEntity
  8
0
100
AcDbSpline
 62
7
  6
BYLAYER
 70
0
 71
3
 72
9
 73
5
 74
0
 42
0.0000001
 43
0.0000001
 44
0.0000000001
 40
0.0
 40
0.0
 40
0.0
 40
0.0
 40
0.4528930169
 40
1.0
 40
1.0
 40
1.0
 40
1.0
 10
145.6108553378
 20
323.1059828829
 30
0.0
 10
145.5901169287
 20
323.2393405304
 30
0.0
 10
145.4463360125
 20
323.518858883
 30
0.0
 10
145.2031922728
 20
323.7022946506
 30
0.0
 10
145.0619981934
 20
323.7838112462
 30
0.0
  0
SPLINE
  5
37B
100
AcDbEntity
  8
0
100
AcDbSpline
 62
7
  6
BYLAYER
 70
0
 71
3
 72
17
 73
13
 74
0
 42
0.0000001
 43
0.0000001
 44
0.0000000001
 40
0.0
 40
0.0
 40
0.0
 40
0.0
 40
0.0428589892
 40
0.0874878869
 40
0.1353218421
 40
0.1872869156
 40
0.3045494753
 40
0.4382191128
 40
0.5825654432
 40
0.7297205113
 40
0.8713095122
 40
1.0
 40
1.0
 40
1.0
 40
1.0
 10
109.4098475592
 20
297.1656712681
 30
0.0
 10
109.4097825362
 20
296.5251629559
 30
0.0
 10
109.5812638966
 20
295.2121424981
 30
0.0
 10
110.3341082362
 20
293.3162215602
 30
0.0
 10
111.5560189362
 20
291.5187159636
 30
0.0
 10
113.8565430858
 20
289.210342552
 30
0.0
 10
117.7759922511
 20
286.8241586154
 30
0.0
 10
123.4118883003
 20
284.941863027
 30
0.0
 10
129.7364245273
 20
284.0531123427
 30
0.0
 10
136.2370518064
 20
284.233028419
 30
0.0
 10
142.3830909951
 20
285.4627525621
 30
0.0
 10
146.1541761838
 20
287.0186478687
 30
0.0
 10
147.8197373085
 20
287.9802542924
 30
0.0
  0
SPLINE
  5
37C
100
AcDbEntity
  8
0
100
AcDbSpline
 62
7
  6
BYLAYER
 70
0
 71
3
 72
9
 73
5
 74
0
 42
0.0000001
 43
0.0000001
 44
0.0000000001
 40
0.0
 40
0.0
 40
0.0
 40
0.0
 40
0.4499591041
 40
1.0
 40
1.0
 40
1.0
 40
1.0
 10
122.9091455131
 20
336.7512091085
 30
0.0
 10
122.9091455329
 20
336.790206464
 30
0.0
 10
122.8746751706
 20
336.8769148477
 30
0.0
 10
122.8039360855
 20
336.9314959233
 30
0.0
 10
122.7626512856
 20
336.9553311743
 30
0.0
  0
SPLINE
  5
37D
100
AcDbEntity
  8
0
100
AcDbSpline
 62
7
  6
BYLAYER
 70
0
 71
3
 72
16
 73
12
 74
0
 42
0.0000001
 43
0.0000001
 44
0.0000000001
 40
0.0
 40
0.0
 40
0.0
 40
0.0
 40
0.1287443602
 40
0.2703971121
 40
0.4176139114
 40
0.5620190713
 40
0.6957499754
 40
0.8130650626
 40
0.9124721117
 40
0.9571211941
 40
1.0
 40
1.0
 40
1.0
 40
1.0
 10
136.5059817062
 20
104.9039150589
 30
0.0
 10
136.0248303284
 20
104.6261238397
 30
0.0
 10
134.9354105643
 20
104.1766421258
 30
0.0
 10
133.1599325402
 20
103.8213704233
 30
0.0
 10
131.2818966919
 20
103.7695161743
 30
0.0
 10
129.4552169484
 20
104.0257789524
 30
0.0
 10
127.8258002695
 20
104.5711517127
 30
0.0
 10
126.520260737
 20
105.3634725053
 30
0.0
 10
125.7597158586
 20
106.2368412338
 30
0.0
 10
125.4593460923
 20
106.993102394
 30
0.0
 10
125.4098312437
 20
107.3724398362
 30
0.0
 10
125.4099047446
 20
107.5574795246
 30
0.0
  0
SPLINE
  5
37E
100
AcDbEntity
  8
0
100
AcDbSpline
 62
7
  6
BYLAYER
 70
0
 71
3
 72
11
 73
7
 74
0
 42
0.0000001
 43
0.0000001
 44
0.0000000001
 40
0.0
 40
0.0
 40
0.0
 40
0.0
 40
0.2177486811
 40
0.4508908272
 40
0.7104626199
 40
1.0
 40
1.0
 40
1.0
 40
1.0
 10
173.0933953024
 20
296.3492606345
 30
0.0
 10
173.0933953074
 20
296.2350151492
 30
0.0
 10
173.0514394136
 20
295.9968236615
 30
0.0
 10
172.8707412822
 20
295.6649079849
 30
0.0
 10
172.5851627307
 20
295.3651013646
 30
0.0
 10
172.3464225096
 20
295.200493344
 30
0.0
 10
172.2148638519
 20
295.1245383709
 30
0.0
  0
SPLINE
  5
37F
100
AcDbEntity
  8
0
100
AcDbSpline
 62
7
  6
BYLAYER
 70
0
 71
3
 72
9
 73
5
 74
0
 42
0.0000001
 43
0.0000001
 44
0.0000000001
 40
0.0
 40
0.0
 40
0.0
 40
0.0
 40
0.2294683124
 40
1.0
 40
1.0
 40
1.0
 40
1.0
 10
118.4508533609
 20
337.1874530363
 30
0.0
 10
118.4847072427
 20
337.2069650288
 30
0.0
 10
118.6424008527
 20
337.2736173557
 30
0.0
 10
118.8218937916
 20
337.2820290661
 30
0.0
 10
118.9510801456
 20
337.2590868513
 30
0.0
  0
SPLINE
  5
380
100
AcDbEntity
  8
0
100
AcDbSpline
 62
7
  6
BYLAYER
 70
0
 71
3
 72
11
 73
7
 74
0
 42
0.0000001
 43
0.0000001
 44
0.0000000001
 40
0.0
 40
0.0
 40
0.0
 40
0.0
 40
0.2176907916
 40
0.4508868986
 40
0.7106214304
 40
1.0
 40
1.0
 40
1.0
 40
1.0
 10
115.7107107024
 20
49.2298452262
 30
0.0
 10
115.6216485174
 20
49.1785153202
 30
0.0
 10
115.4549996211
 20
49.03846531
 30
0.0
 10
115.2774083783
 20
48.7483177959
 30
0.0
 10
115.1724559255
 20
48.3906985254
 30
0.0
 10
115.1514505326
 20
48.1305702057
 30
0.0
 10
115.1514505326
 20
47.9939236437
 30
0.0
  0
SPLINE
  5
381
100
AcDbEntity
  8
0
100
AcDbSpline
 62
7
  6
BYLAYER
 70
0
 71
3
 72
11
 73
7
 74
0
 42
0.0000001
 43
0.0000001
 44
0.0000000001
 40
0.0
 40
0.0
 40
0.0
 40
0.0
 40
0.2176907916
 40
0.4508868986
 40
0.7106214304
 40
1.0
 40
1.0
 40
1.0
 40
1.0
 10
108.6396134509
 20
53.3122527714
 30
0.0
 10
108.5505512659
 20
53.2609228654
 30
0.0
 10
108.3839023697
 20
53.1208728552
 30
0.0
 10
108.2063111268
 20
52.8307253411
 30
0.0
 10
108.101358674
 20
52.4731060706
 30
0.0
 10
108.0803532812
 20
52.2129777509
 30
0.0
 10
108.0803532812
 20
52.0763311889
 30
0.0
  0
SPLINE
  5
382
100
AcDbEntity
  8
0
100
AcDbSpline
 62
7
  6
BYLAYER
 70
0
 71
3
 72
10
 73
6
 74
0
 42
0.0000001
 43
0.0000001
 44
0.0000000001
 40
0.0
 40
0.0
 40
0.0
 40
0.0
 40
0.2895417613
 40
0.5559463221
 40
1.0
 40
1.0
 40
1.0
 40
1.0
 10
125.346339086
 20
294.4233402848
 30
0.0
 10
123.9700554079
 20
294.699388949
 30
0.0
 10
121.352699641
 20
295.4122264727
 30
0.0
 10
116.9374668572
 20
297.3907631163
 30
0.0
 10
114.127434003
 20
299.6967116372
 30
0.0
 10
113.0174597569
 20
301.5412610543
 30
0.0
  0
SPLINE
  5
383
100
AcDbEntity
  8
0
100
AcDbSpline
 62
7
  6
BYLAYER
 70
0
 71
3
 72
15
 73
11
 74
0
 42
0.0000001
 43
0.0000001
 44
0.0000000001
 40
0.0
 40
0.0
 40
0.0
 40
0.0
 40
0.1104644737
 40
0.228848861
 40
0.3519514059
 40
0.4776397411
 40
0.6055620649
 40
0.7358568259
 40
0.8677912159
 40
1.0
 40
1.0
 40
1.0
 40
1.0
 10
141.5910918583
 20
304.6404471894
 30
0.0
 10
141.5910367959
 20
303.8157454411
 30
0.0
 10
141.3672020576
 20
302.1030573767
 30
0.0
 10
140.4497676674
 20
299.6184807475
 30
0.0
 10
138.9053023058
 20
297.3174383845
 30
0.0
 10
136.7437490225
 20
295.4602273139
 30
0.0
 10
134.10298852
 20
294.256691248
 30
0.0
 10
131.209250483
 20
293.7471904584
 30
0.0
 10
128.2507884842
 20
293.8282577502
 30
0.0
 10
126.3046072603
 20
294.1867439789
 30
0.0
 10
125.3463456851
 20
294.4233491946
 30
0.0
  0
SPLINE
  5
384
100
AcDbEntity
  8
0
100
AcDbSpline
 62
7
  6
BYLAYER
 70
0
 71
3
 72
15
 73
11
 74
0
 42
0.0000001
 43
0.0000001
 44
0.0000000001
 40
0.0
 40
0.0
 40
0.0
 40
0.0
 40
0.1019477538
 40
0.2053860161
 40
0.3186222371
 40
0.4466459354
 40
0.587215823
 40
0.7321530366
 40
0.8721935156
 40
1.0
 40
1.0
 40
1.0
 40
1.0
 10
113.0174381965
 20
301.5412557296
 30
0.0
 10
112.6178303914
 20
302.0807327202
 30
0.0
 10
111.92588929
 20
303.2607843432
 30
0.0
 10
111.3628351535
 20
305.3066461404
 30
0.0
 10
111.3215178215
 20
307.5942727018
 30
0.0
 10
111.7087682119
 20
310.0850745349
 30
0.0
 10
112.3581409067
 20
312.7303273358
 30
0.0
 10
113.0559203595
 20
315.4445072491
 30
0.0
 10
113.5902792232
 20
318.1121367911
 30
0.0
 10
113.743162266
 20
319.8764422141
 30
0.0
 10
113.7431705605
 20
320.7180883221
 30
0.0
  0
SPLINE
  5
385
100
AcDbEntity
  8
0
100
AcDbSpline
 62
7
  6
BYLAYER
 70
0
 71
3
 72
11
 73
7
 74
0
 42
0.0000001
 43
0.0000001
 44
0.0000000001
 40
0.0
 40
0.0
 40
0.0
 40
0.0
 40
0.2506540462
 40
0.5240901836
 40
0.7828048261
 40
1.0
 40
1.0
 40
1.0
 40
1.0
 10
113.0174578052
 20
301.5412642984
 30
0.0
 10
112.7149820138
 20
301.4805935236
 30
0.0
 10
112.0998552741
 20
301.2523987913
 30
0.0
 10
111.3220672866
 20
300.6586284805
 30
0.0
 10
110.7916925717
 20
299.8821764778
 30
0.0
 10
110.655918904
 20
299.2936493911
 30
0.0
 10
110.6559188954
 20
299.0263294862
 30
0.0
  0
SPLINE
  5
386
100
AcDbEntity
  8
0
100
AcDbSpline
 62
7
  6
BYLAYER
 70
0
 71
3
 72
11
 73
7
 74
0
 42
0.0000001
 43
0.0000001
 44
0.0000000001
 40
0.0
 40
0.0
 40
0.0
 40
0.0
 40
0.2372398078
 40
0.4999994051
 40
0.7627593222
 40
1.0
 40
1.0
 40
1.0
 40
1.0
 10
135.4454625504
 20
253.9568480907
 30
0.0
 10
134.9435171328
 20
253.6670514986
 30
0.0
 10
133.7762495263
 20
253.2441697523
 30
0.0
 10
131.9099346324
 20
253.0415623515
 30
0.0
 10
130.0436166515
 20
253.2441610756
 30
0.0
 10
128.8763440865
 20
253.6670370588
 30
0.0
 10
128.3743947386
 20
253.9568310939
 30
0.0
  0
SPLINE
  5
387
100
AcDbEntity
  8
0
100
AcDbSpline
 62
7
  6
BYLAYER
 70
0
 71
3
 72
11
 73
7
 74
0
 42
0.0000001
 43
0.0000001
 44
0.0000000001
 40
0.0
 40
0.0
 40
0.0
 40
0.0
 40
0.2897052857
 40
0.5490919933
 40
0.7822182543
 40
1.0
 40
1.0
 40
1.0
 40
1.0
 10
93.4431743163
 20
274.1239243672
 30
0.0
 10
93.2237771502
 20
274.2505905146
 30
0.0
 10
92.8257352766
 20
274.5247453187
 30
0.0
 10
92.3500191445
 20
275.0246948461
 30
0.0
 10
92.0490963473
 20
275.5777614108
 30
0.0
 10
91.9787183984
 20
275.9747030279
 30
0.0
 10
91.9787184517
 20
276.1651451365
 30
0.0
  0
SPLINE
  5
388
100
AcDbEntity
  8
0
100
AcDbSpline
 62
7
  6
BYLAYER
 70
0
 71
3
 72
9
 73
5
 74
0
 42
0.0000001
 43
0.0000001
 44
0.0000000001
 40
0.0
 40
0.0
 40
0.0
 40
0.0
 40
0.4778249545
 40
1.0
 40
1.0
 40
1.0
 40
1.0
 10
124.1316262833
 20
271.674543408
 30
0.0
 10
124.8243878587
 20
271.2745863742
 30
0.0
 10
126.3708487003
 20
270.6018393039
 30
0.0
 10
128.0050227263
 20
270.2054440069
 30
0.0
 10
128.8673859462
 20
270.0622300921
 30
0.0
  0
SPLINE
  5
389
100
AcDbEntity
  8
0
100
AcDbSpline
 62
7
  6
BYLAYER
 70
0
 71
3
 72
10
 73
6
 74
0
 42
0.0000001
 43
0.0000001
 44
0.0000000001
 40
0.0
 40
0.0
 40
0.0
 40
0.0
 40
0.2902571779
 40
0.557180178
 40
1.0
 40
1.0
 40
1.0
 40
1.0
 10
135.328955596
 20
270.1291432682
 30
0.0
 10
136.11239119
 20
270.2770467793
 30
0.0
 10
137.6030287786
 20
270.6672746868
 30
0.0
 10
140.1119090515
 20
271.7697481087
 30
0.0
 10
141.7101285653
 20
273.0759949583
 30
0.0
 10
142.3263421395
 20
274.1246815317
 30
0.0
  0
SPLINE
  5
38A
100
AcDbEntity
  8
0
100
AcDbSpline
 62
7
  6
BYLAYER
 70
0
 71
3
 72
10
 73
6
 74
0
 42
0.0000001
 43
0.0000001
 44
0.0000000001
 40
0.0
 40
0.0
 40
0.0
 40
0.0
 40
0.2895420622
 40
0.5559468612
 40
1.0
 40
1.0
 40
1.0
 40
1.0
 10
124.5259104163
 20
291.0186648459
 30
0.0
 10
122.977589023
 20
291.3292200459
 30
0.0
 10
120.0330586782
 20
292.1311558057
 30
0.0
 10
115.0659106386
 20
294.3569974517
 30
0.0
 10
111.9046416392
 20
296.9512095449
 30
0.0
 10
110.6559211623
 20
299.0263257181
 30
0.0
  0
SPLINE
  5
38B
100
AcDbEntity
  8
0
100
AcDbSpline
 62
7
  6
BYLAYER
 70
0
 71
3
 72
11
 73
7
 74
0
 42
0.0000001
 43
0.0000001
 44
0.0000000001
 40
0.0
 40
0.0
 40
0.0
 40
0.0
 40
0.219049127
 40
0.4812951359
 40
0.7545219723
 40
1.0
 40
1.0
 40
1.0
 40
1.0
 10
141.5911037622
 20
304.6404403532
 30
0.0
 10
141.79938239
 20
304.5201933527
 30
0.0
 10
142.2968457394
 20
304.3240336991
 30
0.0
 10
143.1207656224
 20
304.1945310884
 30
0.0
 10
143.982939028
 20
304.2333660595
 30
0.0
 10
144.5400285442
 20
304.3768322694
 30
0.0
 10
144.7900002057
 20
304.4775915316
 30
0.0
  0
SPLINE
  5
38C
100
AcDbEntity
  8
0
100
AcDbSpline
 62
7
  6
BYLAYER
 70
0
 71
3
 72
11
 73
7
 74
0
 42
0.0000001
 43
0.0000001
 44
0.0000000001
 40
0.0
 40
0.0
 40
0.0
 40
0.0
 40
0.2404107188
 40
0.5270267347
 40
0.7982926371
 40
1.0
 40
1.0
 40
1.0
 40
1.0
 10
124.5259104339
 20
291.0186648424
 30
0.0
 10
124.5259104339
 20
291.3016842152
 30
0.0
 10
124.5743866399
 20
291.9220529234
 30
0.0
 10
124.7451905518
 20
292.8479191839
 30
0.0
 10
124.9991882837
 20
293.7065215511
 30
0.0
 10
125.2239080139
 20
294.2198796606
 30
0.0
 10
125.3463391066
 20
294.4233402804
 30
0.0
  0
SPLINE
  5
38D
100
AcDbEntity
  8
0
100
AcDbSpline
 62
7
  6
BYLAYER
 70
0
 71
3
 72
15
 73
11
 74
0
 42
0.0000001
 43
0.0000001
 44
0.0000000001
 40
0.0
 40
0.0
 40
0.0
 40
0.0
 40
0.1114848073
 40
0.2325524148
 40
0.3589674912
 40
0.4874690602
 40
0.6165321738
 40
0.7454758701
 40
0.8737090263
 40
1.0
 40
1.0
 40
1.0
 40
1.0
 10
144.7900001903
 20
304.4775913516
 30
0.0
 10
144.7899543832
 20
303.4412104538
 30
0.0
 10
144.4687170961
 20
301.2743459784
 30
0.0
 10
143.2069313368
 20
298.1552238792
 30
0.0
 10
141.159505334
 20
295.279727048
 30
0.0
 10
138.4091371819
 20
292.9441322761
 30
0.0
 10
135.1424656423
 20
291.3634448956
 30
0.0
 10
131.6132974624
 20
290.5667743334
 30
0.0
 10
128.0316480052
 20
290.4757416094
 30
0.0
 10
125.6770102064
 20
290.7878064695
 30
0.0
 10
124.5259104163
 20
291.0186648459
 30
0.0
  0
SPLINE
  5
38E
100
AcDbEntity
  8
0
100
AcDbSpline
 62
7
  6
BYLAYER
 70
0
 71
3
 72
11
 73
7
 74
0
 42
0.0000001
 43
0.0000001
 44
0.0000000001
 40
0.0
 40
0.0
 40
0.0
 40
0.0
 40
0.2176907916
 40
0.4508868986
 40
0.7106214304
 40
1.0
 40
1.0
 40
1.0
 40
1.0
 10
101.5685161995
 20
57.3946603166
 30
0.0
 10
101.4794540144
 20
57.3433304106
 30
0.0
 10
101.3128051182
 20
57.2032804004
 30
0.0
 10
101.1352138753
 20
56.9131328863
 30
0.0
 10
101.0302614225
 20
56.5555136158
 30
0.0
 10
101.0092560297
 20
56.2953852961
 30
0.0
 10
101.0092560297
 20
56.1587387341
 30
0.0
  0
SPLINE
  5
38F
100
AcDbEntity
  8
0
100
AcDbSpline
 62
7
  6
BYLAYER
 70
0
 71
3
 72
9
 73
5
 74
0
 42
0.0000001
 43
0.0000001
 44
0.0000000001
 40
0.0
 40
0.0
 40
0.0
 40
0.0
 40
0.4999994563
 40
1.0
 40
1.0
 40
1.0
 40
1.0
 10
111.8632922766
 20
83.8992773052
 30
0.0
 10
112.0731713795
 20
84.0204503385
 30
0.0
 10
112.5703983657
 20
84.1162806706
 30
0.0
 10
113.0676254058
 20
84.0204524879
 30
0.0
 10
113.277505839
 20
83.8992807045
 30
0.0
  0
SPLINE
  5
390
100
AcDbEntity
  8
0
100
AcDbSpline
 62
7
  6
BYLAYER
 70
0
 71
3
 72
9
 73
5
 74
0
 42
0.0000001
 43
0.0000001
 44
0.0000000001
 40
0.0
 40
0.0
 40
0.0
 40
0.0
 40
0.243664709
 40
1.0
 40
1.0
 40
1.0
 40
1.0
 10
146.0459555584
 20
321.2542664688
 30
0.0
 10
145.8569390595
 20
321.1503602786
 30
0.0
 10
145.0743549926
 20
320.7364695716
 30
0.0
 10
144.2660556457
 20
320.3717026111
 30
0.0
 10
143.6450907201
 20
320.1214023699
 30
0.0
  0
SPLINE
  5
391
100
AcDbEntity
  8
0
100
AcDbSpline
 62
7
  6
BYLAYER
 70
0
 71
3
 72
9
 73
5
 74
0
 42
0.0000001
 43
0.0000001
 44
0.0000000001
 40
0.0
 40
0.0
 40
0.0
 40
0.0
 40
0.2400728178
 40
1.0
 40
1.0
 40
1.0
 40
1.0
 10
148.7185607521
 20
323.0505541739
 30
0.0
 10
148.51980601
 20
322.8861937193
 30
0.0
 10
147.6737484896
 20
322.2236183013
 30
0.0
 10
146.7613744192
 20
321.647546678
 30
0.0
 10
146.0459555584
 20
321.2542664688
 30
0.0
  0
SPLINE
  5
392
100
AcDbEntity
  8
0
100
AcDbSpline
 62
7
  6
BYLAYER
 70
0
 71
3
 72
10
 73
6
 74
0
 42
0.0000001
 43
0.0000001
 44
0.0000000001
 40
0.0
 40
0.0
 40
0.0
 40
0.0
 40
0.5139079501
 40
0.7396555818
 40
1.0
 40
1.0
 40
1.0
 40
1.0
 10
148.6621421278
 20
323.4199253674
 30
0.0
 10
148.7285061532
 20
323.3816109463
 30
0.0
 10
148.8251491852
 20
323.2885402108
 30
0.0
 10
148.7986604549
 20
323.1315733685
 30
0.0
 10
148.7484772744
 20
323.0752936753
 30
0.0
 10
148.7185607521
 20
323.0505541739
 30
0.0
  0
SPLINE
  5
393
100
AcDbEntity
  8
0
100
AcDbSpline
 62
7
  6
BYLAYER
 70
0
 71
3
 72
11
 73
7
 74
0
 42
0.0000001
 43
0.0000001
 44
0.0000000001
 40
0.0
 40
0.0
 40
0.0
 40
0.0
 40
0.2896428702
 40
0.5491125874
 40
0.7822368
 40
1.0
 40
1.0
 40
1.0
 40
1.0
 10
136.5059817062
 20
93.4728812191
 30
0.0
 10
136.791131168
 20
93.637511355
 30
0.0
 10
137.3085286115
 20
93.994018201
 30
0.0
 10
137.9270487653
 20
94.6438316423
 30
0.0
 10
138.3184316965
 20
95.3628699773
 30
0.0
 10
138.409552775
 20
95.8788963554
 30
0.0
 10
138.4096522229
 20
96.1264463317
 30
0.0
  0
SPLINE
  5
394
100
AcDbEntity
  8
0
100
AcDbSpline
 62
7
  6
BYLAYER
 70
0
 71
3
 72
11
 73
7
 74
0
 42
0.0000001
 43
0.0000001
 44
0.0000000001
 40
0.0
 40
0.0
 40
0.0
 40
0.0
 40
0.3082939133
 40
0.5836385081
 40
0.8113043972
 40
1.0
 40
1.0
 40
1.0
 40
1.0
 10
126.9540864226
 20
74.2507394391
 30
0.0
 10
126.7200693324
 20
74.2380352586
 30
0.0
 10
126.2773762534
 20
74.168933857
 30
0.0
 10
125.7016419628
 20
73.9308130577
 30
0.0
 10
125.2888856369
 20
73.5832963795
 30
0.0
 10
125.1727414452
 20
73.2651576309
 30
0.0
 10
125.1726918357
 20
73.1217132975
 30
0.0
  0
SPLINE
  5
395
100
AcDbEntity
  8
0
100
AcDbSpline
 62
7
  6
BYLAYER
 70
0
 71
3
 72
9
 73
5
 74
0
 42
0.0000001
 43
0.0000001
 44
0.0000000001
 40
0.0
 40
0.0
 40
0.0
 40
0.0
 40
0.2605006528
 40
1.0
 40
1.0
 40
1.0
 40
1.0
 10
171.5077423509
 20
297.9822513594
 30
0.0
 10
171.5326188083
 20
297.9678892549
 30
0.0
 10
171.6268022109
 20
297.9105538227
 30
0.0
 10
171.7156512089
 20
297.8441686732
 30
0.0
 10
171.7763119386
 20
297.7896758523
 30
0.0
  0
SPLINE
  5
396
100
AcDbEntity
  8
0
100
AcDbSpline
 62
7
  6
BYLAYER
 70
0
 71
3
 72
9
 73
5
 74
0
 42
0.0000001
 43
0.0000001
 44
0.0000000001
 40
0.0
 40
0.0
 40
0.0
 40
0.0
 40
0.2729762341
 40
1.0
 40
1.0
 40
1.0
 40
1.0
 10
171.7763119386
 20
297.7896758523
 30
0.0
 10
171.8125688377
 20
297.7571055104
 30
0.0
 10
171.9387310887
 20
297.6311649349
 30
0.0
 10
172.0348752601
 20
297.4710194191
 30
0.0
 10
172.0690572628
 20
297.3457959654
 30
0.0
  0
SPLINE
  5
397
100
AcDbEntity
  8
0
100
AcDbSpline
 62
7
  6
BYLAYER
 70
0
 71
3
 72
11
 73
7
 74
0
 42
0.0000001
 43
0.0000001
 44
0.0000000001
 40
0.0
 40
0.0
 40
0.0
 40
0.0
 40
0.221067235
 40
0.450004847
 40
0.7067485524
 40
1.0
 40
1.0
 40
1.0
 40
1.0
 10
172.0690572628
 20
297.3457959654
 30
0.0
 10
172.0929055409
 20
297.2584294126
 30
0.0
 10
172.1062993548
 20
297.0683420803
 30
0.0
 10
172.0047587813
 20
296.7896442494
 30
0.0
 10
171.7972724427
 20
296.5410424142
 30
0.0
 10
171.6117935202
 20
296.4093483558
 30
0.0
 10
171.5077541267
 20
296.3492815426
 30
0.0
  0
SPLINE
  5
398
100
AcDbEntity
  8
0
100
AcDbSpline
 62
7
  6
BYLAYER
 70
0
 71
3
 72
11
 73
7
 74
0
 42
0.0000001
 43
0.0000001
 44
0.0000000001
 40
0.0
 40
0.0
 40
0.0
 40
0.0
 40
0.2372524156
 40
0.4999996414
 40
0.7627470637
 40
1.0
 40
1.0
 40
1.0
 40
1.0
 10
133.3241469172
 20
274.3040972335
 30
0.0
 10
133.1233587608
 20
274.1881728294
 30
0.0
 10
132.6564567716
 20
274.018984311
 30
0.0
 10
131.9099351679
 20
273.9380958235
 30
0.0
 10
131.1634126968
 20
274.0189810644
 30
0.0
 10
130.6965092254
 20
274.1881672242
 30
0.0
 10
130.4957197925
 20
274.3040904348
 30
0.0
  0
SPLINE
  5
399
100
AcDbEntity
  8
0
100
AcDbSpline
 62
7
  6
BYLAYER
 70
0
 71
3
 72
11
 73
7
 74
0
 42
0.0000001
 43
0.0000001
 44
0.0000000001
 40
0.0
 40
0.0
 40
0.0
 40
0.0
 40
0.2932526642
 40
0.5499953962
 40
0.7789314179
 40
1.0
 40
1.0
 40
1.0
 40
1.0
 10
92.3117946345
 20
296.3490911789
 30
0.0
 10
92.2077483186
 20
296.4091609884
 30
0.0
 10
92.0222580038
 20
296.5408624524
 30
0.0
 10
91.8147629834
 20
296.789481856
 30
0.0
 10
91.7132287579
 20
297.0682011951
 30
0.0
 10
91.7266382709
 20
297.2582991701
 30
0.0
 10
91.7504952901
 20
297.3456693746
 30
0.0
  0
SPLINE
  5
39A
100
AcDbEntity
  8
0
100
AcDbSpline
 62
7
  6
BYLAYER
 70
0
 71
3
 72
9
 73
5
 74
0
 42
0.0000001
 43
0.0000001
 44
0.0000000001
 40
0.0
 40
0.0
 40
0.0
 40
0.0
 40
0.2321947891
 40
1.0
 40
1.0
 40
1.0
 40
1.0
 10
91.7504952901
 20
297.3456693746
 30
0.0
 10
91.7614225586
 20
297.3856876887
 30
0.0
 10
91.8235964683
 20
297.554012691
 30
0.0
 10
91.9411599481
 20
297.6978012422
 30
0.0
 10
92.0432039982
 20
297.7894734622
 30
0.0
  0
SPLINE
  5
39B
100
AcDbEntity
  8
0
100
AcDbSpline
 62
7
  6
BYLAYER
 70
0
 71
3
 72
9
 73
5
 74
0
 42
0.0000001
 43
0.0000001
 44
0.0000000001
 40
0.0
 40
0.0
 40
0.0
 40
0.0
 40
0.2396688464
 40
1.0
 40
1.0
 40
1.0
 40
1.0
 10
92.0432039982
 20
297.7894734622
 30
0.0
 10
92.0628654576
 20
297.8071365168
 30
0.0
 10
92.1470792741
 20
297.8783988362
 30
0.0
 10
92.2391683766
 20
297.9401372552
 30
0.0
 10
92.3117828587
 20
297.9820609957
 30
0.0
  0
SPLINE
  5
39C
100
AcDbEntity
  8
0
100
AcDbSpline
 62
7
  6
BYLAYER
 70
0
 71
3
 72
9
 73
5
 74
0
 42
0.0000001
 43
0.0000001
 44
0.0000000001
 40
0.0
 40
0.0
 40
0.0
 40
0.0
 40
0.5102058016
 40
1.0
 40
1.0
 40
1.0
 40
1.0
 10
143.6450907201
 20
320.1214023699
 30
0.0
 10
143.5418165535
 20
320.0797743362
 30
0.0
 10
143.319097822
 20
320.0504510398
 30
0.0
 10
143.097884565
 20
320.1005262212
 30
0.0
 10
143.0053114301
 20
320.1539721365
 30
0.0
  0
SPLINE
  5
39D
100
AcDbEntity
  8
0
100
AcDbSpline
 62
7
  6
BYLAYER
 70
0
 71
3
 72
11
 73
7
 74
0
 42
0.0000001
 43
0.0000001
 44
0.0000000001
 40
0.0
 40
0.0
 40
0.0
 40
0.0
 40
0.2897907013
 40
0.5490585612
 40
0.7822302265
 40
1.0
 40
1.0
 40
1.0
 40
1.0
 10
147.8197373085
 20
287.9802542924
 30
0.0
 10
148.8073129952
 20
288.5504279775
 30
0.0
 10
150.5987590319
 20
289.783644354
 30
0.0
 10
152.7388361832
 20
292.0340107298
 30
0.0
 10
154.0933988599
 20
294.5222594216
 30
0.0
 10
154.4096024312
 20
296.3087276282
 30
0.0
 10
154.4096894262
 20
297.1656712701
 30
0.0
  0
SPLINE
  5
39E
100
AcDbEntity
  8
0
100
AcDbSpline
 62
7
  6
BYLAYER
 70
0
 71
3
 72
9
 73
5
 74
0
 42
0.0000001
 43
0.0000001
 44
0.0000000001
 40
0.0
 40
0.0
 40
0.0
 40
0.0
 40
0.5000011284
 40
1.0
 40
1.0
 40
1.0
 40
1.0
 10
172.2148638519
 20
295.1245383709
 30
0.0
 10
172.2148638519
 20
295.3668876395
 30
0.0
 10
172.0492641183
 20
295.8454269122
 30
0.0
 10
171.7176349896
 20
296.2281095112
 30
0.0
 10
171.5077541267
 20
296.3492815426
 30
0.0
  0
SPLINE
  5
39F
100
AcDbEntity
  8
0
100
AcDbSpline
 62
7
  6
BYLAYER
 70
0
 71
3
 72
9
 73
5
 74
0
 42
0.0000001
 43
0.0000001
 44
0.0000000001
 40
0.0
 40
0.0
 40
0.0
 40
0.0
 40
0.2657579507
 40
1.0
 40
1.0
 40
1.0
 40
1.0
 10
122.5561017465
 20
336.6188707799
 30
0.0
 10
122.5752249631
 20
336.6154746863
 30
0.0
 10
122.6466265514
 20
336.6000569168
 30
0.0
 10
122.7161794655
 20
336.5739098767
 30
0.0
 10
122.7626512856
 20
336.5470799657
 30
0.0
  0
SPLINE
  5
3A0
100
AcDbEntity
  8
0
100
AcDbSpline
 62
7
  6
BYLAYER
 70
0
 71
3
 72
13
 73
9
 74
0
 42
0.0000001
 43
0.0000001
 44
0.0000000001
 40
0.0
 40
0.0
 40
0.0
 40
0.0
 40
0.2699328989
 40
0.5613265492
 40
0.6954683899
 40
0.8131400379
 40
0.9128525218
 40
1.0
 40
1.0
 40
1.0
 40
1.0
 10
121.4546706121
 20
78.0059928056
 30
0.0
 10
121.1507700832
 20
78.1814458885
 30
0.0
 10
120.4243963031
 20
78.3779799216
 30
0.0
 10
119.5059811786
 20
78.3315400716
 30
0.0
 10
118.8316613621
 20
78.1068075185
 30
0.0
 10
118.4372895483
 20
77.8663509157
 30
0.0
 10
118.1700852583
 20
77.5625318872
 30
0.0
 10
118.1016337655
 20
77.3174123482
 30
0.0
 10
118.1015945843
 20
77.2041208427
 30
0.0
  0
SPLINE
  5
3A1
100
AcDbEntity
  8
0
100
AcDbSpline
 62
7
  6
BYLAYER
 70
0
 71
3
 72
9
 73
5
 74
0
 42
0.0000001
 43
0.0000001
 44
0.0000000001
 40
0.0
 40
0.0
 40
0.0
 40
0.0
 40
0.4999988716
 40
1.0
 40
1.0
 40
1.0
 40
1.0
 10
133.3241469172
 20
274.3040972335
 30
0.0
 10
133.5340277801
 20
274.1829252021
 30
0.0
 10
133.8656569087
 20
273.8002426031
 30
0.0
 10
134.0312566423
 20
273.3217033305
 30
0.0
 10
134.0312566423
 20
273.0793540619
 30
0.0
  0
SPLINE
  5
3A2
100
AcDbEntity
  8
0
100
AcDbSpline
 62
7
  6
BYLAYER
 70
0
 71
3
 72
11
 73
7
 74
0
 42
0.0000001
 43
0.0000001
 44
0.0000000001
 40
0.0
 40
0.0
 40
0.0
 40
0.0
 40
0.2372465442
 40
0.4999994738
 40
0.7627526897
 40
1.0
 40
1.0
 40
1.0
 40
1.0
 10
134.0312566423
 20
273.0793540619
 30
0.0
 10
133.7300812776
 20
272.9054714219
 30
0.0
 10
133.0297333311
 20
272.6516756253
 30
0.0
 10
131.909939636
 20
272.5303307653
 30
0.0
 10
130.790144252
 20
272.6516705143
 30
0.0
 10
130.0897935502
 20
272.9054628323
 30
0.0
 10
129.7886159588
 20
273.0793438618
 30
0.0
  0
SPLINE
  5
3A3
100
AcDbEntity
  8
0
100
AcDbSpline
 62
7
  6
BYLAYER
 70
0
 71
3
 72
9
 73
5
 74
0
 42
0.0000001
 43
0.0000001
 44
0.0000000001
 40
0.0
 40
0.0
 40
0.0
 40
0.0
 40
0.5000016722
 40
1.0
 40
1.0
 40
1.0
 40
1.0
 10
129.7886159552
 20
273.0793438638
 30
0.0
 10
129.7886159552
 20
273.3216932868
 30
0.0
 10
129.9542140447
 20
273.8002323464
 30
0.0
 10
130.2858401262
 20
274.1829170763
 30
0.0
 10
130.4957197925
 20
274.3040904348
 30
0.0
  0
SPLINE
  5
3A4
100
AcDbEntity
  8
0
100
AcDbSpline
 62
7
  6
BYLAYER
 70
0
 71
3
 72
9
 73
5
 74
0
 42
0.0000001
 43
0.0000001
 44
0.0000000001
 40
0.0
 40
0.0
 40
0.0
 40
0.0
 40
0.4999983278
 40
1.0
 40
1.0
 40
1.0
 40
1.0
 10
92.3117946345
 20
296.3490911789
 30
0.0
 10
92.1019149682
 20
296.2279178204
 30
0.0
 10
91.7702888868
 20
295.8452330905
 30
0.0
 10
91.6046907973
 20
295.3666940309
 30
0.0
 10
91.6046907973
 20
295.1243446079
 30
0.0
  0
SPLINE
  5
3A5
100
AcDbEntity
  8
0
100
AcDbSpline
 62
7
  6
BYLAYER
 70
0
 71
3
 72
11
 73
7
 74
0
 42
0.0000001
 43
0.0000001
 44
0.0000000001
 40
0.0
 40
0.0
 40
0.0
 40
0.0
 40
0.2895378632
 40
0.5491098261
 40
0.7822517756
 40
1.0
 40
1.0
 40
1.0
 40
1.0
 10
91.6046907873
 20
295.1243446137
 30
0.0
 10
91.4731296687
 20
295.200299743
 30
0.0
 10
91.2343849144
 20
295.3649083911
 30
0.0
 10
90.9488005767
 20
295.6647172334
 30
0.0
 10
90.7680985376
 20
295.9966361196
 30
0.0
 10
90.726141688
 20
296.234830353
 30
0.0
 10
90.726141683
 20
296.3490770695
 30
0.0
  0
SPLINE
  5
3A6
100
AcDbEntity
  8
0
100
AcDbSpline
 62
7
  6
BYLAYER
 70
0
 71
3
 72
13
 73
9
 74
0
 42
0.0000001
 43
0.0000001
 44
0.0000000001
 40
0.0
 40
0.0
 40
0.0
 40
0.0
 40
0.2699328989
 40
0.5613265492
 40
0.6954683899
 40
0.8131400379
 40
0.9128525218
 40
1.0
 40
1.0
 40
1.0
 40
1.0
 10
114.3835733606
 20
82.0884003508
 30
0.0
 10
114.0796728317
 20
82.2638534337
 30
0.0
 10
113.3532990516
 20
82.4603874668
 30
0.0
 10
112.4348839271
 20
82.4139476168
 30
0.0
 10
111.7605641106
 20
82.1892150637
 30
0.0
 10
111.3661922968
 20
81.9487584609
 30
0.0
 10
111.0989880068
 20
81.6449394324
 30
0.0
 10
111.0305365141
 20
81.3998198934
 30
0.0
 10
111.0304973328
 20
81.2865283879
 30
0.0
  0
SPLINE
  5
3A7
100
AcDbEntity
  8
0
100
AcDbSpline
 62
7
  6
BYLAYER
 70
0
 71
3
 72
9
 73
5
 74
0
 42
0.0000001
 43
0.0000001
 44
0.0000000001
 40
0.0
 40
0.0
 40
0.0
 40
0.0
 40
0.2585319813
 40
1.0
 40
1.0
 40
1.0
 40
1.0
 10
124.909358662
 20
337.1332910576
 30
0.0
 10
124.9300300291
 20
337.1452256058
 30
0.0
 10
125.0108636042
 20
337.1898352837
 30
0.0
 10
125.0952732598
 20
337.2281015289
 30
0.0
 10
125.1594779096
 20
337.2518520041
 30
0.0
  0
SPLINE
  5
3A8
100
AcDbEntity
  8
0
100
AcDbSpline
 62
7
  6
BYLAYER
 70
0
 71
3
 72
9
 73
5
 74
0
 42
0.0000001
 43
0.0000001
 44
0.0000000001
 40
0.0
 40
0.0
 40
0.0
 40
0.0
 40
0.27541202
 40
1.0
 40
1.0
 40
1.0
 40
1.0
 10
125.1594779096
 20
337.2518520041
 30
0.0
 10
125.2101635179
 20
337.2706015383
 30
0.0
 10
125.3972118749
 20
337.3284898698
 30
0.0
 10
125.603699576
 20
337.3373196847
 30
0.0
 10
125.7412059476
 20
337.3011600358
 30
0.0
  0
SPLINE
  5
3A9
100
AcDbEntity
  8
0
100
AcDbSpline
 62
7
  6
BYLAYER
 70
0
 71
3
 72
8
 73
4
 74
0
 42
0.0000001
 43
0.0000001
 44
0.0000000001
 40
0.0
 40
0.0
 40
0.0
 40
0.0
 40
1.0
 40
1.0
 40
1.0
 40
1.0
 10
125.7412059476
 20
337.3011600358
 30
0.0
 10
125.7997674556
 20
337.2857602871
 30
0.0
 10
125.8568454744
 20
337.2625256592
 30
0.0
 10
125.9092857422
 20
337.2322499133
 30
0.0
  0
SPLINE
  5
3AA
100
AcDbEntity
  8
0
100
AcDbSpline
 62
7
  6
BYLAYER
 70
0
 71
3
 72
11
 73
7
 74
0
 42
0.0000001
 43
0.0000001
 44
0.0000000001
 40
0.0
 40
0.0
 40
0.0
 40
0.0
 40
0.2372257327
 40
0.4999141661
 40
0.7626824761
 40
1.0
 40
1.0
 40
1.0
 40
1.0
 10
115.1573948576
 20
336.2316105412
 30
0.0
 10
114.9566285291
 20
336.1156987393
 30
0.0
 10
114.5767032875
 20
335.7960185132
 30
0.0
 10
114.1334057234
 20
335.1900217817
 30
0.0
 10
113.8301379018
 20
334.5030635075
 30
0.0
 10
113.7431871832
 20
334.0140317421
 30
0.0
 10
113.7431871832
 20
333.7821173992
 30
0.0
  0
SPLINE
  5
3AB
100
AcDbEntity
  8
0
100
AcDbSpline
 62
7
  6
BYLAYER
 70
0
 71
3
 72
11
 73
7
 74
0
 42
0.0000001
 43
0.0000001
 44
0.0000000001
 40
0.0
 40
0.0
 40
0.0
 40
0.0
 40
0.2894366121
 40
0.549143047
 40
0.7823197389
 40
1.0
 40
1.0
 40
1.0
 40
1.0
 10
113.7431871762
 20
333.7821174032
 30
0.0
 10
113.6335920739
 20
333.8453907338
 30
0.0
 10
113.43469297
 20
333.9826401917
 30
0.0
 10
113.1965515777
 20
334.2324018986
 30
0.0
 10
113.0461280537
 20
334.5091119656
 30
0.0
 10
113.0109629136
 20
334.7075526177
 30
0.0
 10
113.0109882023
 20
334.8027277802
 30
0.0
  0
SPLINE
  5
3AC
100
AcDbEntity
  8
0
100
AcDbSpline
 62
7
  6
BYLAYER
 70
0
 71
3
 72
12
 73
8
 74
0
 42
0.0000001
 43
0.0000001
 44
0.0000000001
 40
0.0
 40
0.0
 40
0.0
 40
0.0
 40
0.3387770204
 40
0.6252889145
 40
0.8479366828
 40
0.9327729023
 40
1.0
 40
1.0
 40
1.0
 40
1.0
 10
151.1259288623
 20
308.6610817585
 30
0.0
 10
151.3945943866
 20
308.2605381019
 30
0.0
 10
151.8466600107
 20
307.4895367839
 30
0.0
 10
152.3056337642
 20
306.3697200684
 30
0.0
 10
152.477966969
 20
305.5305385199
 30
0.0
 10
152.453139553
 20
304.9952288901
 30
0.0
 10
152.3903651527
 20
304.7835939136
 30
0.0
 10
152.3448570219
 20
304.6993969451
 30
0.0
  0
SPLINE
  5
3AD
100
AcDbEntity
  8
0
100
AcDbSpline
 62
7
  6
BYLAYER
 70
0
 71
3
 72
10
 73
6
 74
0
 42
0.0000001
 43
0.0000001
 44
0.0000000001
 40
0.0
 40
0.0
 40
0.0
 40
0.0
 40
0.2565062759
 40
0.4862577866
 40
1.0
 40
1.0
 40
1.0
 40
1.0
 10
152.3448570219
 20
304.6993969451
 30
0.0
 10
152.3158396929
 20
304.6457104699
 30
0.0
 10
152.2460814811
 20
304.5497902526
 30
0.0
 10
152.0307649355
 20
304.4288032604
 30
0.0
 10
151.8354935384
 20
304.4766567319
 30
0.0
 10
151.7259550679
 20
304.5308849696
 30
0.0
  0
SPLINE
  5
3AE
100
AcDbEntity
  8
0
100
AcDbSpline
 62
7
  6
BYLAYER
 70
0
 71
3
 72
9
 73
5
 74
0
 42
0.0000001
 43
0.0000001
 44
0.0000000001
 40
0.0
 40
0.0
 40
0.0
 40
0.0
 40
0.2776188932
 40
1.0
 40
1.0
 40
1.0
 40
1.0
 10
150.3584429345
 20
307.6925139434
 30
0.0
 10
150.358443894
 20
307.364846653
 30
0.0
 10
150.3978213479
 20
306.1861256008
 30
0.0
 10
150.602384553
 20
305.0040942418
 30
0.0
 10
150.8873091093
 20
304.2005011211
 30
0.0
  0
SPLINE
  5
3AF
100
AcDbEntity
  8
0
100
AcDbSpline
 62
7
  6
BYLAYER
 70
0
 71
3
 72
16
 73
12
 74
0
 42
0.0000001
 43
0.0000001
 44
0.0000000001
 40
0.0
 40
0.0
 40
0.0
 40
0.0
 40
0.1891512973
 40
0.3460276347
 40
0.4721413335
 40
0.5731818038
 40
0.6183433507
 40
0.6625477311
 40
0.7557499572
 40
0.8666326897
 40
1.0
 40
1.0
 40
1.0
 40
1.0
 10
150.8873091093
 20
304.2005011211
 30
0.0
 10
151.0150627741
 20
303.8401883159
 30
0.0
 10
151.3008752127
 20
303.1967545429
 30
0.0
 10
151.863794598
 20
302.4160462234
 30
0.0
 10
152.4742940762
 20
301.9183723518
 30
0.0
 10
153.0196783261
 20
301.7472009345
 30
0.0
 10
153.4073019008
 20
301.7870523092
 30
0.0
 10
153.7541757703
 20
301.9261743736
 30
0.0
 10
154.1194068446
 20
302.3009525623
 30
0.0
 10
154.3636456564
 20
302.9502172688
 30
0.0
 10
154.409765404
 20
303.4465393402
 30
0.0
 10
154.4097558495
 20
303.7160860314
 30
0.0
  0
SPLINE
  5
3B0
100
AcDbEntity
  8
0
100
AcDbSpline
 62
7
  6
BYLAYER
 70
0
 71
3
 72
9
 73
5
 74
0
 42
0.0000001
 43
0.0000001
 44
0.0000000001
 40
0.0
 40
0.0
 40
0.0
 40
0.0
 40
0.5077648545
 40
1.0
 40
1.0
 40
1.0
 40
1.0
 10
150.8534706127
 20
309.1299448225
 30
0.0
 10
151.1526633885
 20
309.1842182164
 30
0.0
 10
151.7642558117
 20
309.2004228836
 30
0.0
 10
152.344533003
 20
308.9641144531
 30
0.0
 10
152.5761546775
 20
308.7817850423
 30
0.0
  0
SPLINE
  5
3B1
100
AcDbEntity
  8
0
100
AcDbSpline
 62
7
  6
BYLAYER
 70
0
 71
3
 72
9
 73
5
 74
0
 42
0.0000001
 43
0.0000001
 44
0.0000000001
 40
0.0
 40
0.0
 40
0.0
 40
0.0
 40
0.2556172485
 40
1.0
 40
1.0
 40
1.0
 40
1.0
 10
152.5761546775
 20
308.7817850423
 30
0.0
 10
152.6132847711
 20
308.7525567409
 30
0.0
 10
152.7533882712
 20
308.6318282295
 30
0.0
 10
152.8720853112
 20
308.4861505774
 30
0.0
 10
152.9434507594
 20
308.368494302
 30
0.0
  0
SPLINE
  5
3B2
100
AcDbEntity
  8
0
100
AcDbSpline
 62
7
  6
BYLAYER
 70
0
 71
3
 72
10
 73
6
 74
0
 42
0.0000001
 43
0.0000001
 44
0.0000000001
 40
0.0
 40
0.0
 40
0.0
 40
0.0
 40
0.3048611874
 40
0.5695402173
 40
1.0
 40
1.0
 40
1.0
 40
1.0
 10
120.1744462653
 20
339.5301335387
 30
0.0
 10
120.1109883662
 20
339.5826091879
 30
0.0
 10
119.9845911008
 20
339.6723962299
 30
0.0
 10
119.7401883535
 20
339.7870089663
 30
0.0
 10
119.5345735669
 20
339.7955775043
 30
0.0
 10
119.4267655265
 20
339.7520351141
 30
0.0
  0
SPLINE
  5
3B3
100
AcDbEntity
  8
0
100
AcDbSpline
 62
7
  6
BYLAYER
 70
0
 71
3
 72
10
 73
6
 74
0
 42
0.0000001
 43
0.0000001
 44
0.0000000001
 40
0.0
 40
0.0
 40
0.0
 40
0.0
 40
0.2328181411
 40
0.6219428193
 40
1.0
 40
1.0
 40
1.0
 40
1.0
 10
150.3584429238
 20
320.7565528733
 30
0.0
 10
150.3584429238
 20
320.9854542661
 30
0.0
 10
150.2306779932
 20
321.5973430717
 30
0.0
 10
149.6906024006
 20
322.4464066602
 30
0.0
 10
149.0633059661
 20
322.9115957949
 30
0.0
 10
148.7185607521
 20
323.0505541739
 30
0.0
  0
SPLINE
  5
3B4
100
AcDbEntity
  8
0
100
AcDbSpline
 62
7
  6
BYLAYER
 70
0
 71
3
 72
10
 73
6
 74
0
 42
0.0000001
 43
0.0000001
 44
0.0000000001
 40
0.0
 40
0.0
 40
0.0
 40
0.0
 40
0.5477820514
 40
0.7815875788
 40
1.0
 40
1.0
 40
1.0
 40
1.0
 10
148.6621421278
 20
323.4199253674
 30
0.0
 10
148.8275733047
 20
323.5154365318
 30
0.0
 10
149.0914983085
 20
323.6208841575
 30
0.0
 10
149.4445767367
 20
323.6121798197
 30
0.0
 10
149.5961115337
 20
323.5569722256
 30
0.0
 10
149.6620788894
 20
323.5189009805
 30
0.0
  0
SPLINE
  5
3B5
100
AcDbEntity
  8
0
100
AcDbSpline
 62
7
  6
BYLAYER
 70
0
 71
3
 72
11
 73
7
 74
0
 42
0.0000001
 43
0.0000001
 44
0.0000000001
 40
0.0
 40
0.0
 40
0.0
 40
0.0
 40
0.2992988458
 40
0.5834898926
 40
0.8175285959
 40
1.0
 40
1.0
 40
1.0
 40
1.0
 10
118.9510801456
 20
337.6673380599
 30
0.0
 10
118.8752509455
 20
337.6808045735
 30
0.0
 10
118.7229287907
 20
337.6862177215
 30
0.0
 10
118.5159433165
 20
337.6382787881
 30
0.0
 10
118.3560295359
 20
337.5445110053
 30
0.0
 10
118.3043589348
 20
337.4383907523
 30
0.0
 10
118.3043616887
 20
337.3914371507
 30
0.0
  0
SPLINE
  5
3B6
100
AcDbEntity
  8
0
100
AcDbSpline
 62
7
  6
BYLAYER
 70
0
 71
3
 72
9
 73
5
 74
0
 42
0.0000001
 43
0.0000001
 44
0.0000000001
 40
0.0
 40
0.0
 40
0.0
 40
0.0
 40
0.2412002823
 40
1.0
 40
1.0
 40
1.0
 40
1.0
 10
150.3584429345
 20
320.7565528822
 30
0.0
 10
150.1672964556
 20
320.5984840891
 30
0.0
 10
149.3595850286
 20
319.9616363835
 30
0.0
 10
148.4955065056
 20
319.3974993423
 30
0.0
 10
147.8197373085
 20
319.0073461434
 30
0.0
  0
SPLINE
  5
3B7
100
AcDbEntity
  8
0
100
AcDbSpline
 62
7
  6
BYLAYER
 70
0
 71
3
 72
9
 73
5
 74
0
 42
0.0000001
 43
0.0000001
 44
0.0000000001
 40
0.0
 40
0.0
 40
0.0
 40
0.0
 40
0.2436647008
 40
1.0
 40
1.0
 40
1.0
 40
1.0
 10
147.4250957599
 20
318.7850175871
 30
0.0
 10
147.2176386326
 20
318.6709742108
 30
0.0
 10
146.3587049505
 20
318.2167038136
 30
0.0
 10
145.4715470719
 20
317.8163499369
 30
0.0
 10
144.7900001903
 20
317.5416301553
 30
0.0
  0
SPLINE
  5
3B8
100
AcDbEntity
  8
0
100
AcDbSpline
 62
7
  6
BYLAYER
 70
0
 71
3
 72
11
 73
7
 74
0
 42
0.0000001
 43
0.0000001
 44
0.0000000001
 40
0.0
 40
0.0
 40
0.0
 40
0.0
 40
0.2372280883
 40
0.4999174016
 40
0.7626848322
 40
1.0
 40
1.0
 40
1.0
 40
1.0
 10
141.5911037557
 20
317.7044789945
 30
0.0
 10
141.5911037557
 20
317.936305938
 30
0.0
 10
141.677991751
 20
318.4251739909
 30
0.0
 10
141.9811488793
 20
319.1120830086
 30
0.0
 10
142.4244337533
 20
319.7182002322
 30
0.0
 10
142.8044694119
 20
320.0380166354
 30
0.0
 10
143.0053114301
 20
320.1539721365
 30
0.0
  0
SPLINE
  5
3B9
100
AcDbEntity
  8
0
100
AcDbSpline
 62
7
  6
BYLAYER
 70
0
 71
3
 72
11
 73
7
 74
0
 42
0.0000001
 43
0.0000001
 44
0.0000000001
 40
0.0
 40
0.0
 40
0.0
 40
0.0
 40
0.226475729
 40
0.4886635305
 40
0.7569608076
 40
1.0
 40
1.0
 40
1.0
 40
1.0
 10
143.6450907201
 20
320.1214023698
 30
0.0
 10
143.8133005413
 20
319.9823035392
 30
0.0
 10
144.123453872
 20
319.6192331018
 30
0.0
 10
144.4774094752
 20
318.9775623779
 30
0.0
 10
144.7195637009
 20
318.2687478141
 30
0.0
 10
144.7900002057
 20
317.7758665308
 30
0.0
 10
144.7900002057
 20
317.5416301615
 30
0.0
  0
SPLINE
  5
3BA
100
AcDbEntity
  8
0
100
AcDbSpline
 62
7
  6
BYLAYER
 70
0
 71
3
 72
11
 73
7
 74
0
 42
0.0000001
 43
0.0000001
 44
0.0000000001
 40
0.0
 40
0.0
 40
0.0
 40
0.0
 40
0.2472349029
 40
0.5098668604
 40
0.767280106
 40
1.0
 40
1.0
 40
1.0
 40
1.0
 10
144.7900002057
 20
317.5416301615
 30
0.0
 10
144.5382429802
 20
317.4401511702
 30
0.0
 10
143.9904275118
 20
317.2995695558
 30
0.0
 10
143.1439212627
 20
317.2590813681
 30
0.0
 10
142.3213688358
 20
317.3810732247
 30
0.0
 10
141.8123779225
 20
317.5767291852
 30
0.0
 10
141.5911037622
 20
317.7044789907
 30
0.0
  0
SPLINE
  5
3BB
100
AcDbEntity
  8
0
100
AcDbSpline
 62
7
  6
BYLAYER
 70
0
 71
3
 72
9
 73
5
 74
0
 42
0.0000001
 43
0.0000001
 44
0.0000000001
 40
0.0
 40
0.0
 40
0.0
 40
0.0
 40
0.2332491933
 40
1.0
 40
1.0
 40
1.0
 40
1.0
 10
122.7626512856
 20
336.9553311743
 30
0.0
 10
122.747884841
 20
336.9638563922
 30
0.0
 10
122.6825987848
 20
336.9969614976
 30
0.0
 10
122.6112884281
 20
337.0173213813
 30
0.0
 10
122.5561017465
 20
337.0271219885
 30
0.0
  0
SPLINE
  5
3BC
100
AcDbEntity
  8
0
100
AcDbSpline
 62
7
  6
BYLAYER
 70
0
 71
3
 72
9
 73
5
 74
0
 42
0.0000001
 43
0.0000001
 44
0.0000000001
 40
0.0
 40
0.0
 40
0.0
 40
0.0
 40
0.4491310146
 40
1.0
 40
1.0
 40
1.0
 40
1.0
 10
165.8691400173
 20
51.8709990653
 30
0.0
 10
165.8691829962
 20
51.7152534665
 30
0.0
 10
165.7330210992
 20
51.3676208093
 30
0.0
 10
165.4488430657
 20
51.1500300977
 30
0.0
 10
165.283409986
 20
51.0545178347
 30
0.0
  0
SPLINE
  5
3BD
100
AcDbEntity
  8
0
100
AcDbSpline
 62
7
  6
BYLAYER
 70
0
 71
3
 72
11
 73
7
 74
0
 42
0.0000001
 43
0.0000001
 44
0.0000000001
 40
0.0
 40
0.0
 40
0.0
 40
0.0
 40
0.2372542275
 40
0.5000017852
 40
0.7627483734
 40
1.0
 40
1.0
 40
1.0
 40
1.0
 10
117.8383202899
 20
331.4178446847
 30
0.0
 10
117.8383202899
 20
331.6496965751
 30
0.0
 10
117.9252481056
 20
332.1386428428
 30
0.0
 10
118.2284568849
 20
332.8255966063
 30
0.0
 10
118.6717673837
 20
333.4316601384
 30
0.0
 10
119.0517402388
 20
333.7514136712
 30
0.0
 10
119.2525279643
 20
333.8673378267
 30
0.0
  0
SPLINE
  5
3BE
100
AcDbEntity
  8
0
100
AcDbSpline
 62
7
  6
BYLAYER
 70
0
 71
3
 72
10
 73
6
 74
0
 42
0.0000001
 43
0.0000001
 44
0.0000000001
 40
0.0
 40
0.0
 40
0.0
 40
0.0
 40
0.5139079501
 40
0.7396555818
 40
1.0
 40
1.0
 40
1.0
 40
1.0
 10
115.1573948576
 20
336.2316105412
 30
0.0
 10
115.0910308322
 20
336.2699249623
 30
0.0
 10
114.9943878001
 20
336.3629956978
 30
0.0
 10
115.0208765304
 20
336.5199625401
 30
0.0
 10
115.0710597109
 20
336.5762422334
 30
0.0
 10
115.1009762333
 20
336.6009817347
 30
0.0
  0
SPLINE
  5
3BF
100
AcDbEntity
  8
0
100
AcDbSpline
 62
7
  6
BYLAYER
 70
0
 71
3
 72
9
 73
5
 74
0
 42
0.0000001
 43
0.0000001
 44
0.0000000001
 40
0.0
 40
0.0
 40
0.0
 40
0.0
 40
0.2400728178
 40
1.0
 40
1.0
 40
1.0
 40
1.0
 10
115.1009762333
 20
336.6009817347
 30
0.0
 10
115.2997309754
 20
336.7653421893
 30
0.0
 10
116.1457884958
 20
337.4279176073
 30
0.0
 10
117.0581625662
 20
338.0039892306
 30
0.0
 10
117.773581427
 20
338.3972694398
 30
0.0
  0
SPLINE
  5
3C0
100
AcDbEntity
  8
0
100
AcDbSpline
 62
7
  6
BYLAYER
 70
0
 71
3
 72
9
 73
5
 74
0
 42
0.0000001
 43
0.0000001
 44
0.0000000001
 40
0.0
 40
0.0
 40
0.0
 40
0.0
 40
0.5102058016
 40
1.0
 40
1.0
 40
1.0
 40
1.0
 10
120.1744462653
 20
339.5301335388
 30
0.0
 10
120.2777204319
 20
339.5717615724
 30
0.0
 10
120.5004391633
 20
339.6010848688
 30
0.0
 10
120.7216524204
 20
339.5510096874
 30
0.0
 10
120.8142255553
 20
339.4975637722
 30
0.0
  0
SPLINE
  5
3C1
100
AcDbEntity
  8
0
100
AcDbSpline
 62
7
  6
BYLAYER
 70
0
 71
3
 72
11
 73
7
 74
0
 42
0.0000001
 43
0.0000001
 44
0.0000000001
 40
0.0
 40
0.0
 40
0.0
 40
0.0
 40
0.2372428732
 40
0.4999994739
 40
0.7627563609
 40
1.0
 40
1.0
 40
1.0
 40
1.0
 10
144.9205874354
 20
322.3141380711
 30
0.0
 10
144.7499244596
 20
322.2156063443
 30
0.0
 10
144.3530484134
 20
322.0718429074
 30
0.0
 10
143.7185077973
 20
322.0029580562
 30
0.0
 10
143.0839662236
 20
322.0718400117
 30
0.0
 10
142.6870886167
 20
322.215601478
 30
0.0
 10
142.5164243794
 20
322.3141322922
 30
0.0
  0
ENDSEC
  0
SECTION
  2
OBJECTS
  0
DICTIONARY
  5
C
100
AcDbDictionary
280
0
281
1
  3
ACAD_GROUP
350
D
  3
ACAD_MLINESTYLE
350
17
  3
ACAD_LAYOUT
350
1A
  3
ACAD_PLOTSETTINGS
350
19
  3
ACAD_PLOTSTYLENAME
350
E
  0
DICTIONARY
  5
D
102
{ACAD_REACTORS
330
C
102
}
100
AcDbDictionary
280
0
281
1
  0
ACDBDICTIONARYWDFLT
  5
E
102
{ACAD_REACTORS
330
C
102
}
100
AcDbDictionary
281
1
  3
Normal
350
F
100
AcDbDictionaryWithDefault
340
F
  0
DICTIONARY
  5
17
102
{ACAD_REACTORS
330
C
102
}
100
AcDbDictionary
280
0
281
1
  3
Standard
350
18
  0
DICTIONARY
  5
19
102
{ACAD_REACTORS
330
C
102
}
100
AcDbDictionary
281
1
  0
DICTIONARY
  5
1A
102
{ACAD_REACTORS
330
C
102
}
100
AcDbDictionary
281
1
  3
Model
350
3C2
  3
Layout1
350
3C3
  0
ACDBPLACEHOLDER
  5
F
102
{ACAD_REACTORS
330
E
102
}
  0
MLINESTYLE
  5
18
102
{ACAD_REACTORS
330
17
102
}
100
AcDbMlineStyle
  2
STANDARD
 70
0
  3

 62
256
 51
90.0
 52
90.0
 71
2
 49
0.5
 62
256
  6
BYLAYER
 49
-0.5
 62
256
  6
BYLAYER
  0
LAYOUT
  5
3C2
102
{ACAD_REACTORS
330
1A
102
}
100
AcDbPlotSettings
  1

  2
none_device
  4

  6

 40
0.0
 41
0.0
 42
0.0
 43
0.0
 44
210.0
 45
297.0
 46
0.0
 47
0.0
 48
0.0
 49
0.0
140
0.0
141
0.0
142
1.0
143
1.0
 70
1024
 72
1
 73
0
 74
0
  7

 75
0
147
1.0
148
0.0
149
0.0
100
AcDbLayout
  1
Model
 70
0
 71
0
 10
0.0
 20
0.0
 11
210.0
 21
297.0
 12
0.0
 22
0.0
 32
0.0
 14
0.0
 24
0.0
 34
0.0
 15
0.0
 25
0.0
 35
0.0
146
0.0
 13
0.0
 23
0.0
 33
0.0
 16
1.0
 26
0.0
 36
0.0
 17
0.0
 27
1.0
 37
0.0
 76
0
330
210
345
0
346
0
  0
LAYOUT
  5
3C3
102
{ACAD_REACTORS
330
1A
102
}
100
AcDbPlotSettings
  1

  2
none_device
  4

  6

 40
0.0
 41
0.0
 42
0.0
 43
0.0
 44
210.0
 45
297.0
 46
0.0
 47
0.0
 48
0.0
 49
0.0
140
0.0
141
0.0
142
1.0
143
1.0
 70
0
 72
1
 73
0
 74
0
  7

 75
0
147
1.0
148
0.0
149
0.0
100
AcDbLayout
  1
Layout1
 70
0
 71
1
 10
0.0
 20
0.0
 11
210.0
 21
297.0
 12
0.0
 22
0.0
 32
0.0
 14
0.0
 24
0.0
 34
0.0
 15
0.0
 25
0.0
 35
0.0
146
0.0
 13
0.0
 23
0.0
 33
0.0
 16
1.0
 26
0.0
 36
0.0
 17
0.0
 27
1.0
 37
0.0
 76
0
330
211
345
0
346
0
  0
ENDSEC
  0
EOF
