999
DXF file: C:\Users\sesa63760\Dev\_Creo\CAD\MCADPD0004097_3D-CAD\drw0001_7.dxf
999
Pro/ENGINEER 2019471 by Parametric Technology Corporation
  0
SECTION
  2
HEADER
  9
$ACADVER
  1
AC1024
  9
$DWGCODEPAGE
  3
ANSI_1252
  9
$EXTMAX
 10
102.7439393939
 20
145.3092857143
 30
0.0
  9
$EXTMIN
 10
0.0
 20
0.0
 30
0.0
  9
$LIMMIN
 10
0.0
 20
0.0
  9
$LIMMAX
 10
102.7439393939
 20
145.3092857143
  9
$VIEWCTR
 10
51.371969697
 20
72.6546428571
  9
$VIEWSIZE
 40
145.3092857143
  9
$CLAYER
  8
0
  9
$LTSCALE
 40
9.4720126984
  9
$CELTYPE
  6
BYLAYER
  9
$DIMSCALE
 40
1.0
  9
$DIMASZ
 40
1.2231421356
  9
$DIMEXO
 40
1.0
  9
$DIMDLI
 40
6.5442996825
  9
$DIMEXE
 40
1.0
  9
$DIMCEN
 40
1.5499657143
  9
$DIMLFAC
 40
1.0
  9
$DIMBLK
  1
_FILLED
  9
$DIMALT
 70
0
  9
$DIMALTF
 40
0.0393700787
  9
$DIMTXT
 40
1.7123989899
  9
$DIMTOL
 70
1
  9
$DIMLIM
 70
0
  9
$DIMTFAC
 40
1.0
  9
$DIMTP
 40
0.01
  9
$DIMTM
 40
0.01
  9
$DIMGAP
 40
0.625
  9
$DIMDSEP
 70
46
  9
$AUNITS
 70
0
  9
$PDMODE
 70
3
  9
$PDSIZE
 40
0.3125
  9
$HANDSEED
  5
271
  9
$TILEMODE
 70
1
  9
$MEASUREMENT
 70
1
  9
$INSUNITS
 70
4
  0
ENDSEC
  0
SECTION
  2
CLASSES
  0
CLASS
  1
ACDBDICTIONARYWDFLT
  2
AcDbDictionaryWithDefault
  3
AutoCAD 2000
 90
0
 91
1
280
0
281
0
  0
CLASS
  1
ACDBPLACEHOLDER
  2
AcDbPlaceHolder
  3
AutoCAD 2000
 90
0
 91
1
280
0
281
0
  0
CLASS
  1
LAYOUT
  2
AcDbLayout
  3
AutoCAD 2000
 90
0
 91
0
280
0
281
0
  0
ENDSEC
  0
SECTION
  2
TABLES
  0
TABLE
  2
VPORT
  5
8
100
AcDbSymbolTable
 70
2
  0
VPORT
  5
1F4
100
AcDbSymbolTableRecord
100
AcDbViewportTableRecord
  2
*ACTIVE
 70
0
 10
0.0
 20
0.0
 11
1.0
 21
1.0
 12
51.371969697
 22
72.6546428571
 13
0.0
 23
0.0
 14
1.0
 24
1.0
 15
0.0
 25
0.0
 16
0.0
 26
0.0
 36
1.0
 17
0.0
 27
0.0
 37
0.0
 40
145.3092857143
 41
0.7070707071
 42
50.0
 43
0.0
 44
0.0
 50
0.0
 51
0.0
 71
0
 72
100
 73
1
 74
1
 75
0
 76
0
 77
0
 78
0
  0
ENDTAB
  0
TABLE
  2
LTYPE
  5
5
100
AcDbSymbolTable
 70
6
  0
LTYPE
  5
14
100
AcDbSymbolTableRecord
100
AcDbLinetypeTableRecord
  2
BYBLOCK
 70
0
  3

 72
65
 73
0
 40
0.0
  0
LTYPE
  5
15
100
AcDbSymbolTableRecord
100
AcDbLinetypeTableRecord
  2
BYLAYER
 70
0
  3

 72
65
 73
0
 40
0.0
  0
LTYPE
  5
16
100
AcDbSymbolTableRecord
100
AcDbLinetypeTableRecord
  2
CONTINUOUS
 70
64
  3
Solid line
 72
65
 73
0
 40
0.0
  0
LTYPE
  5
1F5
100
AcDbSymbolTableRecord
100
AcDbLinetypeTableRecord
  2
CENTER
 70
64
  3
____ _ ____ _ ____ _ ____ _ ____ _ ____ _ ____
 72
65
 73
4
 40
0.6
 49
0.375
 74
0
 49
-0.075
 74
0
 49
0.075
 74
0
 49
-0.075
 74
0
  0
LTYPE
  5
1F6
100
AcDbSymbolTableRecord
100
AcDbLinetypeTableRecord
  2
HIDDEN
 70
64
  3
- - - - - - - - - - - - - - - - - - - -
 72
65
 73
2
 40
0.2
 49
0.1
 74
0
 49
-0.1
 74
0
  0
LTYPE
  5
1F7
100
AcDbSymbolTableRecord
100
AcDbLinetypeTableRecord
  2
PHANTOM
 70
64
  3
_____ _ _ _____ _ _ _____ _ _ _____
 72
65
 73
6
 40
0.8
 49
0.45
 74
0
 49
-0.05
 74
0
 49
0.1
 74
0
 49
-0.05
 74
0
 49
0.1
 74
0
 49
-0.05
 74
0
  0
LTYPE
  5
1F8
100
AcDbSymbolTableRecord
100
AcDbLinetypeTableRecord
  2
DOT
 70
64
  3
. . . . . . . . . . . . . . . . . . . .
 72
65
 73
2
 40
0.2
 49
0.1
 74
0
 49
-0.1
 74
0
  0
LTYPE
  5
1F9
100
AcDbSymbolTableRecord
100
AcDbLinetypeTableRecord
  2
DASHED
 70
64
  3
- - - - - - - - - - - - - - - - - - - -
 72
65
 73
2
 40
0.2
 49
0.1
 74
0
 49
-0.1
 74
0
  0
ENDTAB
  0
TABLE
  2
LAYER
  5
2
100
AcDbSymbolTable
 70
36
  0
LAYER
  5
10
100
AcDbSymbolTableRecord
100
AcDbLayerTableRecord
  2
0
 70
0
 62
7
  6
CONTINUOUS
370
-3
390
F
  0
LAYER
  5
1FA
100
AcDbSymbolTableRecord
100
AcDbLayerTableRecord
  2
DEFAULT_1
 70
0
 62
7
  6
CENTER
370
-3
390
F
  0
LAYER
  5
1FB
100
AcDbSymbolTableRecord
100
AcDbLayerTableRecord
  2
DEFAULT_2
 70
0
 62
7
  6
HIDDEN
370
-3
390
F
  0
LAYER
  5
1FC
100
AcDbSymbolTableRecord
100
AcDbLayerTableRecord
  2
DEFAULT_3
 70
0
 62
7
  6
PHANTOM
370
-3
390
F
  0
LAYER
  5
1FD
100
AcDbSymbolTableRecord
100
AcDbLayerTableRecord
  2
00_COMPONENTS
 70
0
 62
7
  6
CONTINUOUS
370
-3
390
F
  0
LAYER
  5
1FE
100
AcDbSymbolTableRecord
100
AcDbLayerTableRecord
  2
01_1_DEFAULT_DATUMS
 70
0
 62
7
  6
CONTINUOUS
370
-3
390
F
  0
LAYER
  5
1FF
100
AcDbSymbolTableRecord
100
AcDbLayerTableRecord
  2
01_PLANES
 70
0
 62
7
  6
CONTINUOUS
370
-3
390
F
  0
LAYER
  5
200
100
AcDbSymbolTableRecord
100
AcDbLayerTableRecord
  2
02_COORD_SYS
 70
0
 62
7
  6
CONTINUOUS
370
-3
390
F
  0
LAYER
  5
201
100
AcDbSymbolTableRecord
100
AcDbLayerTableRecord
  2
03_AXES
 70
0
 62
7
  6
CONTINUOUS
370
-3
390
F
  0
LAYER
  5
202
100
AcDbSymbolTableRecord
100
AcDbLayerTableRecord
  2
04_POINTS
 70
0
 62
7
  6
CONTINUOUS
370
-3
390
F
  0
LAYER
  5
203
100
AcDbSymbolTableRecord
100
AcDbLayerTableRecord
  2
05_CURVES
 70
0
 62
7
  6
CONTINUOUS
370
-3
390
F
  0
LAYER
  5
204
100
AcDbSymbolTableRecord
100
AcDbLayerTableRecord
  2
06_SURFS
 70
0
 62
7
  6
CONTINUOUS
370
-3
390
F
  0
LAYER
  5
205
100
AcDbSymbolTableRecord
100
AcDbLayerTableRecord
  2
07_COSMETICS
 70
0
 62
7
  6
CONTINUOUS
370
-3
390
F
  0
LAYER
  5
206
100
AcDbSymbolTableRecord
100
AcDbLayerTableRecord
  2
10_NOTES
 70
0
 62
7
  6
CONTINUOUS
370
-3
390
F
  0
LAYER
  5
207
100
AcDbSymbolTableRecord
100
AcDbLayerTableRecord
  2
11_NOTES_PUB
 70
0
 62
7
  6
CONTINUOUS
370
-3
390
F
  0
LAYER
  5
208
100
AcDbSymbolTableRecord
100
AcDbLayerTableRecord
  2
13_REF_GTOL
 70
0
 62
7
  6
CONTINUOUS
370
-3
390
F
  0
LAYER
  5
209
100
AcDbSymbolTableRecord
100
AcDbLayerTableRecord
  2
16_MISC
 70
0
 62
7
  6
CONTINUOUS
370
-3
390
F
  0
LAYER
  5
20A
100
AcDbSymbolTableRecord
100
AcDbLayerTableRecord
  2
17_NO_PRINT
 70
0
 62
7
  6
CONTINUOUS
370
-3
390
F
  0
LAYER
  5
20B
100
AcDbSymbolTableRecord
100
AcDbLayerTableRecord
  2
18_DATUM_CAMS_JOINTS
 70
0
 62
7
  6
CONTINUOUS
370
-3
390
F
  0
LAYER
  5
20C
100
AcDbSymbolTableRecord
100
AcDbLayerTableRecord
  2
19_DATUM_FUNCTIONAL
 70
0
 62
7
  6
CONTINUOUS
370
-3
390
F
  0
LAYER
  5
20D
100
AcDbSymbolTableRecord
100
AcDbLayerTableRecord
  2
20_DATUM_KINEMATIC_SCHEME
 70
0
 62
7
  6
CONTINUOUS
370
-3
390
F
  0
ENDTAB
  0
TABLE
  2
STYLE
  5
3
100
AcDbSymbolTable
 70
1
  0
STYLE
  5
11
100
AcDbSymbolTableRecord
100
AcDbTextStyleTableRecord
  2
STANDARD
 70
0
 40
0.0
 41
1.0
 50
0.0
 71
0
 42
0.2
  3
ARIAL.TTF
  4

  0
STYLE
  5
20E
100
AcDbSymbolTableRecord
100
AcDbTextStyleTableRecord
  2
TEXTSTYLE_1
 70
0
 40
0.0
 41
0.8
 50
0.0
 71
0
 42
0.2
  3
gdt
  4

  0
ENDTAB
  0
TABLE
  2
VIEW
  5
6
100
AcDbSymbolTable
 70
0
  0
ENDTAB
  0
TABLE
  2
UCS
  5
7
100
AcDbSymbolTable
 70
0
  0
ENDTAB
  0
TABLE
  2
APPID
  5
9
100
AcDbSymbolTable
 70
1
  0
APPID
  5
20F
100
AcDbSymbolTableRecord
100
AcDbRegAppTableRecord
  2
ACAD
 70
0
  0
ENDTAB
  0
TABLE
  2
BLOCK_RECORD
  5
1
100
AcDbSymbolTable
 70
0
  0
BLOCK_RECORD
  5
210
100
AcDbSymbolTableRecord
100
AcDbBlockTableRecord
  2
*Model_Space
  0
BLOCK_RECORD
  5
211
100
AcDbSymbolTableRecord
100
AcDbBlockTableRecord
  2
*Paper_Space
  0
BLOCK_RECORD
  5
212
100
AcDbSymbolTableRecord
100
AcDbBlockTableRecord
  2
_FILLED
  0
ENDTAB
  0
TABLE
  2
DIMSTYLE
  5
A
100
AcDbSymbolTable
 70
1
100
AcDbDimStyleTable
 71
0
  0
DIMSTYLE
105
213
100
AcDbSymbolTableRecord
100
AcDbDimStyleTableRecord
  2
STANDARD
 70
0
  3

  4

 40
1.0
 41
1.2231421356
 42
1.0
 43
0.38
 44
1.0
 45
0.0
 46
0.0
 47
0.01
 48
0.01
140
1.7123989899
141
0.09
142
0.0
143
25.4
144
1.0
145
0.0
146
1.0
147
0.625
 71
1
 72
0
 73
0
 74
0
 75
0
 76
0
 77
1
 78
8
 79
2
170
0
171
1
172
0
173
0
174
0
175
0
176
0
177
0
178
0
270
2
179
2
271
2
272
2
273
2
274
2
275
0
280
0
281
0
282
0
283
1
284
8
285
0
286
0
287
3
288
0
340
11
278
46
341
212
342
212
343
212
344
212
  0
ENDTAB
  0
ENDSEC
  0
SECTION
  2
BLOCKS
  0
BLOCK
  5
20
100
AcDbEntity
  8
0
100
AcDbBlockBegin
  2
*Model_Space
 70
0
 10
0.0
 20
0.0
 30
0.0
  3
*Model_Space
  1

  0
ENDBLK
  5
21
100
AcDbEntity
  8
0
100
AcDbBlockEnd
  0
BLOCK
  5
1C
100
AcDbEntity
  8
0
100
AcDbBlockBegin
  2
*Paper_Space
 70
0
 10
0.0
 20
0.0
 30
0.0
  3
*Paper_Space
  1

  0
ENDBLK
  5
1D
100
AcDbEntity
  8
0
100
AcDbBlockEnd
  0
BLOCK
  5
214
100
AcDbEntity
  8
0
100
AcDbBlockBegin
  2
_FILLED
 70
64
 10
0.0
 20
0.0
  3
_FILLED
  1

  0
SOLID
  5
215
100
AcDbEntity
  8
0
  6
BYBLOCK
 62
0
100
AcDbTrace
 10
0.0
 20
0.0
 11
-1.0
 21
0.25
 12
-1.0
 22
-0.25
 13
-1.0
 23
-0.25
  0
ENDBLK
  5
216
100
AcDbEntity
  8
0
  6
BYBLOCK
 62
0
100
AcDbBlockEnd
  0
ENDSEC
  0
SECTION
  2
ENTITIES
  0
LINE
  5
217
100
AcDbEntity
  8
0
100
AcDbLine
 62
7
  6
BYLAYER
 10
33.3300162639
 20
10.7603571429
 11
59.5695540507
 21
10.7603571429
  0
LINE
  5
218
100
AcDbEntity
  8
0
100
AcDbLine
 62
7
  6
BYLAYER
 10
33.3299205692
 20
12.2603571429
 11
59.5695540507
 21
12.2603571429
  0
LINE
  5
219
100
AcDbEntity
  8
0
100
AcDbLine
 62
7
  6
BYLAYER
 10
51.5830856251
 20
15.2603571429
 11
61.8676873801
 21
15.2603571429
  0
LINE
  5
21A
100
AcDbEntity
  8
0
100
AcDbLine
 62
7
  6
BYLAYER
 10
49.7711452375
 20
135.2603571429
 11
49.4311452375
 21
134.9603571429
  0
LINE
  5
21B
100
AcDbEntity
  8
0
100
AcDbLine
 62
7
  6
BYLAYER
 10
64.9658207094
 20
135.2603571429
 11
64.6258207094
 21
134.9603571429
  0
LINE
  5
21C
100
AcDbEntity
  8
0
100
AcDbLine
 62
7
  6
BYLAYER
 10
33.329723261
 20
12.2603571429
 11
33.329723261
 21
10.7603571429
  0
LINE
  5
21D
100
AcDbEntity
  8
0
100
AcDbLine
 62
7
  6
BYLAYER
 10
45.7658207094
 20
126.7603571429
 11
45.7658207094
 21
125.2603571429
  0
LINE
  5
21E
100
AcDbEntity
  8
0
100
AcDbLine
 62
7
  6
BYLAYER
 10
46.4720241385
 20
12.2603571429
 11
46.4720241385
 21
10.7603571429
  0
LINE
  5
21F
100
AcDbEntity
  8
0
100
AcDbLine
 62
7
  6
BYLAYER
 10
47.5711452375
 20
124.0037857714
 11
47.5711452375
 21
125.2603571429
  0
LINE
  5
220
100
AcDbEntity
  8
0
100
AcDbLine
 62
7
  6
BYLAYER
 10
49.4311452375
 20
126.7603571429
 11
49.4311452375
 21
134.9603571429
  0
LINE
  5
221
100
AcDbEntity
  8
0
100
AcDbLine
 62
7
  6
BYLAYER
 10
50.0911452375
 20
122.9076417408
 11
50.0911452375
 21
123.0899058564
  0
LINE
  5
222
100
AcDbEntity
  8
0
100
AcDbLine
 62
7
  6
BYLAYER
 10
50.6511452375
 20
123.0899058564
 11
50.6511452375
 21
122.9076418726
  0
LINE
  5
223
100
AcDbEntity
  8
0
100
AcDbLine
 62
7
  6
BYLAYER
 10
51.3111452375
 20
126.7603571429
 11
51.3111452375
 21
134.9603571429
  0
LINE
  5
224
100
AcDbEntity
  8
0
100
AcDbLine
 62
7
  6
BYLAYER
 10
51.5830856251
 20
123.7603571429
 11
51.5830856251
 21
15.2603571429
  0
LINE
  5
225
100
AcDbEntity
  8
0
100
AcDbLine
 62
7
  6
BYLAYER
 10
52.9170375399
 20
126.7603571429
 11
52.9170375399
 21
126.4227053479
  0
LINE
  5
226
100
AcDbEntity
  8
0
100
AcDbLine
 62
7
  6
BYLAYER
 10
54.9285822524
 20
126.7603571429
 11
54.9285822524
 21
127.5103571429
  0
LINE
  5
227
100
AcDbEntity
  8
0
100
AcDbLine
 62
7
  6
BYLAYER
 10
57.6785822524
 20
126.7603571429
 11
57.6785822524
 21
127.5103571429
  0
LINE
  5
228
100
AcDbEntity
  8
0
100
AcDbLine
 62
7
  6
BYLAYER
 10
61.8676873801
 20
15.2603571429
 11
61.8676873801
 21
123.7603571429
  0
LINE
  5
229
100
AcDbEntity
  8
0
100
AcDbLine
 62
7
  6
BYLAYER
 10
63.0167540447
 20
15.2603571429
 11
63.0167540447
 21
123.7603571429
  0
LINE
  5
22A
100
AcDbEntity
  8
0
100
AcDbLine
 62
7
  6
BYLAYER
 10
63.3658207094
 20
126.7603571429
 11
63.3658207094
 21
127.9603571429
  0
LINE
  5
22B
100
AcDbEntity
  8
0
100
AcDbLine
 62
7
  6
BYLAYER
 10
64.1658207094
 20
126.7603571429
 11
64.1658207094
 21
125.2603571429
  0
LINE
  5
22C
100
AcDbEntity
  8
0
100
AcDbLine
 62
7
  6
BYLAYER
 10
64.6258207094
 20
127.9603571429
 11
64.6258207094
 21
134.9603571429
  0
LINE
  5
22D
100
AcDbEntity
  8
0
100
AcDbLine
 62
7
  6
BYLAYER
 10
65.2858207094
 20
122.9076417408
 11
65.2858207094
 21
123.0899058564
  0
LINE
  5
22E
100
AcDbEntity
  8
0
100
AcDbLine
 62
7
  6
BYLAYER
 10
65.8458207094
 20
123.0899058564
 11
65.8458207094
 21
122.9076418726
  0
LINE
  5
22F
100
AcDbEntity
  8
0
100
AcDbLine
 62
7
  6
BYLAYER
 10
66.5058207094
 20
127.9603571429
 11
66.5058207094
 21
134.9603571429
  0
LINE
  5
230
100
AcDbEntity
  8
0
100
AcDbLine
 62
7
  6
BYLAYER
 10
67.7658207094
 20
126.7603571429
 11
67.7658207094
 21
127.9603571429
  0
LINE
  5
231
100
AcDbEntity
  8
0
100
AcDbLine
 62
7
  6
BYLAYER
 10
68.3658207094
 20
124.0037857714
 11
68.3658207094
 21
125.2603571429
  0
LINE
  5
232
100
AcDbEntity
  8
0
100
AcDbLine
 62
7
  6
BYLAYER
 10
69.7658207094
 20
126.7603571429
 11
69.7658207094
 21
125.2603571429
  0
LINE
  5
233
100
AcDbEntity
  8
0
100
AcDbLine
 62
7
  6
BYLAYER
 10
50.9711452375
 20
135.2603571429
 11
51.3111452375
 21
134.9603571429
  0
LINE
  5
234
100
AcDbEntity
  8
0
100
AcDbLine
 62
7
  6
BYLAYER
 10
66.9013719427
 20
123.0899058564
 11
66.8716909544
 21
123.0899058564
  0
LINE
  5
235
100
AcDbEntity
  8
0
100
AcDbLine
 62
7
  6
BYLAYER
 10
65.8458207094
 20
123.0899058564
 11
65.2858207094
 21
123.0899058564
  0
LINE
  5
236
100
AcDbEntity
  8
0
100
AcDbLine
 62
7
  6
BYLAYER
 10
64.2599504645
 20
123.0899058564
 11
64.2302694761
 21
123.0899058564
  0
LINE
  5
237
100
AcDbEntity
  8
0
100
AcDbLine
 62
7
  6
BYLAYER
 10
50.6511452375
 20
123.0899058564
 11
50.0911452375
 21
123.0899058564
  0
LINE
  5
238
100
AcDbEntity
  8
0
100
AcDbLine
 62
7
  6
BYLAYER
 10
49.0652749925
 20
123.0899058564
 11
49.0355940042
 21
123.0899058564
  0
LINE
  5
239
100
AcDbEntity
  8
0
100
AcDbLine
 62
7
  6
BYLAYER
 10
61.8676873801
 20
123.7603571429
 11
51.5830856251
 21
123.7603571429
  0
LINE
  5
23A
100
AcDbEntity
  8
0
100
AcDbLine
 62
7
  6
BYLAYER
 10
47.5711452375
 20
124.0037857714
 11
51.6331140965
 21
124.0037857714
  0
LINE
  5
23B
100
AcDbEntity
  8
0
100
AcDbLine
 62
7
  6
BYLAYER
 10
63.0773954612
 20
124.0037857714
 11
68.3658207094
 21
124.0037857714
  0
LINE
  5
23C
100
AcDbEntity
  8
0
100
AcDbLine
 62
7
  6
BYLAYER
 10
45.7658207094
 20
125.2603571429
 11
51.8913595842
 21
125.2603571429
  0
LINE
  5
23D
100
AcDbEntity
  8
0
100
AcDbLine
 62
7
  6
BYLAYER
 10
64.1658207094
 20
125.2603571429
 11
69.7658207094
 21
125.2603571429
  0
LINE
  5
23E
100
AcDbEntity
  8
0
100
AcDbLine
 62
7
  6
BYLAYER
 10
45.7658207094
 20
126.7603571429
 11
69.7658207094
 21
126.7603571429
  0
LINE
  5
23F
100
AcDbEntity
  8
0
100
AcDbLine
 62
7
  6
BYLAYER
 10
57.6786030381
 20
127.5103571429
 11
54.9285614668
 21
127.5103571429
  0
LINE
  5
240
100
AcDbEntity
  8
0
100
AcDbLine
 62
7
  6
BYLAYER
 10
67.7658371883
 20
127.9603571429
 11
63.3658042306
 21
127.9603571429
  0
LINE
  5
241
100
AcDbEntity
  8
0
100
AcDbLine
 62
7
  6
BYLAYER
 10
66.1658207094
 20
135.2603571429
 11
66.5058207094
 21
134.9603571429
  0
LINE
  5
242
100
AcDbEntity
  8
0
100
AcDbLine
 62
7
  6
BYLAYER
 10
66.5058207094
 20
134.9603571429
 11
64.6258207094
 21
134.9603571429
  0
LINE
  5
243
100
AcDbEntity
  8
0
100
AcDbLine
 62
7
  6
BYLAYER
 10
51.3111452375
 20
134.9603571429
 11
49.4311452375
 21
134.9603571429
  0
LINE
  5
244
100
AcDbEntity
  8
0
100
AcDbLine
 62
7
  6
BYLAYER
 10
66.1658188885
 20
135.2603571429
 11
64.9658225304
 21
135.2603571429
  0
LINE
  5
245
100
AcDbEntity
  8
0
100
AcDbLine
 62
7
  6
BYLAYER
 10
50.9711434165
 20
135.2603571429
 11
49.7711470584
 21
135.2603571429
  0
ARC
  5
246
100
AcDbEntity
  8
0
100
AcDbCircle
 62
7
  6
BYLAYER
 10
50.002709809
 20
126.8854599223
 40
4.0362071727
100
AcDbArc
 50
282.1605682123
 51
286.6146802731
  0
ARC
  5
247
100
AcDbEntity
  8
0
100
AcDbCircle
 62
7
  6
BYLAYER
 10
65.197385281
 20
126.8854599223
 40
4.0362071727
100
AcDbArc
 50
282.1605682123
 51
286.6146802731
  0
ARC
  5
248
100
AcDbEntity
  8
0
100
AcDbCircle
 62
7
  6
BYLAYER
 10
50.3711452375
 20
126.8603571429
 40
4.0
100
AcDbArc
 50
225.5729959992
 51
250.4950796657
  0
ARC
  5
249
100
AcDbEntity
  8
0
100
AcDbCircle
 62
7
  6
BYLAYER
 10
65.5658207094
 20
126.8603571429
 40
4.0
100
AcDbArc
 50
230.5737841058
 51
250.4950796657
  0
ARC
  5
24A
100
AcDbEntity
  8
0
100
AcDbCircle
 62
7
  6
BYLAYER
 10
65.5658207094
 20
126.8603571429
 40
4.0
100
AcDbArc
 50
289.5049203343
 51
314.4270040008
  0
ARC
  5
24B
100
AcDbEntity
  8
0
100
AcDbCircle
 62
7
  6
BYLAYER
 10
50.3711452375
 20
126.8603571429
 40
3.9901879655
100
AcDbArc
 50
277.8584412779
 51
287.2333659712
  0
ARC
  5
24C
100
AcDbEntity
  8
0
100
AcDbCircle
 62
7
  6
BYLAYER
 10
50.3711452375
 20
126.8603571429
 40
3.9901879655
100
AcDbArc
 50
250.896819168
 51
262.1415164396
  0
ARC
  5
24D
100
AcDbEntity
  8
0
100
AcDbCircle
 62
7
  6
BYLAYER
 10
65.5658207094
 20
126.8603571429
 40
3.9901879655
100
AcDbArc
 50
277.8584412779
 51
289.103180832
  0
ARC
  5
24E
100
AcDbEntity
  8
0
100
AcDbCircle
 62
7
  6
BYLAYER
 10
65.5658207094
 20
126.8603571429
 40
3.9901879655
100
AcDbArc
 50
250.896819168
 51
262.1415164396
  0
ARC
  5
24F
100
AcDbEntity
  8
0
100
AcDbCircle
 62
7
  6
BYLAYER
 10
50.7164878262
 20
126.7953952788
 40
3.9433014265
100
AcDbArc
 50
253.3326657389
 51
257.8947542376
  0
ARC
  5
250
100
AcDbEntity
  8
0
100
AcDbCircle
 62
7
  6
BYLAYER
 10
65.9111632982
 20
126.7953952788
 40
3.9433014265
100
AcDbArc
 50
253.3326657389
 51
257.8947542376
  0
ARC
  5
251
100
AcDbEntity
  8
0
100
AcDbCircle
 62
7
  6
BYLAYER
 10
50.1089357887
 20
126.4120569532
 40
3.5510525116
100
AcDbArc
 50
278.8708728076
 51
282.0941075624
  0
ARC
  5
252
100
AcDbEntity
  8
0
100
AcDbCircle
 62
7
  6
BYLAYER
 10
65.3036112606
 20
126.4120569531
 40
3.5510525115
100
AcDbArc
 50
278.8708728075
 51
282.0941075625
  0
ARC
  5
253
100
AcDbEntity
  8
0
100
AcDbCircle
 62
7
  6
BYLAYER
 10
50.6222361631
 20
126.3520415902
 40
3.4900408928
100
AcDbArc
 50
257.8813093338
 51
261.1575438454
  0
ARC
  5
254
100
AcDbEntity
  8
0
100
AcDbCircle
 62
7
  6
BYLAYER
 10
65.816911635
 20
126.3520415901
 40
3.4900408928
100
AcDbArc
 50
257.8813093338
 51
261.1575438454
  0
ARC
  5
255
100
AcDbEntity
  8
0
100
AcDbCircle
 62
7
  6
BYLAYER
 10
49.9761382213
 20
123.9973577448
 40
1.100067588
100
AcDbArc
 50
262.1336923174
 51
263.9187075263
  0
ARC
  5
256
100
AcDbEntity
  8
0
100
AcDbCircle
 62
7
  6
BYLAYER
 10
65.1708136933
 20
123.9973577448
 40
1.100067588
100
AcDbArc
 50
262.1336923174
 51
263.9187075263
  0
ARC
  5
257
100
AcDbEntity
  8
0
100
AcDbCircle
 62
7
  6
BYLAYER
 10
50.112383405
 20
123.9510550494
 40
1.0776420958
100
AcDbArc
 50
254.6031286527
 51
256.4335509466
  0
ARC
  5
258
100
AcDbEntity
  8
0
100
AcDbCircle
 62
7
  6
BYLAYER
 10
65.307058877
 20
123.9510550495
 40
1.0776420959
100
AcDbArc
 50
254.6031286528
 51
256.4335509466
  0
ARC
  5
259
100
AcDbEntity
  8
0
100
AcDbCircle
 62
7
  6
BYLAYER
 10
50.6300295295
 20
123.950553992
 40
1.0771262945
100
AcDbArc
 50
283.5663599201
 51
285.4125982926
  0
ARC
  5
25A
100
AcDbEntity
  8
0
100
AcDbCircle
 62
7
  6
BYLAYER
 10
65.8247050014
 20
123.950553992
 40
1.0771262945
100
AcDbArc
 50
283.5663599201
 51
285.4125982925
  0
ARC
  5
25B
100
AcDbEntity
  8
0
100
AcDbCircle
 62
7
  6
BYLAYER
 10
50.7695146828
 20
123.9698707345
 40
1.0723790467
100
AcDbArc
 50
276.0582261636
 51
277.8892651256
  0
ARC
  5
25C
100
AcDbEntity
  8
0
100
AcDbCircle
 62
7
  6
BYLAYER
 10
65.9641901547
 20
123.9698707345
 40
1.0723790467
100
AcDbArc
 50
276.0582261636
 51
277.8892651256
  0
SPLINE
  5
25D
100
AcDbEntity
  8
0
100
AcDbSpline
 62
7
  6
BYLAYER
 70
0
 71
3
 72
9
 73
5
 74
0
 42
0.0000001
 43
0.0000001
 44
0.0000000001
 40
0.0
 40
0.0
 40
0.0
 40
0.0
 40
0.2565432581
 40
1.0
 40
1.0
 40
1.0
 40
1.0
 10
50.8826925578
 20
122.9034807145
 30
0.0
 10
50.8796568353
 20
122.906446025
 30
0.0
 10
50.8680086848
 20
122.9181921265
 30
0.0
 10
50.8570867639
 20
122.9306625178
 30
0.0
 10
50.8494653704
 20
122.9403142649
 30
0.0
  0
SPLINE
  5
25E
100
AcDbEntity
  8
0
100
AcDbSpline
 62
7
  6
BYLAYER
 70
0
 71
3
 72
10
 73
6
 74
0
 42
0.0000001
 43
0.0000001
 44
0.0000000001
 40
0.0
 40
0.0
 40
0.0
 40
0.0
 40
0.3684128504
 40
0.6447575713
 40
1.0
 40
1.0
 40
1.0
 40
1.0
 10
50.6511452375
 20
122.9076417733
 30
0.0
 10
50.6511452375
 20
122.9067693577
 30
0.0
 10
50.6522739327
 20
122.9053751078
 30
0.0
 10
50.6543254998
 20
122.9042838769
 30
0.0
 10
50.6557369219
 20
122.9037410271
 30
0.0
 10
50.6565368526
 20
122.9034806916
 30
0.0
  0
SPLINE
  5
25F
100
AcDbEntity
  8
0
100
AcDbSpline
 62
7
  6
BYLAYER
 70
0
 71
3
 72
9
 73
5
 74
0
 42
0.0000001
 43
0.0000001
 44
0.0000000001
 40
0.0
 40
0.0
 40
0.0
 40
0.0
 40
0.2427975556
 40
1.0
 40
1.0
 40
1.0
 40
1.0
 10
49.8929501801
 20
122.9404727418
 30
0.0
 10
49.8904528427
 20
122.9373064654
 30
0.0
 10
49.8799467121
 20
122.9244407546
 30
0.0
 10
49.8685943072
 20
122.9122686261
 30
0.0
 10
49.8595977549
 20
122.9034807552
 30
0.0
  0
SPLINE
  5
260
100
AcDbEntity
  8
0
100
AcDbSpline
 62
7
  6
BYLAYER
 70
0
 71
3
 72
10
 73
6
 74
0
 42
0.0000001
 43
0.0000001
 44
0.0000000001
 40
0.0
 40
0.0
 40
0.0
 40
0.0
 40
0.3552519768
 40
0.6316059872
 40
1.0
 40
1.0
 40
1.0
 40
1.0
 10
50.0857535587
 20
122.9034807572
 30
0.0
 10
50.0865535033
 20
122.9037410954
 30
0.0
 10
50.0879649916
 20
122.9042838837
 30
0.0
 10
50.0900164713
 20
122.9053751658
 30
0.0
 10
50.0911452677
 20
122.9067693109
 30
0.0
 10
50.0911452375
 20
122.9076416729
 30
0.0
  0
SPLINE
  5
261
100
AcDbEntity
  8
0
100
AcDbSpline
 62
7
  6
BYLAYER
 70
0
 71
3
 72
9
 73
5
 74
0
 42
0.0000001
 43
0.0000001
 44
0.0000000001
 40
0.0
 40
0.0
 40
0.0
 40
0.0
 40
0.5157165595
 40
1.0
 40
1.0
 40
1.0
 40
1.0
 10
50.9162953361
 20
122.9121644012
 30
0.0
 10
50.9599524119
 20
122.9242099443
 30
0.0
 10
51.0432286916
 20
122.9531014729
 30
0.0
 10
51.1211677174
 20
122.9945485956
 30
0.0
 10
51.1567982614
 20
123.017767046
 30
0.0
  0
SPLINE
  5
262
100
AcDbEntity
  8
0
100
AcDbSpline
 62
7
  6
BYLAYER
 70
0
 71
3
 72
9
 73
5
 74
0
 42
0.0000001
 43
0.0000001
 44
0.0000000001
 40
0.0
 40
0.0
 40
0.0
 40
0.0
 40
0.5157428716
 40
1.0
 40
1.0
 40
1.0
 40
1.0
 10
49.8262656866
 20
122.9120896323
 30
0.0
 10
49.7825565175
 20
122.9241363732
 30
0.0
 10
49.6991821538
 20
122.953034287
 30
0.0
 10
49.6211587599
 20
122.9945251348
 30
0.0
 10
49.5854922136
 20
123.017767046
 30
0.0
  0
SPLINE
  5
263
100
AcDbEntity
  8
0
100
AcDbSpline
 62
7
  6
BYLAYER
 70
0
 71
3
 72
9
 73
5
 74
0
 42
0.0000001
 43
0.0000001
 44
0.0000000001
 40
0.0
 40
0.0
 40
0.0
 40
0.0
 40
0.2565432581
 40
1.0
 40
1.0
 40
1.0
 40
1.0
 10
66.0773680297
 20
122.9034807145
 30
0.0
 10
66.0743323072
 20
122.906446025
 30
0.0
 10
66.0626841568
 20
122.9181921265
 30
0.0
 10
66.0517622358
 20
122.9306625178
 30
0.0
 10
66.0441408423
 20
122.9403142649
 30
0.0
  0
SPLINE
  5
264
100
AcDbEntity
  8
0
100
AcDbSpline
 62
7
  6
BYLAYER
 70
0
 71
3
 72
10
 73
6
 74
0
 42
0.0000001
 43
0.0000001
 44
0.0000000001
 40
0.0
 40
0.0
 40
0.0
 40
0.0
 40
0.3684128504
 40
0.6447575713
 40
1.0
 40
1.0
 40
1.0
 40
1.0
 10
65.8458207094
 20
122.9076417733
 30
0.0
 10
65.8458207094
 20
122.9067693577
 30
0.0
 10
65.8469494046
 20
122.9053751078
 30
0.0
 10
65.8490009717
 20
122.9042838769
 30
0.0
 10
65.8504123938
 20
122.9037410271
 30
0.0
 10
65.8512123245
 20
122.9034806916
 30
0.0
  0
SPLINE
  5
265
100
AcDbEntity
  8
0
100
AcDbSpline
 62
7
  6
BYLAYER
 70
0
 71
3
 72
9
 73
5
 74
0
 42
0.0000001
 43
0.0000001
 44
0.0000000001
 40
0.0
 40
0.0
 40
0.0
 40
0.0
 40
0.2427975556
 40
1.0
 40
1.0
 40
1.0
 40
1.0
 10
65.087625652
 20
122.9404727418
 30
0.0
 10
65.0851283146
 20
122.9373064654
 30
0.0
 10
65.074622184
 20
122.9244407546
 30
0.0
 10
65.0632697791
 20
122.9122686261
 30
0.0
 10
65.0542732268
 20
122.9034807552
 30
0.0
  0
SPLINE
  5
266
100
AcDbEntity
  8
0
100
AcDbSpline
 62
7
  6
BYLAYER
 70
0
 71
3
 72
10
 73
6
 74
0
 42
0.0000001
 43
0.0000001
 44
0.0000000001
 40
0.0
 40
0.0
 40
0.0
 40
0.0
 40
0.3552519768
 40
0.6316059872
 40
1.0
 40
1.0
 40
1.0
 40
1.0
 10
65.2804290306
 20
122.9034807572
 30
0.0
 10
65.2812289752
 20
122.9037410954
 30
0.0
 10
65.2826404635
 20
122.9042838837
 30
0.0
 10
65.2846919432
 20
122.9053751658
 30
0.0
 10
65.2858207396
 20
122.9067693109
 30
0.0
 10
65.2858207094
 20
122.9076416729
 30
0.0
  0
SPLINE
  5
267
100
AcDbEntity
  8
0
100
AcDbSpline
 62
7
  6
BYLAYER
 70
0
 71
3
 72
9
 73
5
 74
0
 42
0.0000001
 43
0.0000001
 44
0.0000000001
 40
0.0
 40
0.0
 40
0.0
 40
0.0
 40
0.5157165595
 40
1.0
 40
1.0
 40
1.0
 40
1.0
 10
66.110970808
 20
122.9121644012
 30
0.0
 10
66.1546278838
 20
122.9242099443
 30
0.0
 10
66.2379041636
 20
122.9531014729
 30
0.0
 10
66.3158431893
 20
122.9945485956
 30
0.0
 10
66.3514737333
 20
123.017767046
 30
0.0
  0
SPLINE
  5
268
100
AcDbEntity
  8
0
100
AcDbSpline
 62
7
  6
BYLAYER
 70
0
 71
3
 72
9
 73
5
 74
0
 42
0.0000001
 43
0.0000001
 44
0.0000000001
 40
0.0
 40
0.0
 40
0.0
 40
0.0
 40
0.5157428716
 40
1.0
 40
1.0
 40
1.0
 40
1.0
 10
65.0209411585
 20
122.9120896323
 30
0.0
 10
64.9772319894
 20
122.9241363732
 30
0.0
 10
64.8938576257
 20
122.953034287
 30
0.0
 10
64.8158342319
 20
122.9945251348
 30
0.0
 10
64.7801676855
 20
123.017767046
 30
0.0
  0
SPLINE
  5
269
100
AcDbEntity
  8
0
100
AcDbSpline
 62
7
  6
BYLAYER
 70
0
 71
3
 72
14
 73
10
 74
0
 42
0.0000001
 43
0.0000001
 44
0.0000000001
 40
0.0
 40
0.0
 40
0.0
 40
0.0
 40
0.2785477875
 40
0.41295981
 40
0.5417548893
 40
0.6641643435
 40
0.780357565
 40
0.891588069
 40
1.0
 40
1.0
 40
1.0
 40
1.0
 10
63.0167540447
 20
15.2603571429
 30
0.0
 10
63.0167540447
 20
14.6796849563
 30
0.0
 10
62.8886584584
 20
13.810199941
 30
0.0
 10
62.4621934884
 20
12.760359916
 30
0.0
 10
62.0350038738
 20
12.0740157312
 30
0.0
 10
61.5119647132
 20
11.5077260986
 30
0.0
 10
60.9113134605
 20
11.0834896247
 30
0.0
 10
60.2554635245
 20
10.82025504
 30
0.0
 10
59.7955540257
 20
10.7603571429
 30
0.0
 10
59.5695540507
 20
10.7603571429
 30
0.0
  0
SPLINE
  5
26A
100
AcDbEntity
  8
0
100
AcDbSpline
 62
7
  6
BYLAYER
 70
0
 71
3
 72
13
 73
9
 74
0
 42
0.0000001
 43
0.0000001
 44
0.0000000001
 40
0.0
 40
0.0
 40
0.0
 40
0.0
 40
0.108493899
 40
0.2198661599
 40
0.3361594248
 40
0.4586917007
 40
0.721166439
 40
1.0
 40
1.0
 40
1.0
 40
1.0
 10
53.8812189544
 20
126.7603571429
 30
0.0
 10
53.7305864391
 20
126.7603571429
 30
0.0
 10
53.4239816167
 20
126.7203553082
 30
0.0
 10
52.9867314372
 20
126.5449660737
 30
0.0
 10
52.5862553738
 20
126.2620697594
 30
0.0
 10
52.1111152143
 20
125.7476012
 30
0.0
 10
51.6937951213
 20
124.9037107234
 30
0.0
 10
51.5830856251
 20
124.1474885949
 30
0.0
 10
51.5830856251
 20
123.7603571429
 30
0.0
  0
SPLINE
  5
26B
100
AcDbEntity
  8
0
100
AcDbSpline
 62
7
  6
BYLAYER
 70
0
 71
3
 72
13
 73
9
 74
0
 42
0.0000001
 43
0.0000001
 44
0.0000000001
 40
0.0
 40
0.0
 40
0.0
 40
0.0
 40
0.2788334499
 40
0.5413081714
 40
0.6638404609
 40
0.780133749
 40
0.8915060683
 40
1.0
 40
1.0
 40
1.0
 40
1.0
 10
51.5830856251
 20
15.2603571429
 30
0.0
 10
51.5830856251
 20
14.8732258453
 30
0.0
 10
51.4723762052
 20
14.1170039004
 30
0.0
 10
51.0550563076
 20
13.2731135155
 30
0.0
 10
50.5799162413
 20
12.7586448378
 30
0.0
 10
50.1794401241
 20
12.4757483564
 30
0.0
 10
49.7421897953
 20
12.30035907
 30
0.0
 10
49.4355848563
 20
12.2603571429
 30
0.0
 10
49.2849522957
 20
12.2603571429
 30
0.0
  0
SPLINE
  5
26C
100
AcDbEntity
  8
0
100
AcDbSpline
 62
7
  6
BYLAYER
 70
0
 71
3
 72
14
 73
10
 74
0
 42
0.0000001
 43
0.0000001
 44
0.0000000001
 40
0.0
 40
0.0
 40
0.0
 40
0.0
 40
0.1083352437
 40
0.2196572176
 40
0.3358405506
 40
0.4582483945
 40
0.5870225753
 40
0.7214226127
 40
1.0
 40
1.0
 40
1.0
 40
1.0
 10
64.1658207094
 20
125.2603571429
 30
0.0
 10
64.090541613
 20
125.2603571429
 30
0.0
 10
63.9372555082
 20
125.2402639344
 30
0.0
 10
63.7185782277
 20
125.152702327
 30
0.0
 10
63.5183060453
 20
125.0112345041
 30
0.0
 10
63.3440933835
 20
124.8223994652
 30
0.0
 10
63.2015805115
 20
124.5937288961
 30
0.0
 10
63.0594747739
 20
124.2437577517
 30
0.0
 10
63.0167540447
 20
123.9539326893
 30
0.0
 10
63.0167540447
 20
123.7603571429
 30
0.0
  0
SPLINE
  5
26D
100
AcDbEntity
  8
0
100
AcDbSpline
 62
7
  6
BYLAYER
 70
0
 71
3
 72
13
 73
9
 74
0
 42
0.0000001
 43
0.0000001
 44
0.0000000001
 40
0.0
 40
0.0
 40
0.0
 40
0.0
 40
0.2788334499
 40
0.5413081714
 40
0.6638404609
 40
0.780133749
 40
0.8915060683
 40
1.0
 40
1.0
 40
1.0
 40
1.0
 10
61.8676873801
 20
123.7603571429
 30
0.0
 10
61.8676873801
 20
124.1474884404
 30
0.0
 10
61.9783967999
 20
124.9037103853
 30
0.0
 10
62.3957166975
 20
125.7476007702
 30
0.0
 10
62.8708567639
 20
126.2620694479
 30
0.0
 10
63.2713328811
 20
126.5449659293
 30
0.0
 10
63.7085832098
 20
126.7203552157
 30
0.0
 10
64.0151881488
 20
126.7603571429
 30
0.0
 10
64.1658207094
 20
126.7603571429
 30
0.0
  0
SPLINE
  5
26E
100
AcDbEntity
  8
0
100
AcDbSpline
 62
7
  6
BYLAYER
 70
0
 71
3
 72
13
 73
9
 74
0
 42
0.0000001
 43
0.0000001
 44
0.0000000001
 40
0.0
 40
0.0
 40
0.0
 40
0.0
 40
0.108493899
 40
0.2198661599
 40
0.3361594248
 40
0.4586917007
 40
0.721166439
 40
1.0
 40
1.0
 40
1.0
 40
1.0
 10
59.5695540507
 20
12.2603571429
 30
0.0
 10
59.7201865661
 20
12.2603571429
 30
0.0
 10
60.0267913884
 20
12.3003589776
 30
0.0
 10
60.4640415679
 20
12.475748212
 30
0.0
 10
60.8645176313
 20
12.7586445263
 30
0.0
 10
61.3396577908
 20
13.2731130857
 30
0.0
 10
61.7569778838
 20
14.1170035623
 30
0.0
 10
61.8676873801
 20
14.8732256908
 30
0.0
 10
61.8676873801
 20
15.2603571429
 30
0.0
  0
ENDSEC
  0
SECTION
  2
OBJECTS
  0
DICTIONARY
  5
C
100
AcDbDictionary
280
0
281
1
  3
ACAD_GROUP
350
D
  3
ACAD_MLINESTYLE
350
17
  3
ACAD_LAYOUT
350
1A
  3
ACAD_PLOTSETTINGS
350
19
  3
ACAD_PLOTSTYLENAME
350
E
  0
DICTIONARY
  5
D
102
{ACAD_REACTORS
330
C
102
}
100
AcDbDictionary
280
0
281
1
  0
ACDBDICTIONARYWDFLT
  5
E
102
{ACAD_REACTORS
330
C
102
}
100
AcDbDictionary
281
1
  3
Normal
350
F
100
AcDbDictionaryWithDefault
340
F
  0
DICTIONARY
  5
17
102
{ACAD_REACTORS
330
C
102
}
100
AcDbDictionary
280
0
281
1
  3
Standard
350
18
  0
DICTIONARY
  5
19
102
{ACAD_REACTORS
330
C
102
}
100
AcDbDictionary
281
1
  0
DICTIONARY
  5
1A
102
{ACAD_REACTORS
330
C
102
}
100
AcDbDictionary
281
1
  3
Model
350
26F
  3
Layout1
350
270
  0
ACDBPLACEHOLDER
  5
F
102
{ACAD_REACTORS
330
E
102
}
  0
MLINESTYLE
  5
18
102
{ACAD_REACTORS
330
17
102
}
100
AcDbMlineStyle
  2
STANDARD
 70
0
  3

 62
256
 51
90.0
 52
90.0
 71
2
 49
0.5
 62
256
  6
BYLAYER
 49
-0.5
 62
256
  6
BYLAYER
  0
LAYOUT
  5
26F
102
{ACAD_REACTORS
330
1A
102
}
100
AcDbPlotSettings
  1

  2
none_device
  4

  6

 40
0.0
 41
0.0
 42
0.0
 43
0.0
 44
210.0
 45
297.0
 46
0.0
 47
0.0
 48
0.0
 49
0.0
140
0.0
141
0.0
142
1.0
143
1.0
 70
1024
 72
1
 73
0
 74
0
  7

 75
0
147
1.0
148
0.0
149
0.0
100
AcDbLayout
  1
Model
 70
0
 71
0
 10
0.0
 20
0.0
 11
210.0
 21
297.0
 12
0.0
 22
0.0
 32
0.0
 14
0.0
 24
0.0
 34
0.0
 15
0.0
 25
0.0
 35
0.0
146
0.0
 13
0.0
 23
0.0
 33
0.0
 16
1.0
 26
0.0
 36
0.0
 17
0.0
 27
1.0
 37
0.0
 76
0
330
210
345
0
346
0
  0
LAYOUT
  5
270
102
{ACAD_REACTORS
330
1A
102
}
100
AcDbPlotSettings
  1

  2
none_device
  4

  6

 40
0.0
 41
0.0
 42
0.0
 43
0.0
 44
210.0
 45
297.0
 46
0.0
 47
0.0
 48
0.0
 49
0.0
140
0.0
141
0.0
142
1.0
143
1.0
 70
0
 72
1
 73
0
 74
0
  7

 75
0
147
1.0
148
0.0
149
0.0
100
AcDbLayout
  1
Layout1
 70
0
 71
1
 10
0.0
 20
0.0
 11
210.0
 21
297.0
 12
0.0
 22
0.0
 32
0.0
 14
0.0
 24
0.0
 34
0.0
 15
0.0
 25
0.0
 35
0.0
146
0.0
 13
0.0
 23
0.0
 33
0.0
 16
1.0
 26
0.0
 36
0.0
 17
0.0
 27
1.0
 37
0.0
 76
0
330
211
345
0
346
0
  0
ENDSEC
  0
EOF
