999
DXF file: C:\Users\sesa63760\Dev\_Creo\CAD\MCADPP0003160_3D-CAD\drw0001_1.dxf
999
Pro/ENGINEER 2019471 by Parametric Technology Corporation
  0
SECTION
  2
HEADER
  9
$ACADVER
  1
AC1024
  9
$DWGCODEPAGE
  3
ANSI_1252
  9
$EXTMAX
 10
482.7167710045
 20
682.6994332778
 30
0.0
  9
$EXTMIN
 10
0.0
 20
0.0
 30
0.0
  9
$LIMMIN
 10
0.0
 20
0.0
  9
$LIMMAX
 10
482.7167710045
 20
682.6994332778
  9
$VIEWCTR
 10
241.3583855023
 20
341.3497166389
  9
$VIEWSIZE
 40
682.6994332778
  9
$CLAYER
  8
0
  9
$LTSCALE
 40
44.501888984
  9
$CELTYPE
  6
BYLAYER
  9
$DIMSCALE
 40
1.0
  9
$DIMASZ
 40
5.7466282262
  9
$DIMEXO
 40
1.0
  9
$DIMDLI
 40
30.7467596617
  9
$DIMEXE
 40
1.0
  9
$DIMCEN
 40
7.2821272883
  9
$DIMLFAC
 40
1.0
  9
$DIMBLK
  1
_FILLED
  9
$DIMALT
 70
0
  9
$DIMALTF
 40
0.0393700787
  9
$DIMTXT
 40
8.0452795167
  9
$DIMTOL
 70
1
  9
$DIMLIM
 70
0
  9
$DIMTFAC
 40
1.0
  9
$DIMTP
 40
0.01
  9
$DIMTM
 40
0.01
  9
$DIMGAP
 40
0.625
  9
$DIMDSEP
 70
46
  9
$AUNITS
 70
0
  9
$PDMODE
 70
3
  9
$PDSIZE
 40
0.3125
  9
$HANDSEED
  5
3C4
  9
$TILEMODE
 70
1
  9
$MEASUREMENT
 70
1
  9
$INSUNITS
 70
4
  0
ENDSEC
  0
SECTION
  2
CLASSES
  0
CLASS
  1
ACDBDICTIONARYWDFLT
  2
AcDbDictionaryWithDefault
  3
AutoCAD 2000
 90
0
 91
1
280
0
281
0
  0
CLASS
  1
ACDBPLACEHOLDER
  2
AcDbPlaceHolder
  3
AutoCAD 2000
 90
0
 91
1
280
0
281
0
  0
CLASS
  1
LAYOUT
  2
AcDbLayout
  3
AutoCAD 2000
 90
0
 91
0
280
0
281
0
  0
ENDSEC
  0
SECTION
  2
TABLES
  0
TABLE
  2
VPORT
  5
8
100
AcDbSymbolTable
 70
2
  0
VPORT
  5
1F4
100
AcDbSymbolTableRecord
100
AcDbViewportTableRecord
  2
*ACTIVE
 70
0
 10
0.0
 20
0.0
 11
1.0
 21
1.0
 12
241.3583855023
 22
341.3497166389
 13
0.0
 23
0.0
 14
1.0
 24
1.0
 15
0.0
 25
0.0
 16
0.0
 26
0.0
 36
1.0
 17
0.0
 27
0.0
 37
0.0
 40
682.6994332778
 41
0.7070707071
 42
50.0
 43
0.0
 44
0.0
 50
0.0
 51
0.0
 71
0
 72
100
 73
1
 74
1
 75
0
 76
0
 77
0
 78
0
  0
ENDTAB
  0
TABLE
  2
LTYPE
  5
5
100
AcDbSymbolTable
 70
6
  0
LTYPE
  5
14
100
AcDbSymbolTableRecord
100
AcDbLinetypeTableRecord
  2
BYBLOCK
 70
0
  3

 72
65
 73
0
 40
0.0
  0
LTYPE
  5
15
100
AcDbSymbolTableRecord
100
AcDbLinetypeTableRecord
  2
BYLAYER
 70
0
  3

 72
65
 73
0
 40
0.0
  0
LTYPE
  5
16
100
AcDbSymbolTableRecord
100
AcDbLinetypeTableRecord
  2
CONTINUOUS
 70
64
  3
Solid line
 72
65
 73
0
 40
0.0
  0
LTYPE
  5
1F5
100
AcDbSymbolTableRecord
100
AcDbLinetypeTableRecord
  2
CENTER
 70
64
  3
____ _ ____ _ ____ _ ____ _ ____ _ ____ _ ____
 72
65
 73
4
 40
0.6
 49
0.375
 74
0
 49
-0.075
 74
0
 49
0.075
 74
0
 49
-0.075
 74
0
  0
LTYPE
  5
1F6
100
AcDbSymbolTableRecord
100
AcDbLinetypeTableRecord
  2
HIDDEN
 70
64
  3
- - - - - - - - - - - - - - - - - - - -
 72
65
 73
2
 40
0.2
 49
0.1
 74
0
 49
-0.1
 74
0
  0
LTYPE
  5
1F7
100
AcDbSymbolTableRecord
100
AcDbLinetypeTableRecord
  2
PHANTOM
 70
64
  3
_____ _ _ _____ _ _ _____ _ _ _____
 72
65
 73
6
 40
0.8
 49
0.45
 74
0
 49
-0.05
 74
0
 49
0.1
 74
0
 49
-0.05
 74
0
 49
0.1
 74
0
 49
-0.05
 74
0
  0
LTYPE
  5
1F8
100
AcDbSymbolTableRecord
100
AcDbLinetypeTableRecord
  2
DOT
 70
64
  3
. . . . . . . . . . . . . . . . . . . .
 72
65
 73
2
 40
0.2
 49
0.1
 74
0
 49
-0.1
 74
0
  0
LTYPE
  5
1F9
100
AcDbSymbolTableRecord
100
AcDbLinetypeTableRecord
  2
DASHED
 70
64
  3
- - - - - - - - - - - - - - - - - - - -
 72
65
 73
2
 40
0.2
 49
0.1
 74
0
 49
-0.1
 74
0
  0
ENDTAB
  0
TABLE
  2
LAYER
  5
2
100
AcDbSymbolTable
 70
36
  0
LAYER
  5
10
100
AcDbSymbolTableRecord
100
AcDbLayerTableRecord
  2
0
 70
0
 62
7
  6
CONTINUOUS
370
-3
390
F
  0
LAYER
  5
1FA
100
AcDbSymbolTableRecord
100
AcDbLayerTableRecord
  2
DEFAULT_1
 70
0
 62
7
  6
CENTER
370
-3
390
F
  0
LAYER
  5
1FB
100
AcDbSymbolTableRecord
100
AcDbLayerTableRecord
  2
DEFAULT_2
 70
0
 62
8
  6
HIDDEN
370
-3
390
F
  0
LAYER
  5
1FC
100
AcDbSymbolTableRecord
100
AcDbLayerTableRecord
  2
DEFAULT_3
 70
0
 62
7
  6
PHANTOM
370
-3
390
F
  0
LAYER
  5
1FD
100
AcDbSymbolTableRecord
100
AcDbLayerTableRecord
  2
00_COMPONENTS
 70
0
 62
7
  6
CONTINUOUS
370
-3
390
F
  0
LAYER
  5
1FE
100
AcDbSymbolTableRecord
100
AcDbLayerTableRecord
  2
01_1_DEFAULT_DATUMS
 70
0
 62
7
  6
CONTINUOUS
370
-3
390
F
  0
LAYER
  5
1FF
100
AcDbSymbolTableRecord
100
AcDbLayerTableRecord
  2
01_PLANES
 70
0
 62
7
  6
CONTINUOUS
370
-3
390
F
  0
LAYER
  5
200
100
AcDbSymbolTableRecord
100
AcDbLayerTableRecord
  2
02_COORD_SYS
 70
0
 62
7
  6
CONTINUOUS
370
-3
390
F
  0
LAYER
  5
201
100
AcDbSymbolTableRecord
100
AcDbLayerTableRecord
  2
03_AXES
 70
0
 62
7
  6
CONTINUOUS
370
-3
390
F
  0
LAYER
  5
202
100
AcDbSymbolTableRecord
100
AcDbLayerTableRecord
  2
04_POINTS
 70
0
 62
7
  6
CONTINUOUS
370
-3
390
F
  0
LAYER
  5
203
100
AcDbSymbolTableRecord
100
AcDbLayerTableRecord
  2
05_CURVES
 70
0
 62
7
  6
CONTINUOUS
370
-3
390
F
  0
LAYER
  5
204
100
AcDbSymbolTableRecord
100
AcDbLayerTableRecord
  2
06_SURFS
 70
0
 62
7
  6
CONTINUOUS
370
-3
390
F
  0
LAYER
  5
205
100
AcDbSymbolTableRecord
100
AcDbLayerTableRecord
  2
07_COSMETICS
 70
0
 62
7
  6
CONTINUOUS
370
-3
390
F
  0
LAYER
  5
206
100
AcDbSymbolTableRecord
100
AcDbLayerTableRecord
  2
10_NOTES
 70
0
 62
7
  6
CONTINUOUS
370
-3
390
F
  0
LAYER
  5
207
100
AcDbSymbolTableRecord
100
AcDbLayerTableRecord
  2
11_NOTES_PUB
 70
0
 62
7
  6
CONTINUOUS
370
-3
390
F
  0
LAYER
  5
208
100
AcDbSymbolTableRecord
100
AcDbLayerTableRecord
  2
13_REF_GTOL
 70
0
 62
7
  6
CONTINUOUS
370
-3
390
F
  0
LAYER
  5
209
100
AcDbSymbolTableRecord
100
AcDbLayerTableRecord
  2
16_MISC
 70
0
 62
7
  6
CONTINUOUS
370
-3
390
F
  0
LAYER
  5
20A
100
AcDbSymbolTableRecord
100
AcDbLayerTableRecord
  2
17_NO_PRINT
 70
0
 62
7
  6
CONTINUOUS
370
-3
390
F
  0
LAYER
  5
20B
100
AcDbSymbolTableRecord
100
AcDbLayerTableRecord
  2
18_DATUM_CAMS_JOINTS
 70
0
 62
7
  6
CONTINUOUS
370
-3
390
F
  0
LAYER
  5
20C
100
AcDbSymbolTableRecord
100
AcDbLayerTableRecord
  2
19_DATUM_FUNCTIONAL
 70
0
 62
7
  6
CONTINUOUS
370
-3
390
F
  0
LAYER
  5
20D
100
AcDbSymbolTableRecord
100
AcDbLayerTableRecord
  2
20_DATUM_KINEMATIC_SCHEME
 70
0
 62
7
  6
CONTINUOUS
370
-3
390
F
  0
LAYER
  5
20E
100
AcDbSymbolTableRecord
100
AcDbLayerTableRecord
  2
SHELL176
 70
0
 62
7
  6
CONTINUOUS
370
-3
390
F
  0
ENDTAB
  0
TABLE
  2
STYLE
  5
3
100
AcDbSymbolTable
 70
1
  0
STYLE
  5
11
100
AcDbSymbolTableRecord
100
AcDbTextStyleTableRecord
  2
STANDARD
 70
0
 40
0.0
 41
0.8
 50
0.0
 71
0
 42
0.2
  3
txt
  4

  0
STYLE
  5
20F
100
AcDbSymbolTableRecord
100
AcDbTextStyleTableRecord
  2
TEXTSTYLE_1
 70
0
 40
0.0
 41
0.8
 50
0.0
 71
0
 42
0.2
  3
gdt
  4

  0
ENDTAB
  0
TABLE
  2
VIEW
  5
6
100
AcDbSymbolTable
 70
0
  0
ENDTAB
  0
TABLE
  2
UCS
  5
7
100
AcDbSymbolTable
 70
0
  0
ENDTAB
  0
TABLE
  2
APPID
  5
9
100
AcDbSymbolTable
 70
1
  0
APPID
  5
210
100
AcDbSymbolTableRecord
100
AcDbRegAppTableRecord
  2
ACAD
 70
0
  0
ENDTAB
  0
TABLE
  2
BLOCK_RECORD
  5
1
100
AcDbSymbolTable
 70
0
  0
BLOCK_RECORD
  5
211
100
AcDbSymbolTableRecord
100
AcDbBlockTableRecord
  2
*Model_Space
  0
BLOCK_RECORD
  5
212
100
AcDbSymbolTableRecord
100
AcDbBlockTableRecord
  2
*Paper_Space
  0
BLOCK_RECORD
  5
213
100
AcDbSymbolTableRecord
100
AcDbBlockTableRecord
  2
_FILLED
  0
ENDTAB
  0
TABLE
  2
DIMSTYLE
  5
A
100
AcDbSymbolTable
 70
1
100
AcDbDimStyleTable
 71
0
  0
DIMSTYLE
105
214
100
AcDbSymbolTableRecord
100
AcDbDimStyleTableRecord
  2
STANDARD
 70
0
  3

  4

 40
1.0
 41
5.7466282262
 42
1.0
 43
0.38
 44
1.0
 45
0.0
 46
0.0
 47
0.01
 48
0.01
140
8.0452795167
141
0.09
142
0.0
143
25.4
144
1.0
145
0.0
146
1.0
147
0.625
 71
1
 72
0
 73
0
 74
0
 75
0
 76
0
 77
1
 78
8
 79
2
170
0
171
1
172
0
173
0
174
0
175
0
176
0
177
0
178
0
270
2
179
2
271
2
272
2
273
2
274
2
275
0
280
0
281
0
282
0
283
1
284
8
285
0
286
0
287
3
288
0
340
11
278
46
341
213
342
213
343
213
344
213
  0
ENDTAB
  0
ENDSEC
  0
SECTION
  2
BLOCKS
  0
BLOCK
  5
20
100
AcDbEntity
  8
0
100
AcDbBlockBegin
  2
*Model_Space
 70
0
 10
0.0
 20
0.0
 30
0.0
  3
*Model_Space
  1

  0
ENDBLK
  5
21
100
AcDbEntity
  8
0
100
AcDbBlockEnd
  0
BLOCK
  5
1C
100
AcDbEntity
  8
0
100
AcDbBlockBegin
  2
*Paper_Space
 70
0
 10
0.0
 20
0.0
 30
0.0
  3
*Paper_Space
  1

  0
ENDBLK
  5
1D
100
AcDbEntity
  8
0
100
AcDbBlockEnd
  0
BLOCK
  5
215
100
AcDbEntity
  8
0
100
AcDbBlockBegin
  2
_FILLED
 70
64
 10
0.0
 20
0.0
  3
_FILLED
  1

  0
SOLID
  5
216
100
AcDbEntity
  8
0
  6
BYBLOCK
 62
0
100
AcDbTrace
 10
0.0
 20
0.0
 11
-1.0
 21
0.25
 12
-1.0
 22
-0.25
 13
-1.0
 23
-0.25
  0
ENDBLK
  5
217
100
AcDbEntity
  8
0
  6
BYBLOCK
 62
0
100
AcDbBlockEnd
  0
ENDSEC
  0
SECTION
  2
ENTITIES
  0
LINE
  5
218
100
AcDbEntity
  8
0
100
AcDbLine
 62
7
  6
CONTINUOUS
 10
56.0006992249
 20
435.015556962
 11
56.0006992249
 21
435.8320593791
  0
LINE
  5
219
100
AcDbEntity
  8
0
100
AcDbLine
 62
7
  6
CONTINUOUS
 10
58.8291145737
 20
437.628336478
 11
58.8291145737
 21
441.7924988054
  0
LINE
  5
21A
100
AcDbEntity
  8
0
100
AcDbLine
 62
7
  6
CONTINUOUS
 10
69.4356956837
 20
445.2217819224
 11
69.4356956837
 21
445.6300243804
  0
LINE
  5
21B
100
AcDbEntity
  8
0
100
AcDbLine
 62
7
  6
CONTINUOUS
 10
59.6776391784
 20
443.2621946906
 11
62.3646337598
 21
444.8135224753
  0
LINE
  5
21C
100
AcDbEntity
  8
0
100
AcDbLine
 62
7
  6
CONTINUOUS
 10
65.9001529459
 20
446.8547432446
 11
70.8498798064
 21
449.7124523217
  0
LINE
  5
21D
100
AcDbEntity
  8
0
100
AcDbLine
 62
7
  6
CONTINUOUS
 10
74.3853989924
 20
451.7536730911
 11
77.0723935739
 21
453.3050008758
  0
LINE
  5
21E
100
AcDbEntity
  8
0
100
AcDbLine
 62
7
  6
CONTINUOUS
 10
72.9712148697
 20
447.6712451498
 11
69.4356956837
 21
445.6300243804
  0
LINE
  5
21F
100
AcDbEntity
  8
0
100
AcDbLine
 62
7
  6
CONTINUOUS
 10
69.7892657095
 20
445.0176544944
 11
72.9712148697
 21
446.8547427327
  0
LINE
  5
220
100
AcDbEntity
  8
0
100
AcDbLine
 62
7
  6
CONTINUOUS
 10
56.0006992249
 20
435.8320593791
 11
58.6876938063
 21
437.3833871638
  0
LINE
  5
221
100
AcDbEntity
  8
0
100
AcDbLine
 62
7
  6
CONTINUOUS
 10
72.9712148697
 20
447.6712451498
 11
72.9712148697
 21
446.8547427327
  0
LINE
  5
222
100
AcDbEntity
  8
0
100
AcDbLine
 62
7
  6
CONTINUOUS
 10
73.6783216509
 20
446.8547444323
 11
73.6783216509
 21
447.6712468495
  0
LINE
  5
223
100
AcDbEntity
  8
0
100
AcDbLine
 62
7
  6
CONTINUOUS
 10
85.6991869784
 20
440.7311540226
 11
85.6991869784
 21
440.3229115646
  0
LINE
  5
224
100
AcDbEntity
  8
0
100
AcDbLine
 62
7
  6
CONTINUOUS
 10
82.1636707363
 20
438.2816907991
 11
85.6991899224
 21
440.3229115684
  0
LINE
  5
225
100
AcDbEntity
  8
0
100
AcDbLine
 62
7
  6
CONTINUOUS
 10
90.6489579984
 20
437.4652262868
 11
87.1134388123
 21
435.4240055174
  0
LINE
  5
226
100
AcDbEntity
  8
0
100
AcDbLine
 62
7
  6
CONTINUOUS
 10
87.4670088381
 20
434.8116356314
 11
90.6489579984
 21
436.6487238697
  0
LINE
  5
227
100
AcDbEntity
  8
0
100
AcDbLine
 62
7
  6
CONTINUOUS
 10
87.1134388123
 20
435.0157630594
 11
87.1134388123
 21
435.4240055174
  0
LINE
  5
228
100
AcDbEntity
  8
0
100
AcDbLine
 62
7
  6
CONTINUOUS
 10
90.6489579984
 20
437.4652262868
 11
90.6489579984
 21
436.6487238697
  0
LINE
  5
229
100
AcDbEntity
  8
0
100
AcDbLine
 62
7
  6
CONTINUOUS
 10
91.3560647796
 20
436.6487255693
 11
91.3560647796
 21
437.4652279865
  0
LINE
  5
22A
100
AcDbEntity
  8
0
100
AcDbLine
 62
7
  6
CONTINUOUS
 10
99.841413865
 20
428.0756719361
 11
103.3769330511
 21
430.1168927054
  0
LINE
  5
22B
100
AcDbEntity
  8
0
100
AcDbLine
 62
7
  6
CONTINUOUS
 10
103.3769301071
 20
430.5251351596
 11
103.3769301071
 21
430.1168927016
  0
LINE
  5
22C
100
AcDbEntity
  8
0
100
AcDbLine
 62
7
  6
CONTINUOUS
 10
104.791181941
 20
424.8097441964
 11
104.791181941
 21
425.2179866544
  0
LINE
  5
22D
100
AcDbEntity
  8
0
100
AcDbLine
 62
7
  6
CONTINUOUS
 10
108.3267011271
 20
427.2592074238
 11
108.3267011271
 21
426.4427050066
  0
LINE
  5
22E
100
AcDbEntity
  8
0
100
AcDbLine
 62
7
  6
CONTINUOUS
 10
109.0338079083
 20
426.4427067063
 11
109.0338079083
 21
427.2592091235
  0
LINE
  5
22F
100
AcDbEntity
  8
0
100
AcDbLine
 62
7
  6
CONTINUOUS
 10
108.3267011271
 20
427.2592074238
 11
104.791181941
 21
425.2179866544
  0
LINE
  5
230
100
AcDbEntity
  8
0
100
AcDbLine
 62
7
  6
CONTINUOUS
 10
105.1447519668
 20
424.6056167683
 11
108.3267011271
 21
426.4427050066
  0
LINE
  5
231
100
AcDbEntity
  8
0
100
AcDbLine
 62
7
  6
CONTINUOUS
 10
121.0546732358
 20
420.3191162966
 11
121.0546732358
 21
419.9108738386
  0
LINE
  5
232
100
AcDbEntity
  8
0
100
AcDbLine
 62
7
  6
CONTINUOUS
 10
122.4689250697
 20
414.6037253334
 11
122.4689250697
 21
415.0119677914
  0
LINE
  5
233
100
AcDbEntity
  8
0
100
AcDbLine
 62
7
  6
CONTINUOUS
 10
126.0044442558
 20
417.0531885608
 11
126.0044442558
 21
416.2366861436
  0
LINE
  5
234
100
AcDbEntity
  8
0
100
AcDbLine
 62
7
  6
CONTINUOUS
 10
126.7115510369
 20
416.2366878433
 11
126.7115510369
 21
417.0531902604
  0
LINE
  5
235
100
AcDbEntity
  8
0
100
AcDbLine
 62
7
  6
CONTINUOUS
 10
117.5191569937
 20
417.8696530731
 11
121.0546761797
 21
419.9108738424
  0
LINE
  5
236
100
AcDbEntity
  8
0
100
AcDbLine
 62
7
  6
CONTINUOUS
 10
126.0044442558
 20
417.0531885608
 11
122.4689250697
 21
415.0119677914
  0
LINE
  5
237
100
AcDbEntity
  8
0
100
AcDbLine
 62
7
  6
CONTINUOUS
 10
122.8224950955
 20
414.3995979053
 11
126.0044442558
 21
416.2366861436
  0
LINE
  5
238
100
AcDbEntity
  8
0
100
AcDbLine
 62
7
  6
CONTINUOUS
 10
430.9267146704
 20
243.6252412018
 11
431.5266914746
 21
243.6846521192
  0
LINE
  5
239
100
AcDbEntity
  8
0
100
AcDbLine
 62
7
  6
CONTINUOUS
 10
138.7324163644
 20
410.1130974336
 11
138.7324163644
 21
409.7048549756
  0
LINE
  5
23A
100
AcDbEntity
  8
0
100
AcDbLine
 62
7
  6
CONTINUOUS
 10
140.1466681984
 20
404.3977064704
 11
140.1466681984
 21
404.8059489284
  0
LINE
  5
23B
100
AcDbEntity
  8
0
100
AcDbLine
 62
7
  6
CONTINUOUS
 10
143.6821873844
 20
406.8471696978
 11
143.6821873844
 21
406.0306672806
  0
LINE
  5
23C
100
AcDbEntity
  8
0
100
AcDbLine
 62
7
  6
CONTINUOUS
 10
144.3892941656
 20
406.0306689803
 11
144.3892941656
 21
406.8471713974
  0
LINE
  5
23D
100
AcDbEntity
  8
0
100
AcDbLine
 62
7
  6
CONTINUOUS
 10
135.1969001223
 20
407.66363421
 11
138.7324193084
 21
409.7048549794
  0
LINE
  5
23E
100
AcDbEntity
  8
0
100
AcDbLine
 62
7
  6
CONTINUOUS
 10
143.6821873844
 20
406.8471696978
 11
140.1466681984
 21
404.8059489284
  0
LINE
  5
23F
100
AcDbEntity
  8
0
100
AcDbLine
 62
7
  6
CONTINUOUS
 10
140.5002382241
 20
404.1935790423
 11
143.6821873844
 21
406.0306672806
  0
LINE
  5
240
100
AcDbEntity
  8
0
100
AcDbLine
 62
7
  6
CONTINUOUS
 10
431.1367229068
 20
249.2962893496
 11
430.5367461025
 21
249.2368784322
  0
LINE
  5
241
100
AcDbEntity
  8
0
100
AcDbLine
 62
7
  6
CONTINUOUS
 10
156.4101594931
 20
399.9070785706
 11
156.4101594931
 21
399.4988361125
  0
LINE
  5
242
100
AcDbEntity
  8
0
100
AcDbLine
 62
7
  6
CONTINUOUS
 10
157.824411327
 20
394.1916876073
 11
157.824411327
 21
394.5999300654
  0
LINE
  5
243
100
AcDbEntity
  8
0
100
AcDbLine
 62
7
  6
CONTINUOUS
 10
152.874643251
 20
397.457615347
 11
156.4101624371
 21
399.4988361164
  0
LINE
  5
244
100
AcDbEntity
  8
0
100
AcDbLine
 62
7
  6
CONTINUOUS
 10
161.3599305131
 20
396.6411508348
 11
157.824411327
 21
394.5999300654
  0
LINE
  5
245
100
AcDbEntity
  8
0
100
AcDbLine
 62
7
  6
CONTINUOUS
 10
158.1779813528
 20
393.9875601793
 11
161.3599305131
 21
395.8246484176
  0
LINE
  5
246
100
AcDbEntity
  8
0
100
AcDbLine
 62
7
  6
CONTINUOUS
 10
161.3599305131
 20
396.6411508348
 11
161.3599305131
 21
395.8246484176
  0
LINE
  5
247
100
AcDbEntity
  8
0
100
AcDbLine
 62
7
  6
CONTINUOUS
 10
162.0670372943
 20
395.8246501173
 11
162.0670372943
 21
396.6411525344
  0
LINE
  5
248
100
AcDbEntity
  8
0
100
AcDbLine
 62
7
  6
CONTINUOUS
 10
170.5523863797
 20
387.251596484
 11
174.0879055658
 21
389.2928172534
  0
LINE
  5
249
100
AcDbEntity
  8
0
100
AcDbLine
 62
7
  6
CONTINUOUS
 10
179.0376736418
 20
386.4351319717
 11
175.5021544557
 21
384.3939112024
  0
LINE
  5
24A
100
AcDbEntity
  8
0
100
AcDbLine
 62
7
  6
CONTINUOUS
 10
174.0879026218
 20
389.7010597076
 11
174.0879026218
 21
389.2928172495
  0
LINE
  5
24B
100
AcDbEntity
  8
0
100
AcDbLine
 62
7
  6
CONTINUOUS
 10
175.5021544557
 20
383.9856687443
 11
175.5021544557
 21
384.3939112024
  0
LINE
  5
24C
100
AcDbEntity
  8
0
100
AcDbLine
 62
7
  6
CONTINUOUS
 10
179.0376736418
 20
386.4351319717
 11
179.0376736418
 21
385.6186295546
  0
LINE
  5
24D
100
AcDbEntity
  8
0
100
AcDbLine
 62
7
  6
CONTINUOUS
 10
179.744780423
 20
385.6186312543
 11
179.744780423
 21
386.4351336714
  0
LINE
  5
24E
100
AcDbEntity
  8
0
100
AcDbLine
 62
7
  6
CONTINUOUS
 10
175.8557244815
 20
383.7815413163
 11
179.0376736418
 21
385.6186295546
  0
LINE
  5
24F
100
AcDbEntity
  8
0
100
AcDbLine
 62
7
  6
CONTINUOUS
 10
188.2301295084
 20
377.045577621
 11
191.7656486944
 21
379.0867983904
  0
LINE
  5
250
100
AcDbEntity
  8
0
100
AcDbLine
 62
7
  6
CONTINUOUS
 10
191.7656457505
 20
379.4950408446
 11
191.7656457505
 21
379.0867983865
  0
LINE
  5
251
100
AcDbEntity
  8
0
100
AcDbLine
 62
7
  6
CONTINUOUS
 10
193.1798975844
 20
373.7796498813
 11
193.1798975844
 21
374.1878923394
  0
LINE
  5
252
100
AcDbEntity
  8
0
100
AcDbLine
 62
7
  6
CONTINUOUS
 10
196.7154167705
 20
376.2291131087
 11
196.7154167705
 21
375.4126106916
  0
LINE
  5
253
100
AcDbEntity
  8
0
100
AcDbLine
 62
7
  6
CONTINUOUS
 10
197.4225235516
 20
375.4126123913
 11
197.4225235516
 21
376.2291148084
  0
LINE
  5
254
100
AcDbEntity
  8
0
100
AcDbLine
 62
7
  6
CONTINUOUS
 10
196.7154167705
 20
376.2291131087
 11
193.1798975844
 21
374.1878923394
  0
LINE
  5
255
100
AcDbEntity
  8
0
100
AcDbLine
 62
7
  6
CONTINUOUS
 10
193.5334676102
 20
373.5755224533
 11
196.7154167705
 21
375.4126106916
  0
LINE
  5
256
100
AcDbEntity
  8
0
100
AcDbLine
 62
7
  6
CONTINUOUS
 10
209.4433888791
 20
369.2890219816
 11
209.4433888791
 21
368.8807795235
  0
LINE
  5
257
100
AcDbEntity
  8
0
100
AcDbLine
 62
7
  6
CONTINUOUS
 10
210.8576407131
 20
363.5736310183
 11
210.8576407131
 21
363.9818734764
  0
LINE
  5
258
100
AcDbEntity
  8
0
100
AcDbLine
 62
7
  6
CONTINUOUS
 10
214.3931598991
 20
366.0230942457
 11
214.3931598991
 21
365.2065918286
  0
LINE
  5
259
100
AcDbEntity
  8
0
100
AcDbLine
 62
7
  6
CONTINUOUS
 10
215.1002666803
 20
365.2065935283
 11
215.1002666803
 21
366.0230959454
  0
LINE
  5
25A
100
AcDbEntity
  8
0
100
AcDbLine
 62
7
  6
CONTINUOUS
 10
205.907872637
 20
366.839558758
 11
209.4433918231
 21
368.8807795274
  0
LINE
  5
25B
100
AcDbEntity
  8
0
100
AcDbLine
 62
7
  6
CONTINUOUS
 10
214.3931598991
 20
366.0230942457
 11
210.8576407131
 21
363.9818734764
  0
LINE
  5
25C
100
AcDbEntity
  8
0
100
AcDbLine
 62
7
  6
CONTINUOUS
 10
211.2112107388
 20
363.3695035903
 11
214.3931598991
 21
365.2065918286
  0
LINE
  5
25D
100
AcDbEntity
  8
0
100
AcDbLine
 62
7
  6
CONTINUOUS
 10
227.1211320078
 20
359.0830031186
 11
227.1211320078
 21
358.6747606605
  0
LINE
  5
25E
100
AcDbEntity
  8
0
100
AcDbLine
 62
7
  6
CONTINUOUS
 10
228.5353838417
 20
353.3676121553
 11
228.5353838417
 21
353.7758546134
  0
LINE
  5
25F
100
AcDbEntity
  8
0
100
AcDbLine
 62
7
  6
CONTINUOUS
 10
232.0709030278
 20
355.8170753827
 11
232.0709030278
 21
355.0005729656
  0
LINE
  5
260
100
AcDbEntity
  8
0
100
AcDbLine
 62
7
  6
CONTINUOUS
 10
223.5856157657
 20
356.633539895
 11
227.1211349518
 21
358.6747606644
  0
LINE
  5
261
100
AcDbEntity
  8
0
100
AcDbLine
 62
7
  6
CONTINUOUS
 10
232.0709030278
 20
355.8170753827
 11
228.5353838417
 21
353.7758546134
  0
LINE
  5
262
100
AcDbEntity
  8
0
100
AcDbLine
 62
7
  6
CONTINUOUS
 10
228.8889538675
 20
353.1634847273
 11
232.0709030278
 21
355.0005729656
  0
LINE
  5
263
100
AcDbEntity
  8
0
100
AcDbLine
 62
7
  6
CONTINUOUS
 10
409.4650517536
 20
230.9474345184
 11
56.0006992249
 21
435.015556962
  0
LINE
  5
264
100
AcDbEntity
  8
0
100
AcDbLine
 62
7
  6
CONTINUOUS
 10
409.4650517536
 20
231.7639369355
 11
56.0006992249
 21
435.8320593791
  0
LINE
  5
265
100
AcDbEntity
  8
0
100
AcDbLine
 62
7
  6
CONTINUOUS
 10
232.778009809
 20
355.0005746653
 11
232.778009809
 21
355.8170770824
  0
LINE
  5
266
100
AcDbEntity
  8
0
100
AcDbLine
 62
7
  6
CONTINUOUS
 10
244.7988751365
 20
348.8769842556
 11
244.7988751365
 21
348.4687417975
  0
LINE
  5
267
100
AcDbEntity
  8
0
100
AcDbLine
 62
7
  6
CONTINUOUS
 10
246.2131269704
 20
343.1615932923
 11
246.2131269704
 21
343.5698357504
  0
LINE
  5
268
100
AcDbEntity
  8
0
100
AcDbLine
 62
7
  6
CONTINUOUS
 10
241.2633588944
 20
346.427521032
 11
244.7988780805
 21
348.4687418014
  0
LINE
  5
269
100
AcDbEntity
  8
0
100
AcDbLine
 62
7
  6
CONTINUOUS
 10
249.7486461565
 20
345.6110565197
 11
246.2131269704
 21
343.5698357504
  0
LINE
  5
26A
100
AcDbEntity
  8
0
100
AcDbLine
 62
7
  6
CONTINUOUS
 10
246.5666969962
 20
342.9574658643
 11
249.7486461565
 21
344.7945541026
  0
LINE
  5
26B
100
AcDbEntity
  8
0
100
AcDbLine
 62
7
  6
CONTINUOUS
 10
58.6876938063
 20
437.3833871638
 11
412.152046335
 21
233.3152647202
  0
LINE
  5
26C
100
AcDbEntity
  8
0
100
AcDbLine
 62
7
  6
CONTINUOUS
 10
412.2934671024
 20
233.5602140344
 11
58.8291145737
 21
437.628336478
  0
LINE
  5
26D
100
AcDbEntity
  8
0
100
AcDbLine
 62
7
  6
CONTINUOUS
 10
58.8291145737
 20
441.7924988054
 11
412.2934671024
 21
237.7243763618
  0
LINE
  5
26E
100
AcDbEntity
  8
0
100
AcDbLine
 62
7
  6
CONTINUOUS
 10
413.1419917071
 20
239.194072247
 11
59.6776391784
 21
443.2621946906
  0
LINE
  5
26F
100
AcDbEntity
  8
0
100
AcDbLine
 62
7
  6
CONTINUOUS
 10
62.3646337598
 20
444.8135224753
 11
415.8289862885
 21
240.7454000317
  0
LINE
  5
270
100
AcDbEntity
  8
0
100
AcDbLine
 62
7
  6
CONTINUOUS
 10
419.3645054745
 20
242.7866208011
 11
65.9001529459
 21
446.8547432446
  0
LINE
  5
271
100
AcDbEntity
  8
0
100
AcDbLine
 62
7
  6
CONTINUOUS
 10
69.4356986276
 20
445.2217819262
 11
81.4565639551
 21
438.2816890994
  0
LINE
  5
272
100
AcDbEntity
  8
0
100
AcDbLine
 62
7
  6
CONTINUOUS
 10
87.1134417563
 20
435.0157630632
 11
99.1343070838
 21
428.0756702364
  0
LINE
  5
273
100
AcDbEntity
  8
0
100
AcDbLine
 62
7
  6
CONTINUOUS
 10
104.791184885
 20
424.8097442002
 11
116.8120502125
 21
417.8696513734
  0
LINE
  5
274
100
AcDbEntity
  8
0
100
AcDbLine
 62
7
  6
CONTINUOUS
 10
122.4689280137
 20
414.6037253372
 11
134.4897933412
 21
407.6636325104
  0
LINE
  5
275
100
AcDbEntity
  8
0
100
AcDbLine
 62
7
  6
CONTINUOUS
 10
140.1466711423
 20
404.3977064742
 11
152.1675364698
 21
397.4576136474
  0
LINE
  5
276
100
AcDbEntity
  8
0
100
AcDbLine
 62
7
  6
CONTINUOUS
 10
157.824414271
 20
394.1916876112
 11
169.8452795985
 21
387.2515947844
  0
LINE
  5
277
100
AcDbEntity
  8
0
100
AcDbLine
 62
7
  6
CONTINUOUS
 10
175.5021573997
 20
383.9856687482
 11
187.5230227272
 21
377.0455759214
  0
LINE
  5
278
100
AcDbEntity
  8
0
100
AcDbLine
 62
7
  6
CONTINUOUS
 10
193.1799005284
 20
373.7796498852
 11
205.2007658559
 21
366.8395570583
  0
LINE
  5
279
100
AcDbEntity
  8
0
100
AcDbLine
 62
7
  6
CONTINUOUS
 10
210.857643657
 20
363.5736310222
 11
222.8785089845
 21
356.6335381953
  0
LINE
  5
27A
100
AcDbEntity
  8
0
100
AcDbLine
 62
7
  6
CONTINUOUS
 10
228.5353867857
 20
353.3676121592
 11
240.5562521132
 21
346.4275193323
  0
LINE
  5
27B
100
AcDbEntity
  8
0
100
AcDbLine
 62
7
  6
CONTINUOUS
 10
246.2131299144
 20
343.1615932962
 11
258.2339952419
 21
336.2215004693
  0
LINE
  5
27C
100
AcDbEntity
  8
0
100
AcDbLine
 62
7
  6
CONTINUOUS
 10
263.8908730431
 20
332.9555744332
 11
275.9117383706
 21
326.0154816063
  0
LINE
  5
27D
100
AcDbEntity
  8
0
100
AcDbLine
 62
7
  6
CONTINUOUS
 10
281.5686161717
 20
322.7495555702
 11
293.5894814992
 21
315.8094627433
  0
LINE
  5
27E
100
AcDbEntity
  8
0
100
AcDbLine
 62
7
  6
CONTINUOUS
 10
299.2463593004
 20
312.5435367071
 11
311.2672246279
 21
305.6034438803
  0
LINE
  5
27F
100
AcDbEntity
  8
0
100
AcDbLine
 62
7
  6
CONTINUOUS
 10
316.9241024291
 20
302.3375178441
 11
328.9449677566
 21
295.3974250173
  0
LINE
  5
280
100
AcDbEntity
  8
0
100
AcDbLine
 62
7
  6
CONTINUOUS
 10
334.6018455578
 20
292.1314989811
 11
346.6227108853
 21
285.1914061543
  0
LINE
  5
281
100
AcDbEntity
  8
0
100
AcDbLine
 62
7
  6
CONTINUOUS
 10
352.2795886864
 20
281.9254801181
 11
364.3004540139
 21
274.9853872913
  0
LINE
  5
282
100
AcDbEntity
  8
0
100
AcDbLine
 62
7
  6
CONTINUOUS
 10
369.9573318151
 20
271.7194612551
 11
381.9781971426
 21
264.7793684283
  0
LINE
  5
283
100
AcDbEntity
  8
0
100
AcDbLine
 62
7
  6
CONTINUOUS
 10
387.6350749438
 20
261.5134423921
 11
399.6559402713
 21
254.5733495653
  0
LINE
  5
284
100
AcDbEntity
  8
0
100
AcDbLine
 62
7
  6
CONTINUOUS
 10
405.3128180725
 20
251.3074235291
 11
417.3336834
 21
244.3673307023
  0
LINE
  5
285
100
AcDbEntity
  8
0
100
AcDbLine
 62
7
  6
CONTINUOUS
 10
249.7486461565
 20
345.6110565197
 11
249.7486461565
 21
344.7945541026
  0
LINE
  5
286
100
AcDbEntity
  8
0
100
AcDbLine
 62
7
  6
CONTINUOUS
 10
250.4557529377
 20
344.7945558023
 11
250.4557529377
 21
345.6110582194
  0
LINE
  5
287
100
AcDbEntity
  8
0
100
AcDbLine
 62
7
  6
CONTINUOUS
 10
258.9411020231
 20
336.221502169
 11
262.4766212091
 21
338.2627229384
  0
LINE
  5
288
100
AcDbEntity
  8
0
100
AcDbLine
 62
7
  6
CONTINUOUS
 10
73.6783216509
 20
446.8547444323
 11
85.3456198966
 21
440.1187790374
  0
LINE
  5
289
100
AcDbEntity
  8
0
100
AcDbLine
 62
7
  6
CONTINUOUS
 10
91.3560647796
 20
436.6487255693
 11
103.0233630253
 21
429.9127601744
  0
LINE
  5
28A
100
AcDbEntity
  8
0
100
AcDbLine
 62
7
  6
CONTINUOUS
 10
109.0338079083
 20
426.4427067063
 11
120.701106154
 21
419.7067413114
  0
LINE
  5
28B
100
AcDbEntity
  8
0
100
AcDbLine
 62
7
  6
CONTINUOUS
 10
126.7115510369
 20
416.2366878433
 11
138.3788492826
 21
409.5007224484
  0
LINE
  5
28C
100
AcDbEntity
  8
0
100
AcDbLine
 62
7
  6
CONTINUOUS
 10
144.3892941656
 20
406.0306689803
 11
156.0565924113
 21
399.2947035853
  0
LINE
  5
28D
100
AcDbEntity
  8
0
100
AcDbLine
 62
7
  6
CONTINUOUS
 10
162.0670372943
 20
395.8246501173
 11
173.73433554
 21
389.0886847223
  0
LINE
  5
28E
100
AcDbEntity
  8
0
100
AcDbLine
 62
7
  6
CONTINUOUS
 10
179.744780423
 20
385.6186312543
 11
191.4120786687
 21
378.8826658593
  0
LINE
  5
28F
100
AcDbEntity
  8
0
100
AcDbLine
 62
7
  6
CONTINUOUS
 10
197.4225235516
 20
375.4126123913
 11
209.0898217973
 21
368.6766469963
  0
LINE
  5
290
100
AcDbEntity
  8
0
100
AcDbLine
 62
7
  6
CONTINUOUS
 10
215.1002666803
 20
365.2065935283
 11
226.767564926
 21
358.4706281333
  0
LINE
  5
291
100
AcDbEntity
  8
0
100
AcDbLine
 62
7
  6
CONTINUOUS
 10
232.778009809
 20
355.0005746653
 11
244.4453080547
 21
348.2646092703
  0
LINE
  5
292
100
AcDbEntity
  8
0
100
AcDbLine
 62
7
  6
CONTINUOUS
 10
250.4557529377
 20
344.7945558023
 11
262.1230511834
 21
338.0585904073
  0
LINE
  5
293
100
AcDbEntity
  8
0
100
AcDbLine
 62
7
  6
CONTINUOUS
 10
268.1334960663
 20
334.5885369393
 11
279.800794312
 21
327.8525715443
  0
LINE
  5
294
100
AcDbEntity
  8
0
100
AcDbLine
 62
7
  6
CONTINUOUS
 10
285.811239195
 20
324.3825180762
 11
297.4785374407
 21
317.6465526813
  0
LINE
  5
295
100
AcDbEntity
  8
0
100
AcDbLine
 62
7
  6
CONTINUOUS
 10
303.4889823237
 20
314.1764992132
 11
315.1562805694
 21
307.4405338183
  0
LINE
  5
296
100
AcDbEntity
  8
0
100
AcDbLine
 62
7
  6
CONTINUOUS
 10
321.1667254524
 20
303.9704803502
 11
332.8340236981
 21
297.2345149553
  0
LINE
  5
297
100
AcDbEntity
  8
0
100
AcDbLine
 62
7
  6
CONTINUOUS
 10
338.844468581
 20
293.7644614872
 11
350.5117668267
 21
287.0284960923
  0
LINE
  5
298
100
AcDbEntity
  8
0
100
AcDbLine
 62
7
  6
CONTINUOUS
 10
356.5222117097
 20
283.5584426242
 11
368.1895099554
 21
276.8224772293
  0
LINE
  5
299
100
AcDbEntity
  8
0
100
AcDbLine
 62
7
  6
CONTINUOUS
 10
374.1999548384
 20
273.3524237612
 11
385.8672530841
 21
266.6164583662
  0
LINE
  5
29A
100
AcDbEntity
  8
0
100
AcDbLine
 62
7
  6
CONTINUOUS
 10
391.8776979671
 20
263.1464048982
 11
403.5449962128
 21
256.4104395032
  0
LINE
  5
29B
100
AcDbEntity
  8
0
100
AcDbLine
 62
7
  6
CONTINUOUS
 10
409.5554410957
 20
252.9403860352
 11
421.2227393414
 21
246.2044206402
  0
LINE
  5
29C
100
AcDbEntity
  8
0
100
AcDbLine
 62
7
  6
CONTINUOUS
 10
421.5763064232
 20
246.8167956255
 11
409.5554410957
 21
253.7568884523
  0
LINE
  5
29D
100
AcDbEntity
  8
0
100
AcDbLine
 62
7
  6
CONTINUOUS
 10
403.8985632946
 20
257.0228144885
 11
391.8776979671
 21
263.9629073153
  0
LINE
  5
29E
100
AcDbEntity
  8
0
100
AcDbLine
 62
7
  6
CONTINUOUS
 10
386.2208201659
 20
267.2288333515
 11
374.1999548384
 21
274.1689261783
  0
LINE
  5
29F
100
AcDbEntity
  8
0
100
AcDbLine
 62
7
  6
CONTINUOUS
 10
368.5430770372
 20
277.4348522145
 11
356.5222117097
 21
284.3749450413
  0
LINE
  5
2A0
100
AcDbEntity
  8
0
100
AcDbLine
 62
7
  6
CONTINUOUS
 10
350.8653339085
 20
287.6408710775
 11
338.844468581
 21
294.5809639044
  0
LINE
  5
2A1
100
AcDbEntity
  8
0
100
AcDbLine
 62
7
  6
CONTINUOUS
 10
333.1875907799
 20
297.8468899405
 11
321.1667254524
 21
304.7869827674
  0
LINE
  5
2A2
100
AcDbEntity
  8
0
100
AcDbLine
 62
7
  6
CONTINUOUS
 10
315.5098476512
 20
308.0529088035
 11
303.4889823237
 21
314.9930016304
  0
LINE
  5
2A3
100
AcDbEntity
  8
0
100
AcDbLine
 62
7
  6
CONTINUOUS
 10
297.8321045225
 20
318.2589276665
 11
285.811239195
 21
325.1990204934
  0
LINE
  5
2A4
100
AcDbEntity
  8
0
100
AcDbLine
 62
7
  6
CONTINUOUS
 10
280.1543613938
 20
328.4649465295
 11
268.1334960663
 21
335.4050393564
  0
LINE
  5
2A5
100
AcDbEntity
  8
0
100
AcDbLine
 62
7
  6
CONTINUOUS
 10
262.4766182652
 20
338.6709653925
 11
250.4557529377
 21
345.6110582194
  0
LINE
  5
2A6
100
AcDbEntity
  8
0
100
AcDbLine
 62
7
  6
CONTINUOUS
 10
244.7988751365
 20
348.8769842556
 11
232.778009809
 21
355.8170770824
  0
LINE
  5
2A7
100
AcDbEntity
  8
0
100
AcDbLine
 62
7
  6
CONTINUOUS
 10
227.1211320078
 20
359.0830031186
 11
215.1002666803
 21
366.0230959454
  0
LINE
  5
2A8
100
AcDbEntity
  8
0
100
AcDbLine
 62
7
  6
CONTINUOUS
 10
209.4433888791
 20
369.2890219816
 11
197.4225235516
 21
376.2291148084
  0
LINE
  5
2A9
100
AcDbEntity
  8
0
100
AcDbLine
 62
7
  6
CONTINUOUS
 10
191.7656457505
 20
379.4950408446
 11
179.744780423
 21
386.4351336714
  0
LINE
  5
2AA
100
AcDbEntity
  8
0
100
AcDbLine
 62
7
  6
CONTINUOUS
 10
174.0879026218
 20
389.7010597076
 11
162.0670372943
 21
396.6411525344
  0
LINE
  5
2AB
100
AcDbEntity
  8
0
100
AcDbLine
 62
7
  6
CONTINUOUS
 10
156.4101594931
 20
399.9070785706
 11
144.3892941656
 21
406.8471713974
  0
LINE
  5
2AC
100
AcDbEntity
  8
0
100
AcDbLine
 62
7
  6
CONTINUOUS
 10
138.7324163644
 20
410.1130974336
 11
126.7115510369
 21
417.0531902604
  0
LINE
  5
2AD
100
AcDbEntity
  8
0
100
AcDbLine
 62
7
  6
CONTINUOUS
 10
121.0546732358
 20
420.3191162966
 11
109.0338079083
 21
427.2592091235
  0
LINE
  5
2AE
100
AcDbEntity
  8
0
100
AcDbLine
 62
7
  6
CONTINUOUS
 10
103.3769301071
 20
430.5251351596
 11
91.3560647796
 21
437.4652279865
  0
LINE
  5
2AF
100
AcDbEntity
  8
0
100
AcDbLine
 62
7
  6
CONTINUOUS
 10
85.6991869784
 20
440.7311540226
 11
73.6783216509
 21
447.6712468495
  0
LINE
  5
2B0
100
AcDbEntity
  8
0
100
AcDbLine
 62
7
  6
CONTINUOUS
 10
70.8498798064
 20
449.7124523217
 11
424.314232335
 21
245.6443298782
  0
LINE
  5
2B1
100
AcDbEntity
  8
0
100
AcDbLine
 62
7
  6
CONTINUOUS
 10
427.214359432
 20
245.7684919521
 11
430.9267016548
 21
243.6252186577
  0
LINE
  5
2B2
100
AcDbEntity
  8
0
100
AcDbLine
 62
7
  6
CONTINUOUS
 10
430.67816687
 20
244.1745620351
 11
427.3900978137
 21
246.072886644
  0
LINE
  5
2B3
100
AcDbEntity
  8
0
100
AcDbLine
 62
7
  6
CONTINUOUS
 10
431.5266914746
 20
244.5011545363
 11
431.4559815122
 21
244.5419780286
  0
LINE
  5
2B4
100
AcDbEntity
  8
0
100
AcDbLine
 62
7
  6
CONTINUOUS
 10
427.8497515211
 20
247.6855506475
 11
74.3853989924
 21
451.7536730911
  0
LINE
  5
2B5
100
AcDbEntity
  8
0
100
AcDbLine
 62
7
  6
CONTINUOUS
 10
434.213686056
 20
246.052482321
 11
431.3852707072
 21
247.6854317418
  0
LINE
  5
2B6
100
AcDbEntity
  8
0
100
AcDbLine
 62
7
  6
CONTINUOUS
 10
430.6074542543
 20
248.3795493866
 11
430.67816687
 21
248.3387243625
  0
LINE
  5
2B7
100
AcDbEntity
  8
0
100
AcDbLine
 62
7
  6
CONTINUOUS
 10
77.0723935739
 20
453.3050008758
 11
430.5367461025
 21
249.2368784322
  0
LINE
  5
2B8
100
AcDbEntity
  8
0
100
AcDbLine
 62
7
  6
CONTINUOUS
 10
77.6723833936
 20
453.3644343373
 11
431.1367359223
 21
249.2963118937
  0
LINE
  5
2B9
100
AcDbEntity
  8
0
100
AcDbLine
 62
7
  6
CONTINUOUS
 10
262.4766182652
 20
338.6709653925
 11
262.4766182652
 21
338.2627229345
  0
LINE
  5
2BA
100
AcDbEntity
  8
0
100
AcDbLine
 62
7
  6
CONTINUOUS
 10
263.8908700991
 20
332.9555744293
 11
263.8908700991
 21
333.3638168874
  0
LINE
  5
2BB
100
AcDbEntity
  8
0
100
AcDbLine
 62
7
  6
CONTINUOUS
 10
267.4263892852
 20
335.4050376567
 11
267.4263892852
 21
334.5885352396
  0
LINE
  5
2BC
100
AcDbEntity
  8
0
100
AcDbLine
 62
7
  6
CONTINUOUS
 10
268.1334960663
 20
334.5885369393
 11
268.1334960663
 21
335.4050393564
  0
LINE
  5
2BD
100
AcDbEntity
  8
0
100
AcDbLine
 62
7
  6
CONTINUOUS
 10
267.4263892852
 20
335.4050376567
 11
263.8908700991
 21
333.3638168874
  0
LINE
  5
2BE
100
AcDbEntity
  8
0
100
AcDbLine
 62
7
  6
CONTINUOUS
 10
264.2444401249
 20
332.7514470013
 11
267.4263892852
 21
334.5885352396
  0
LINE
  5
2BF
100
AcDbEntity
  8
0
100
AcDbLine
 62
7
  6
CONTINUOUS
 10
276.6188451517
 20
326.015483306
 11
280.1543643378
 21
328.0567040753
  0
LINE
  5
2C0
100
AcDbEntity
  8
0
100
AcDbLine
 62
7
  6
CONTINUOUS
 10
280.1543613938
 20
328.4649465295
 11
280.1543613938
 21
328.0567040715
  0
LINE
  5
2C1
100
AcDbEntity
  8
0
100
AcDbLine
 62
7
  6
CONTINUOUS
 10
281.5686132278
 20
322.7495555663
 11
281.5686132278
 21
323.1577980243
  0
LINE
  5
2C2
100
AcDbEntity
  8
0
100
AcDbLine
 62
7
  6
CONTINUOUS
 10
285.1041324138
 20
325.1990187937
 11
285.1041324138
 21
324.3825163766
  0
LINE
  5
2C3
100
AcDbEntity
  8
0
100
AcDbLine
 62
7
  6
CONTINUOUS
 10
285.811239195
 20
324.3825180762
 11
285.811239195
 21
325.1990204934
  0
LINE
  5
2C4
100
AcDbEntity
  8
0
100
AcDbLine
 62
7
  6
CONTINUOUS
 10
285.1041324138
 20
325.1990187937
 11
281.5686132278
 21
323.1577980243
  0
LINE
  5
2C5
100
AcDbEntity
  8
0
100
AcDbLine
 62
7
  6
CONTINUOUS
 10
281.9221832535
 20
322.5454281383
 11
285.1041324138
 21
324.3825163766
  0
LINE
  5
2C6
100
AcDbEntity
  8
0
100
AcDbLine
 62
7
  6
CONTINUOUS
 10
415.8289862885
 20
239.9288976146
 11
416.1536859555
 21
239.6285159496
  0
LINE
  5
2C7
100
AcDbEntity
  8
0
100
AcDbLine
 62
7
  6
CONTINUOUS
 10
416.1536872951
 20
240.4450206717
 11
415.8289862885
 21
240.7454000317
  0
LINE
  5
2C8
100
AcDbEntity
  8
0
100
AcDbLine
 62
7
  6
CONTINUOUS
 10
297.8321045225
 20
318.2589276665
 11
297.8321045225
 21
317.8506852085
  0
LINE
  5
2C9
100
AcDbEntity
  8
0
100
AcDbLine
 62
7
  6
CONTINUOUS
 10
299.2463563564
 20
312.5435367033
 11
299.2463563564
 21
312.9517791613
  0
LINE
  5
2CA
100
AcDbEntity
  8
0
100
AcDbLine
 62
7
  6
CONTINUOUS
 10
302.7818755425
 20
314.9929999307
 11
302.7818755425
 21
314.1764975136
  0
LINE
  5
2CB
100
AcDbEntity
  8
0
100
AcDbLine
 62
7
  6
CONTINUOUS
 10
303.4889823237
 20
314.1764992132
 11
303.4889823237
 21
314.9930016304
  0
LINE
  5
2CC
100
AcDbEntity
  8
0
100
AcDbLine
 62
7
  6
CONTINUOUS
 10
294.2965882804
 20
315.809464443
 11
297.8321074665
 21
317.8506852123
  0
LINE
  5
2CD
100
AcDbEntity
  8
0
100
AcDbLine
 62
7
  6
CONTINUOUS
 10
302.7818755425
 20
314.9929999307
 11
299.2463563564
 21
312.9517791613
  0
LINE
  5
2CE
100
AcDbEntity
  8
0
100
AcDbLine
 62
7
  6
CONTINUOUS
 10
299.5999263822
 20
312.3394092753
 11
302.7818755425
 21
314.1764975136
  0
LINE
  5
2CF
100
AcDbEntity
  8
0
100
AcDbLine
 62
7
  6
CONTINUOUS
 10
424.314232335
 20
244.827827461
 11
424.6389320021
 21
244.5274457961
  0
LINE
  5
2D0
100
AcDbEntity
  8
0
100
AcDbLine
 62
7
  6
CONTINUOUS
 10
424.6389333416
 20
245.3439505181
 11
424.314232335
 21
245.6443298782
  0
LINE
  5
2D1
100
AcDbEntity
  8
0
100
AcDbLine
 62
7
  6
CONTINUOUS
 10
315.5098476512
 20
308.0529088035
 11
315.5098476512
 21
307.6446663455
  0
LINE
  5
2D2
100
AcDbEntity
  8
0
100
AcDbLine
 62
7
  6
CONTINUOUS
 10
316.9240994851
 20
302.3375178403
 11
316.9240994851
 21
302.7457602983
  0
LINE
  5
2D3
100
AcDbEntity
  8
0
100
AcDbLine
 62
7
  6
CONTINUOUS
 10
311.9743314091
 20
305.60344558
 11
315.5098505952
 21
307.6446663493
  0
LINE
  5
2D4
100
AcDbEntity
  8
0
100
AcDbLine
 62
7
  6
CONTINUOUS
 10
320.4596186712
 20
304.7869810677
 11
316.9240994851
 21
302.7457602983
  0
LINE
  5
2D5
100
AcDbEntity
  8
0
100
AcDbLine
 62
7
  6
CONTINUOUS
 10
317.2776695109
 20
302.1333904123
 11
320.4596186712
 21
303.9704786506
  0
LINE
  5
2D6
100
AcDbEntity
  8
0
100
AcDbLine
 62
7
  6
CONTINUOUS
 10
320.4596186712
 20
304.7869810677
 11
320.4596186712
 21
303.9704786506
  0
LINE
  5
2D7
100
AcDbEntity
  8
0
100
AcDbLine
 62
7
  6
CONTINUOUS
 10
321.1667254524
 20
303.9704803502
 11
321.1667254524
 21
304.7869827674
  0
LINE
  5
2D8
100
AcDbEntity
  8
0
100
AcDbLine
 62
7
  6
CONTINUOUS
 10
333.1875907799
 20
297.8468899405
 11
333.1875907799
 21
297.4386474825
  0
LINE
  5
2D9
100
AcDbEntity
  8
0
100
AcDbLine
 62
7
  6
CONTINUOUS
 10
334.6018426138
 20
292.1314989773
 11
334.6018426138
 21
292.5397414353
  0
LINE
  5
2DA
100
AcDbEntity
  8
0
100
AcDbLine
 62
7
  6
CONTINUOUS
 10
329.6520745378
 20
295.397426717
 11
333.1875937238
 21
297.4386474863
  0
LINE
  5
2DB
100
AcDbEntity
  8
0
100
AcDbLine
 62
7
  6
CONTINUOUS
 10
338.1373617999
 20
294.5809622047
 11
334.6018426138
 21
292.5397414353
  0
LINE
  5
2DC
100
AcDbEntity
  8
0
100
AcDbLine
 62
7
  6
CONTINUOUS
 10
334.9554126396
 20
291.9273715492
 11
338.1373617999
 21
293.7644597876
  0
LINE
  5
2DD
100
AcDbEntity
  8
0
100
AcDbLine
 62
7
  6
CONTINUOUS
 10
338.1373617999
 20
294.5809622047
 11
338.1373617999
 21
293.7644597876
  0
LINE
  5
2DE
100
AcDbEntity
  8
0
100
AcDbLine
 62
7
  6
CONTINUOUS
 10
338.844468581
 20
293.7644614872
 11
338.844468581
 21
294.5809639044
  0
LINE
  5
2DF
100
AcDbEntity
  8
0
100
AcDbLine
 62
7
  6
CONTINUOUS
 10
347.3298176664
 20
285.191407854
 11
350.8653368525
 21
287.2326286233
  0
LINE
  5
2E0
100
AcDbEntity
  8
0
100
AcDbLine
 62
7
  6
CONTINUOUS
 10
350.8653339085
 20
287.6408710775
 11
350.8653339085
 21
287.2326286195
  0
LINE
  5
2E1
100
AcDbEntity
  8
0
100
AcDbLine
 62
7
  6
CONTINUOUS
 10
352.2795857425
 20
281.9254801143
 11
352.2795857425
 21
282.3337225723
  0
LINE
  5
2E2
100
AcDbEntity
  8
0
100
AcDbLine
 62
7
  6
CONTINUOUS
 10
355.8151049285
 20
284.3749433417
 11
355.8151049285
 21
283.5584409245
  0
LINE
  5
2E3
100
AcDbEntity
  8
0
100
AcDbLine
 62
7
  6
CONTINUOUS
 10
356.5222117097
 20
283.5584426242
 11
356.5222117097
 21
284.3749450413
  0
LINE
  5
2E4
100
AcDbEntity
  8
0
100
AcDbLine
 62
7
  6
CONTINUOUS
 10
355.8151049285
 20
284.3749433417
 11
352.2795857425
 21
282.3337225723
  0
LINE
  5
2E5
100
AcDbEntity
  8
0
100
AcDbLine
 62
7
  6
CONTINUOUS
 10
352.6331557682
 20
281.7213526862
 11
355.8151049285
 21
283.5584409245
  0
LINE
  5
2E6
100
AcDbEntity
  8
0
100
AcDbLine
 62
7
  6
CONTINUOUS
 10
365.0075607951
 20
274.9853889909
 11
368.5430799812
 21
277.0266097603
  0
LINE
  5
2E7
100
AcDbEntity
  8
0
100
AcDbLine
 62
7
  6
CONTINUOUS
 10
368.5430770372
 20
277.4348522145
 11
368.5430770372
 21
277.0266097565
  0
LINE
  5
2E8
100
AcDbEntity
  8
0
100
AcDbLine
 62
7
  6
CONTINUOUS
 10
369.9573288711
 20
271.7194612513
 11
369.9573288711
 21
272.1277037093
  0
LINE
  5
2E9
100
AcDbEntity
  8
0
100
AcDbLine
 62
7
  6
CONTINUOUS
 10
373.4928480572
 20
274.1689244787
 11
373.4928480572
 21
273.3524220615
  0
LINE
  5
2EA
100
AcDbEntity
  8
0
100
AcDbLine
 62
7
  6
CONTINUOUS
 10
374.1999548384
 20
273.3524237612
 11
374.1999548384
 21
274.1689261783
  0
LINE
  5
2EB
100
AcDbEntity
  8
0
100
AcDbLine
 62
7
  6
CONTINUOUS
 10
373.4928480572
 20
274.1689244787
 11
369.9573288711
 21
272.1277037093
  0
LINE
  5
2EC
100
AcDbEntity
  8
0
100
AcDbLine
 62
7
  6
CONTINUOUS
 10
370.3108988969
 20
271.5153338232
 11
373.4928480572
 21
273.3524220615
  0
LINE
  5
2ED
100
AcDbEntity
  8
0
100
AcDbLine
 62
7
  6
CONTINUOUS
 10
77.0723935739
 20
453.3050008758
 11
77.6723703781
 21
453.3644117932
  0
LINE
  5
2EE
100
AcDbEntity
  8
0
100
AcDbLine
 62
7
  6
CONTINUOUS
 10
430.67816687
 20
244.1745620351
 11
430.9267146704
 21
243.6252412018
  0
LINE
  5
2EF
100
AcDbEntity
  8
0
100
AcDbLine
 62
7
  6
CONTINUOUS
 10
431.3852707072
 20
248.7469685163
 11
431.1367229068
 21
249.2962893496
  0
LINE
  5
2F0
100
AcDbEntity
  8
0
100
AcDbLine
 62
7
  6
CONTINUOUS
 10
386.2208201659
 20
267.2288333515
 11
386.2208201659
 21
266.8205908973
  0
LINE
  5
2F1
100
AcDbEntity
  8
0
100
AcDbLine
 62
7
  6
CONTINUOUS
 10
387.6350719998
 20
261.5134423883
 11
387.6350719998
 21
261.9216848463
  0
LINE
  5
2F2
100
AcDbEntity
  8
0
100
AcDbLine
 62
7
  6
CONTINUOUS
 10
391.1705911859
 20
263.9629056157
 11
391.1705911859
 21
263.1464031985
  0
LINE
  5
2F3
100
AcDbEntity
  8
0
100
AcDbLine
 62
7
  6
CONTINUOUS
 10
391.8776979671
 20
263.1464048982
 11
391.8776979671
 21
263.9629073153
  0
LINE
  5
2F4
100
AcDbEntity
  8
0
100
AcDbLine
 62
7
  6
CONTINUOUS
 10
382.6853039238
 20
264.7793701279
 11
386.2208231099
 21
266.8205908973
  0
LINE
  5
2F5
100
AcDbEntity
  8
0
100
AcDbLine
 62
7
  6
CONTINUOUS
 10
391.1705911859
 20
263.9629056157
 11
387.6350719998
 21
261.9216848463
  0
LINE
  5
2F6
100
AcDbEntity
  8
0
100
AcDbLine
 62
7
  6
CONTINUOUS
 10
387.9886420256
 20
261.3093149602
 11
391.1705911859
 21
263.1464031985
  0
LINE
  5
2F7
100
AcDbEntity
  8
0
100
AcDbLine
 62
7
  6
CONTINUOUS
 10
403.8985632946
 20
257.0228144885
 11
403.8985632946
 21
256.6145720343
  0
LINE
  5
2F8
100
AcDbEntity
  8
0
100
AcDbLine
 62
7
  6
CONTINUOUS
 10
405.3128151285
 20
251.3074235252
 11
405.3128151285
 21
251.7156659833
  0
LINE
  5
2F9
100
AcDbEntity
  8
0
100
AcDbLine
 62
7
  6
CONTINUOUS
 10
400.3630470525
 20
254.5733512649
 11
403.8985662385
 21
256.6145720343
  0
LINE
  5
2FA
100
AcDbEntity
  8
0
100
AcDbLine
 62
7
  6
CONTINUOUS
 10
408.8483343146
 20
253.7568867526
 11
405.3128151285
 21
251.7156659833
  0
LINE
  5
2FB
100
AcDbEntity
  8
0
100
AcDbLine
 62
7
  6
CONTINUOUS
 10
405.6663851543
 20
251.1032960972
 11
408.8483343146
 21
252.9403843355
  0
LINE
  5
2FC
100
AcDbEntity
  8
0
100
AcDbLine
 62
7
  6
CONTINUOUS
 10
408.8483343146
 20
253.7568867526
 11
408.8483343146
 21
252.9403843355
  0
LINE
  5
2FD
100
AcDbEntity
  8
0
100
AcDbLine
 62
7
  6
CONTINUOUS
 10
409.4650517536
 20
231.7639369355
 11
409.4650517536
 21
230.9474345184
  0
LINE
  5
2FE
100
AcDbEntity
  8
0
100
AcDbLine
 62
7
  6
CONTINUOUS
 10
409.5554410957
 20
252.9403860352
 11
409.5554410957
 21
253.7568884523
  0
LINE
  5
2FF
100
AcDbEntity
  8
0
100
AcDbLine
 62
7
  6
CONTINUOUS
 10
412.2934671024
 20
237.7243763618
 11
412.2934671024
 21
233.5602140344
  0
LINE
  5
300
100
AcDbEntity
  8
0
100
AcDbLine
 62
7
  6
CONTINUOUS
 10
413.0005709396
 20
233.9684581883
 11
413.0005709396
 21
238.1326205157
  0
LINE
  5
301
100
AcDbEntity
  8
0
100
AcDbLine
 62
7
  6
CONTINUOUS
 10
421.5763064232
 20
246.8167956255
 11
421.5763064232
 21
246.4085531713
  0
LINE
  5
302
100
AcDbEntity
  8
0
100
AcDbLine
 62
7
  6
CONTINUOUS
 10
418.0407901811
 20
244.3673324019
 11
421.5763093672
 21
246.4085531713
  0
LINE
  5
303
100
AcDbEntity
  8
0
100
AcDbLine
 62
7
  6
CONTINUOUS
 10
430.5367461025
 20
249.2368784322
 11
427.8497515211
 21
247.6855506475
  0
LINE
  5
304
100
AcDbEntity
  8
0
100
AcDbLine
 62
7
  6
CONTINUOUS
 10
424.314232335
 20
245.6443298782
 11
419.3645054745
 21
242.7866208011
  0
LINE
  5
305
100
AcDbEntity
  8
0
100
AcDbLine
 62
7
  6
CONTINUOUS
 10
415.8289862885
 20
240.7454000317
 11
413.1419917071
 21
239.194072247
  0
LINE
  5
306
100
AcDbEntity
  8
0
100
AcDbLine
 62
7
  6
CONTINUOUS
 10
413.1419917071
 20
238.3775698299
 11
415.8289862885
 21
239.9288976146
  0
LINE
  5
307
100
AcDbEntity
  8
0
100
AcDbLine
 62
7
  6
CONTINUOUS
 10
419.3645054745
 20
241.9701183839
 11
424.314232335
 21
244.827827461
  0
LINE
  5
308
100
AcDbEntity
  8
0
100
AcDbLine
 62
7
  6
CONTINUOUS
 10
427.8497515211
 20
246.8690482304
 11
430.5367461025
 21
248.4203760151
  0
LINE
  5
309
100
AcDbEntity
  8
0
100
AcDbLine
 62
7
  6
CONTINUOUS
 10
430.67816687
 20
248.3387243625
 11
430.67816687
 21
244.1745620351
  0
LINE
  5
30A
100
AcDbEntity
  8
0
100
AcDbLine
 62
7
  6
CONTINUOUS
 10
431.3852707072
 20
244.582806189
 11
431.3852707072
 21
248.7469685163
  0
LINE
  5
30B
100
AcDbEntity
  8
0
100
AcDbLine
 62
7
  6
CONTINUOUS
 10
434.213686056
 20
245.2359799039
 11
434.213686056
 21
246.052482321
  0
LINE
  5
30C
100
AcDbEntity
  8
0
100
AcDbLine
 62
7
  6
CONTINUOUS
 10
434.213686056
 20
246.052482321
 11
431.5266914746
 21
244.5011545363
  0
LINE
  5
30D
100
AcDbEntity
  8
0
100
AcDbLine
 62
7
  6
CONTINUOUS
 10
412.152046335
 20
233.3152647202
 11
409.4650517536
 21
231.7639369355
  0
LINE
  5
30E
100
AcDbEntity
  8
0
100
AcDbLine
 62
7
  6
CONTINUOUS
 10
409.4650517536
 20
230.9474345184
 11
412.152046335
 21
232.4987623031
  0
LINE
  5
30F
100
AcDbEntity
  8
0
100
AcDbLine
 62
7
  6
CONTINUOUS
 10
431.5266914746
 20
243.6846521192
 11
434.213686056
 21
245.2359799039
  0
SPLINE
  5
310
100
AcDbEntity
  8
0
100
AcDbSpline
 62
7
  6
CONTINUOUS
 70
0
 71
3
 72
12
 73
8
 74
0
 42
0.0000001
 43
0.0000001
 44
0.0000000001
 40
0.0
 40
0.0
 40
0.0
 40
0.0
 40
0.1822474532
 40
0.2922566316
 40
0.4167444499
 40
0.699577893
 40
1.0
 40
1.0
 40
1.0
 40
1.0
 10
416.1534905791
 20
239.6281778336
 30
0.0
 10
416.3828714584
 20
239.4954026072
 30
0.0
 10
416.8513651139
 20
239.4562128202
 30
0.0
 10
417.4228864522
 20
239.6600377975
 30
0.0
 10
418.0704643015
 20
240.05403775
 30
0.0
 10
418.7901804467
 20
240.8120496097
 30
0.0
 10
419.2064714983
 20
241.5628064422
 30
0.0
 10
419.3645054745
 20
241.9701183839
 30
0.0
  0
SPLINE
  5
311
100
AcDbEntity
  8
0
100
AcDbSpline
 62
7
  6
CONTINUOUS
 70
0
 71
3
 72
8
 73
4
 74
0
 42
0.0000001
 43
0.0000001
 44
0.0000000001
 40
0.0
 40
0.0
 40
0.0
 40
0.0
 40
1.0
 40
1.0
 40
1.0
 40
1.0
 10
430.5367461025
 20
248.4203760151
 30
0.0
 10
430.5657597082
 20
248.4371269282
 30
0.0
 10
430.6077501856
 20
248.4470670726
 30
0.0
 10
430.63675994
 20
248.4303094905
 30
0.0
  0
SPLINE
  5
312
100
AcDbEntity
  8
0
100
AcDbSpline
 62
7
  6
CONTINUOUS
 70
0
 71
3
 72
8
 73
4
 74
0
 42
0.0000001
 43
0.0000001
 44
0.0000000001
 40
0.0
 40
0.0
 40
0.0
 40
0.0
 40
1.0
 40
1.0
 40
1.0
 40
1.0
 10
413.0005709396
 20
238.1326205157
 30
0.0
 10
413.0005709396
 20
238.2269014198
 30
0.0
 10
413.0603419271
 20
238.3304295888
 30
0.0
 10
413.1419917071
 20
238.3775698299
 30
0.0
  0
SPLINE
  5
313
100
AcDbEntity
  8
0
100
AcDbSpline
 62
7
  6
CONTINUOUS
 70
0
 71
3
 72
9
 73
5
 74
0
 42
0.0000001
 43
0.0000001
 44
0.0000000001
 40
0.0
 40
0.0
 40
0.0
 40
0.0
 40
0.4999983279
 40
1.0
 40
1.0
 40
1.0
 40
1.0
 10
412.152046335
 20
232.4987623031
 30
0.0
 10
412.4039009255
 20
232.6441697508
 30
0.0
 10
412.8018277052
 20
233.1034067473
 30
0.0
 10
413.0005709396
 20
233.677640046
 30
0.0
 10
413.0005709396
 20
233.9684581883
 30
0.0
  0
SPLINE
  5
314
100
AcDbEntity
  8
0
100
AcDbSpline
 62
7
  6
CONTINUOUS
 70
0
 71
3
 72
9
 73
5
 74
0
 42
0.0000001
 43
0.0000001
 44
0.0000000001
 40
0.0
 40
0.0
 40
0.0
 40
0.0
 40
0.277845252
 40
1.0
 40
1.0
 40
1.0
 40
1.0
 10
405.3128180791
 20
251.3074235252
 30
0.0
 10
405.2979803008
 20
251.3159899268
 30
0.0
 10
405.2465628388
 20
251.3496701845
 30
0.0
 10
405.2019513797
 20
251.3969716462
 30
0.0
 10
405.1831890948
 20
251.4373571933
 30
0.0
  0
SPLINE
  5
315
100
AcDbEntity
  8
0
100
AcDbSpline
 62
7
  6
CONTINUOUS
 70
0
 71
3
 72
8
 73
4
 74
0
 42
0.0000001
 43
0.0000001
 44
0.0000000001
 40
0.0
 40
0.0
 40
0.0
 40
0.0
 40
1.0
 40
1.0
 40
1.0
 40
1.0
 10
405.1831890948
 20
251.4373571933
 30
0.0
 10
405.172503982
 20
251.4603567442
 30
0.0
 10
405.1663238617
 20
251.4861851959
 30
0.0
 10
405.1663238488
 20
251.5115456173
 30
0.0
  0
SPLINE
  5
316
100
AcDbEntity
  8
0
100
AcDbSpline
 62
7
  6
CONTINUOUS
 70
0
 71
3
 72
9
 73
5
 74
0
 42
0.0000001
 43
0.0000001
 44
0.0000000001
 40
0.0
 40
0.0
 40
0.0
 40
0.0
 40
0.2405220257
 40
1.0
 40
1.0
 40
1.0
 40
1.0
 10
418.0407901878
 20
244.3673324058
 30
0.0
 10
417.9906405845
 20
244.3383786919
 30
0.0
 10
417.7631161648
 20
244.2566457254
 30
0.0
 10
417.492037613
 20
244.2759069239
 30
0.0
 10
417.3336833933
 20
244.3673307061
 30
0.0
  0
SPLINE
  5
317
100
AcDbEntity
  8
0
100
AcDbSpline
 62
7
  6
CONTINUOUS
 70
0
 71
3
 72
9
 73
5
 74
0
 42
0.0000001
 43
0.0000001
 44
0.0000000001
 40
0.0
 40
0.0
 40
0.0
 40
0.0
 40
0.277845252
 40
1.0
 40
1.0
 40
1.0
 40
1.0
 10
387.6350749505
 20
261.5134423883
 30
0.0
 10
387.6202371722
 20
261.5220087898
 30
0.0
 10
387.5688197101
 20
261.5556890475
 30
0.0
 10
387.524208251
 20
261.6029905092
 30
0.0
 10
387.5054459661
 20
261.6433760563
 30
0.0
  0
SPLINE
  5
318
100
AcDbEntity
  8
0
100
AcDbSpline
 62
7
  6
CONTINUOUS
 70
0
 71
3
 72
8
 73
4
 74
0
 42
0.0000001
 43
0.0000001
 44
0.0000000001
 40
0.0
 40
0.0
 40
0.0
 40
0.0
 40
1.0
 40
1.0
 40
1.0
 40
1.0
 10
387.5054459661
 20
261.6433760563
 30
0.0
 10
387.4947608533
 20
261.6663756072
 30
0.0
 10
387.488580733
 20
261.6922040589
 30
0.0
 10
387.4885807201
 20
261.7175644804
 30
0.0
  0
SPLINE
  5
319
100
AcDbEntity
  8
0
100
AcDbSpline
 62
7
  6
CONTINUOUS
 70
0
 71
3
 72
9
 73
5
 74
0
 42
0.0000001
 43
0.0000001
 44
0.0000000001
 40
0.0
 40
0.0
 40
0.0
 40
0.0
 40
0.2405220257
 40
1.0
 40
1.0
 40
1.0
 40
1.0
 10
400.3630470591
 20
254.5733512688
 30
0.0
 10
400.3128974558
 20
254.5443975549
 30
0.0
 10
400.0853730362
 20
254.4626645884
 30
0.0
 10
399.8142944843
 20
254.4819257869
 30
0.0
 10
399.6559402646
 20
254.5733495691
 30
0.0
  0
SPLINE
  5
31A
100
AcDbEntity
  8
0
100
AcDbSpline
 62
7
  6
CONTINUOUS
 70
0
 71
3
 72
9
 73
5
 74
0
 42
0.0000001
 43
0.0000001
 44
0.0000000001
 40
0.0
 40
0.0
 40
0.0
 40
0.0
 40
0.277845252
 40
1.0
 40
1.0
 40
1.0
 40
1.0
 10
369.9573318218
 20
271.7194612513
 30
0.0
 10
369.9424940435
 20
271.7280276528
 30
0.0
 10
369.8910765815
 20
271.7617079106
 30
0.0
 10
369.8464651223
 20
271.8090093722
 30
0.0
 10
369.8277028374
 20
271.8493949193
 30
0.0
  0
SPLINE
  5
31B
100
AcDbEntity
  8
0
100
AcDbSpline
 62
7
  6
CONTINUOUS
 70
0
 71
3
 72
8
 73
4
 74
0
 42
0.0000001
 43
0.0000001
 44
0.0000000001
 40
0.0
 40
0.0
 40
0.0
 40
0.0
 40
1.0
 40
1.0
 40
1.0
 40
1.0
 10
369.8277028374
 20
271.8493949193
 30
0.0
 10
369.8170177246
 20
271.8723944702
 30
0.0
 10
369.8108376043
 20
271.8982229219
 30
0.0
 10
369.8108375915
 20
271.9235833434
 30
0.0
  0
SPLINE
  5
31C
100
AcDbEntity
  8
0
100
AcDbSpline
 62
7
  6
CONTINUOUS
 70
0
 71
3
 72
9
 73
5
 74
0
 42
0.0000001
 43
0.0000001
 44
0.0000000001
 40
0.0
 40
0.0
 40
0.0
 40
0.0
 40
0.2405220257
 40
1.0
 40
1.0
 40
1.0
 40
1.0
 10
382.6853039305
 20
264.7793701318
 30
0.0
 10
382.6351543272
 20
264.750416418
 30
0.0
 10
382.4076299075
 20
264.6686834514
 30
0.0
 10
382.1365513557
 20
264.6879446499
 30
0.0
 10
381.9781971359
 20
264.7793684321
 30
0.0
  0
SPLINE
  5
31D
100
AcDbEntity
  8
0
100
AcDbSpline
 62
7
  6
CONTINUOUS
 70
0
 71
3
 72
9
 73
5
 74
0
 42
0.0000001
 43
0.0000001
 44
0.0000000001
 40
0.0
 40
0.0
 40
0.0
 40
0.0
 40
0.277845252
 40
1.0
 40
1.0
 40
1.0
 40
1.0
 10
352.2795886931
 20
281.9254801143
 30
0.0
 10
352.2647509148
 20
281.9340465159
 30
0.0
 10
352.2133334528
 20
281.9677267736
 30
0.0
 10
352.1687219937
 20
282.0150282352
 30
0.0
 10
352.1499597087
 20
282.0554137823
 30
0.0
  0
SPLINE
  5
31E
100
AcDbEntity
  8
0
100
AcDbSpline
 62
7
  6
CONTINUOUS
 70
0
 71
3
 72
8
 73
4
 74
0
 42
0.0000001
 43
0.0000001
 44
0.0000000001
 40
0.0
 40
0.0
 40
0.0
 40
0.0
 40
1.0
 40
1.0
 40
1.0
 40
1.0
 10
352.1499597087
 20
282.0554137823
 30
0.0
 10
352.1392745959
 20
282.0784133332
 30
0.0
 10
352.1330944756
 20
282.1042417849
 30
0.0
 10
352.1330944628
 20
282.1296022064
 30
0.0
  0
SPLINE
  5
31F
100
AcDbEntity
  8
0
100
AcDbSpline
 62
7
  6
CONTINUOUS
 70
0
 71
3
 72
9
 73
5
 74
0
 42
0.0000001
 43
0.0000001
 44
0.0000000001
 40
0.0
 40
0.0
 40
0.0
 40
0.0
 40
0.2405220257
 40
1.0
 40
1.0
 40
1.0
 40
1.0
 10
365.0075608018
 20
274.9853889948
 30
0.0
 10
364.9574111985
 20
274.956435281
 30
0.0
 10
364.7298867788
 20
274.8747023144
 30
0.0
 10
364.458808227
 20
274.893963513
 30
0.0
 10
364.3004540073
 20
274.9853872951
 30
0.0
  0
SPLINE
  5
320
100
AcDbEntity
  8
0
100
AcDbSpline
 62
7
  6
CONTINUOUS
 70
0
 71
3
 72
9
 73
5
 74
0
 42
0.0000001
 43
0.0000001
 44
0.0000000001
 40
0.0
 40
0.0
 40
0.0
 40
0.0
 40
0.277845252
 40
1.0
 40
1.0
 40
1.0
 40
1.0
 10
334.6018455644
 20
292.1314989773
 30
0.0
 10
334.5870077861
 20
292.1400653789
 30
0.0
 10
334.5355903241
 20
292.1737456366
 30
0.0
 10
334.490978865
 20
292.2210470982
 30
0.0
 10
334.4722165801
 20
292.2614326453
 30
0.0
  0
SPLINE
  5
321
100
AcDbEntity
  8
0
100
AcDbSpline
 62
7
  6
CONTINUOUS
 70
0
 71
3
 72
8
 73
4
 74
0
 42
0.0000001
 43
0.0000001
 44
0.0000000001
 40
0.0
 40
0.0
 40
0.0
 40
0.0
 40
1.0
 40
1.0
 40
1.0
 40
1.0
 10
334.4722165801
 20
292.2614326453
 30
0.0
 10
334.4615314673
 20
292.2844321962
 30
0.0
 10
334.455351347
 20
292.3102606479
 30
0.0
 10
334.4553513341
 20
292.3356210694
 30
0.0
  0
SPLINE
  5
322
100
AcDbEntity
  8
0
100
AcDbSpline
 62
7
  6
CONTINUOUS
 70
0
 71
3
 72
9
 73
5
 74
0
 42
0.0000001
 43
0.0000001
 44
0.0000000001
 40
0.0
 40
0.0
 40
0.0
 40
0.0
 40
0.2405220257
 40
1.0
 40
1.0
 40
1.0
 40
1.0
 10
347.3298176731
 20
285.1914078578
 30
0.0
 10
347.2796680698
 20
285.162454144
 30
0.0
 10
347.0521436501
 20
285.0807211775
 30
0.0
 10
346.7810650983
 20
285.099982376
 30
0.0
 10
346.6227108786
 20
285.1914061581
 30
0.0
  0
SPLINE
  5
323
100
AcDbEntity
  8
0
100
AcDbSpline
 62
7
  6
CONTINUOUS
 70
0
 71
3
 72
9
 73
5
 74
0
 42
0.0000001
 43
0.0000001
 44
0.0000000001
 40
0.0
 40
0.0
 40
0.0
 40
0.0
 40
0.277845252
 40
1.0
 40
1.0
 40
1.0
 40
1.0
 10
316.9241024358
 20
302.3375178403
 30
0.0
 10
316.9092646575
 20
302.3460842419
 30
0.0
 10
316.8578471954
 20
302.3797644996
 30
0.0
 10
316.8132357363
 20
302.4270659612
 30
0.0
 10
316.7944734514
 20
302.4674515083
 30
0.0
  0
SPLINE
  5
324
100
AcDbEntity
  8
0
100
AcDbSpline
 62
7
  6
CONTINUOUS
 70
0
 71
3
 72
8
 73
4
 74
0
 42
0.0000001
 43
0.0000001
 44
0.0000000001
 40
0.0
 40
0.0
 40
0.0
 40
0.0
 40
1.0
 40
1.0
 40
1.0
 40
1.0
 10
316.7944734514
 20
302.4674515083
 30
0.0
 10
316.7837883386
 20
302.4904510592
 30
0.0
 10
316.7776082183
 20
302.5162795109
 30
0.0
 10
316.7776082054
 20
302.5416399324
 30
0.0
  0
SPLINE
  5
325
100
AcDbEntity
  8
0
100
AcDbSpline
 62
7
  6
CONTINUOUS
 70
0
 71
3
 72
9
 73
5
 74
0
 42
0.0000001
 43
0.0000001
 44
0.0000000001
 40
0.0
 40
0.0
 40
0.0
 40
0.0
 40
0.2405220257
 40
1.0
 40
1.0
 40
1.0
 40
1.0
 10
329.6520745444
 20
295.3974267208
 30
0.0
 10
329.6019249411
 20
295.368473007
 30
0.0
 10
329.3744005215
 20
295.2867400405
 30
0.0
 10
329.1033219696
 20
295.306001239
 30
0.0
 10
328.9449677499
 20
295.3974250211
 30
0.0
  0
SPLINE
  5
326
100
AcDbEntity
  8
0
100
AcDbSpline
 62
7
  6
CONTINUOUS
 70
0
 71
3
 72
9
 73
5
 74
0
 42
0.0000001
 43
0.0000001
 44
0.0000000001
 40
0.0
 40
0.0
 40
0.0
 40
0.0
 40
0.277845252
 40
1.0
 40
1.0
 40
1.0
 40
1.0
 10
299.2463593071
 20
312.5435367033
 30
0.0
 10
299.2315215288
 20
312.5521031049
 30
0.0
 10
299.1801040668
 20
312.5857833626
 30
0.0
 10
299.1354926076
 20
312.6330848242
 30
0.0
 10
299.1167303227
 20
312.6734703714
 30
0.0
  0
SPLINE
  5
327
100
AcDbEntity
  8
0
100
AcDbSpline
 62
7
  6
CONTINUOUS
 70
0
 71
3
 72
8
 73
4
 74
0
 42
0.0000001
 43
0.0000001
 44
0.0000000001
 40
0.0
 40
0.0
 40
0.0
 40
0.0
 40
1.0
 40
1.0
 40
1.0
 40
1.0
 10
299.1167303227
 20
312.6734703714
 30
0.0
 10
299.1060452099
 20
312.6964699222
 30
0.0
 10
299.0998650896
 20
312.7222983739
 30
0.0
 10
299.0998650768
 20
312.7476587954
 30
0.0
  0
SPLINE
  5
328
100
AcDbEntity
  8
0
100
AcDbSpline
 62
7
  6
CONTINUOUS
 70
0
 71
3
 72
9
 73
5
 74
0
 42
0.0000001
 43
0.0000001
 44
0.0000000001
 40
0.0
 40
0.0
 40
0.0
 40
0.0
 40
0.2405220257
 40
1.0
 40
1.0
 40
1.0
 40
1.0
 10
311.9743314158
 20
305.6034455838
 30
0.0
 10
311.9241818125
 20
305.57449187
 30
0.0
 10
311.6966573928
 20
305.4927589035
 30
0.0
 10
311.425578841
 20
305.512020102
 30
0.0
 10
311.2672246212
 20
305.6034438841
 30
0.0
  0
SPLINE
  5
329
100
AcDbEntity
  8
0
100
AcDbSpline
 62
7
  6
CONTINUOUS
 70
0
 71
3
 72
9
 73
5
 74
0
 42
0.0000001
 43
0.0000001
 44
0.0000000001
 40
0.0
 40
0.0
 40
0.0
 40
0.0
 40
0.277845252
 40
1.0
 40
1.0
 40
1.0
 40
1.0
 10
281.5686161784
 20
322.7495555663
 30
0.0
 10
281.5537784001
 20
322.7581219679
 30
0.0
 10
281.5023609381
 20
322.7918022256
 30
0.0
 10
281.457749479
 20
322.8391036872
 30
0.0
 10
281.438987194
 20
322.8794892344
 30
0.0
  0
SPLINE
  5
32A
100
AcDbEntity
  8
0
100
AcDbSpline
 62
7
  6
CONTINUOUS
 70
0
 71
3
 72
8
 73
4
 74
0
 42
0.0000001
 43
0.0000001
 44
0.0000000001
 40
0.0
 40
0.0
 40
0.0
 40
0.0
 40
1.0
 40
1.0
 40
1.0
 40
1.0
 10
281.438987194
 20
322.8794892344
 30
0.0
 10
281.4283020812
 20
322.9024887852
 30
0.0
 10
281.4221219609
 20
322.928317237
 30
0.0
 10
281.4221219481
 20
322.9536776584
 30
0.0
  0
SPLINE
  5
32B
100
AcDbEntity
  8
0
100
AcDbSpline
 62
7
  6
CONTINUOUS
 70
0
 71
3
 72
9
 73
5
 74
0
 42
0.0000001
 43
0.0000001
 44
0.0000000001
 40
0.0
 40
0.0
 40
0.0
 40
0.0
 40
0.2405220257
 40
1.0
 40
1.0
 40
1.0
 40
1.0
 10
294.2965882871
 20
315.8094644468
 30
0.0
 10
294.2464386838
 20
315.780510733
 30
0.0
 10
294.0189142641
 20
315.6987777665
 30
0.0
 10
293.7478357123
 20
315.718038965
 30
0.0
 10
293.5894814926
 20
315.8094627472
 30
0.0
  0
SPLINE
  5
32C
100
AcDbEntity
  8
0
100
AcDbSpline
 62
7
  6
CONTINUOUS
 70
0
 71
3
 72
9
 73
5
 74
0
 42
0.0000001
 43
0.0000001
 44
0.0000000001
 40
0.0
 40
0.0
 40
0.0
 40
0.0
 40
0.277845252
 40
1.0
 40
1.0
 40
1.0
 40
1.0
 10
263.8908730497
 20
332.9555744293
 30
0.0
 10
263.8760352714
 20
332.9641408309
 30
0.0
 10
263.8246178094
 20
332.9978210886
 30
0.0
 10
263.7800063503
 20
333.0451225502
 30
0.0
 10
263.7612440654
 20
333.0855080974
 30
0.0
  0
SPLINE
  5
32D
100
AcDbEntity
  8
0
100
AcDbSpline
 62
7
  6
CONTINUOUS
 70
0
 71
3
 72
8
 73
4
 74
0
 42
0.0000001
 43
0.0000001
 44
0.0000000001
 40
0.0
 40
0.0
 40
0.0
 40
0.0
 40
1.0
 40
1.0
 40
1.0
 40
1.0
 10
263.7612440654
 20
333.0855080974
 30
0.0
 10
263.7505589526
 20
333.1085076482
 30
0.0
 10
263.7443788323
 20
333.1343361
 30
0.0
 10
263.7443788194
 20
333.1596965214
 30
0.0
  0
SPLINE
  5
32E
100
AcDbEntity
  8
0
100
AcDbSpline
 62
7
  6
CONTINUOUS
 70
0
 71
3
 72
9
 73
5
 74
0
 42
0.0000001
 43
0.0000001
 44
0.0000000001
 40
0.0
 40
0.0
 40
0.0
 40
0.0
 40
0.2405220257
 40
1.0
 40
1.0
 40
1.0
 40
1.0
 10
276.6188451584
 20
326.0154833098
 30
0.0
 10
276.5686955551
 20
325.986529596
 30
0.0
 10
276.3411711354
 20
325.9047966295
 30
0.0
 10
276.0700925836
 20
325.924057828
 30
0.0
 10
275.9117383639
 20
326.0154816102
 30
0.0
  0
SPLINE
  5
32F
100
AcDbEntity
  8
0
100
AcDbSpline
 62
7
  6
CONTINUOUS
 70
0
 71
3
 72
9
 73
5
 74
0
 42
0.0000001
 43
0.0000001
 44
0.0000000001
 40
0.0
 40
0.0
 40
0.0
 40
0.0
 40
0.277845252
 40
1.0
 40
1.0
 40
1.0
 40
1.0
 10
246.2131299211
 20
343.1615932923
 30
0.0
 10
246.1982921428
 20
343.1701596939
 30
0.0
 10
246.1468746807
 20
343.2038399516
 30
0.0
 10
246.1022632216
 20
343.2511414132
 30
0.0
 10
246.0835009367
 20
343.2915269604
 30
0.0
  0
SPLINE
  5
330
100
AcDbEntity
  8
0
100
AcDbSpline
 62
7
  6
CONTINUOUS
 70
0
 71
3
 72
8
 73
4
 74
0
 42
0.0000001
 43
0.0000001
 44
0.0000000001
 40
0.0
 40
0.0
 40
0.0
 40
0.0
 40
1.0
 40
1.0
 40
1.0
 40
1.0
 10
246.0835009367
 20
343.2915269604
 30
0.0
 10
246.0728158239
 20
343.3145265112
 30
0.0
 10
246.0666357036
 20
343.340354963
 30
0.0
 10
246.0666356907
 20
343.3657153844
 30
0.0
  0
SPLINE
  5
331
100
AcDbEntity
  8
0
100
AcDbSpline
 62
7
  6
CONTINUOUS
 70
0
 71
3
 72
9
 73
5
 74
0
 42
0.0000001
 43
0.0000001
 44
0.0000000001
 40
0.0
 40
0.0
 40
0.0
 40
0.0
 40
0.2405220257
 40
1.0
 40
1.0
 40
1.0
 40
1.0
 10
258.9411020297
 20
336.2215021728
 30
0.0
 10
258.8909524264
 20
336.192548459
 30
0.0
 10
258.6634280068
 20
336.1108154925
 30
0.0
 10
258.3923494549
 20
336.130076691
 30
0.0
 10
258.2339952352
 20
336.2215004732
 30
0.0
  0
SPLINE
  5
332
100
AcDbEntity
  8
0
100
AcDbSpline
 62
7
  6
CONTINUOUS
 70
0
 71
3
 72
9
 73
5
 74
0
 42
0.0000001
 43
0.0000001
 44
0.0000000001
 40
0.0
 40
0.0
 40
0.0
 40
0.0
 40
0.277845252
 40
1.0
 40
1.0
 40
1.0
 40
1.0
 10
228.5353867924
 20
353.3676121553
 30
0.0
 10
228.5205490141
 20
353.3761785569
 30
0.0
 10
228.4691315521
 20
353.4098588146
 30
0.0
 10
228.4245200929
 20
353.4571602762
 30
0.0
 10
228.405757808
 20
353.4975458234
 30
0.0
  0
SPLINE
  5
333
100
AcDbEntity
  8
0
100
AcDbSpline
 62
7
  6
CONTINUOUS
 70
0
 71
3
 72
8
 73
4
 74
0
 42
0.0000001
 43
0.0000001
 44
0.0000000001
 40
0.0
 40
0.0
 40
0.0
 40
0.0
 40
1.0
 40
1.0
 40
1.0
 40
1.0
 10
228.405757808
 20
353.4975458234
 30
0.0
 10
228.3950726952
 20
353.5205453743
 30
0.0
 10
228.3888925749
 20
353.546373826
 30
0.0
 10
228.3888925621
 20
353.5717342474
 30
0.0
  0
SPLINE
  5
334
100
AcDbEntity
  8
0
100
AcDbSpline
 62
7
  6
CONTINUOUS
 70
0
 71
3
 72
9
 73
5
 74
0
 42
0.0000001
 43
0.0000001
 44
0.0000000001
 40
0.0
 40
0.0
 40
0.0
 40
0.0
 40
0.2405220257
 40
1.0
 40
1.0
 40
1.0
 40
1.0
 10
241.2633589011
 20
346.4275210359
 30
0.0
 10
241.2132092978
 20
346.398567322
 30
0.0
 10
240.9856848781
 20
346.3168343555
 30
0.0
 10
240.7146063263
 20
346.336095554
 30
0.0
 10
240.5562521065
 20
346.4275193362
 30
0.0
  0
SPLINE
  5
335
100
AcDbEntity
  8
0
100
AcDbSpline
 62
7
  6
CONTINUOUS
 70
0
 71
3
 72
9
 73
5
 74
0
 42
0.0000001
 43
0.0000001
 44
0.0000000001
 40
0.0
 40
0.0
 40
0.0
 40
0.0
 40
0.277845252
 40
1.0
 40
1.0
 40
1.0
 40
1.0
 10
210.8576436637
 20
363.5736310183
 30
0.0
 10
210.8428058854
 20
363.5821974199
 30
0.0
 10
210.7913884234
 20
363.6158776776
 30
0.0
 10
210.7467769643
 20
363.6631791392
 30
0.0
 10
210.7280146793
 20
363.7035646864
 30
0.0
  0
SPLINE
  5
336
100
AcDbEntity
  8
0
100
AcDbSpline
 62
7
  6
CONTINUOUS
 70
0
 71
3
 72
8
 73
4
 74
0
 42
0.0000001
 43
0.0000001
 44
0.0000000001
 40
0.0
 40
0.0
 40
0.0
 40
0.0
 40
1.0
 40
1.0
 40
1.0
 40
1.0
 10
210.7280146793
 20
363.7035646864
 30
0.0
 10
210.7173295665
 20
363.7265642373
 30
0.0
 10
210.7111494462
 20
363.752392689
 30
0.0
 10
210.7111494334
 20
363.7777531104
 30
0.0
  0
SPLINE
  5
337
100
AcDbEntity
  8
0
100
AcDbSpline
 62
7
  6
CONTINUOUS
 70
0
 71
3
 72
9
 73
5
 74
0
 42
0.0000001
 43
0.0000001
 44
0.0000000001
 40
0.0
 40
0.0
 40
0.0
 40
0.0
 40
0.2405220257
 40
1.0
 40
1.0
 40
1.0
 40
1.0
 10
223.5856157724
 20
356.6335398989
 30
0.0
 10
223.5354661691
 20
356.604586185
 30
0.0
 10
223.3079417494
 20
356.5228532185
 30
0.0
 10
223.0368631976
 20
356.542114417
 30
0.0
 10
222.8785089779
 20
356.6335381992
 30
0.0
  0
SPLINE
  5
338
100
AcDbEntity
  8
0
100
AcDbSpline
 62
7
  6
CONTINUOUS
 70
0
 71
3
 72
9
 73
5
 74
0
 42
0.0000001
 43
0.0000001
 44
0.0000000001
 40
0.0
 40
0.0
 40
0.0
 40
0.0
 40
0.277845252
 40
1.0
 40
1.0
 40
1.0
 40
1.0
 10
193.179900535
 20
373.7796498813
 30
0.0
 10
193.1650627567
 20
373.7882162829
 30
0.0
 10
193.1136452947
 20
373.8218965406
 30
0.0
 10
193.0690338356
 20
373.8691980023
 30
0.0
 10
193.0502715507
 20
373.9095835494
 30
0.0
  0
SPLINE
  5
339
100
AcDbEntity
  8
0
100
AcDbSpline
 62
7
  6
CONTINUOUS
 70
0
 71
3
 72
8
 73
4
 74
0
 42
0.0000001
 43
0.0000001
 44
0.0000000001
 40
0.0
 40
0.0
 40
0.0
 40
0.0
 40
1.0
 40
1.0
 40
1.0
 40
1.0
 10
193.0502715507
 20
373.9095835494
 30
0.0
 10
193.0395864379
 20
373.9325831003
 30
0.0
 10
193.0334063176
 20
373.958411552
 30
0.0
 10
193.0334063047
 20
373.9837719734
 30
0.0
  0
SPLINE
  5
33A
100
AcDbEntity
  8
0
100
AcDbSpline
 62
7
  6
CONTINUOUS
 70
0
 71
3
 72
9
 73
5
 74
0
 42
0.0000001
 43
0.0000001
 44
0.0000000001
 40
0.0
 40
0.0
 40
0.0
 40
0.0
 40
0.2405220257
 40
1.0
 40
1.0
 40
1.0
 40
1.0
 10
205.9078726437
 20
366.8395587619
 30
0.0
 10
205.8577230404
 20
366.810605048
 30
0.0
 10
205.6301986207
 20
366.7288720815
 30
0.0
 10
205.3591200689
 20
366.74813328
 30
0.0
 10
205.2007658492
 20
366.8395570622
 30
0.0
  0
SPLINE
  5
33B
100
AcDbEntity
  8
0
100
AcDbSpline
 62
7
  6
CONTINUOUS
 70
0
 71
3
 72
9
 73
5
 74
0
 42
0.0000001
 43
0.0000001
 44
0.0000000001
 40
0.0
 40
0.0
 40
0.0
 40
0.0
 40
0.277845252
 40
1.0
 40
1.0
 40
1.0
 40
1.0
 10
175.5021574064
 20
383.9856687443
 30
0.0
 10
175.4873196281
 20
383.9942351459
 30
0.0
 10
175.435902166
 20
384.0279154036
 30
0.0
 10
175.3912907069
 20
384.0752168653
 30
0.0
 10
175.372528422
 20
384.1156024124
 30
0.0
  0
SPLINE
  5
33C
100
AcDbEntity
  8
0
100
AcDbSpline
 62
7
  6
CONTINUOUS
 70
0
 71
3
 72
8
 73
4
 74
0
 42
0.0000001
 43
0.0000001
 44
0.0000000001
 40
0.0
 40
0.0
 40
0.0
 40
0.0
 40
1.0
 40
1.0
 40
1.0
 40
1.0
 10
175.372528422
 20
384.1156024124
 30
0.0
 10
175.3618433092
 20
384.1386019633
 30
0.0
 10
175.3556631889
 20
384.164430415
 30
0.0
 10
175.355663176
 20
384.1897908364
 30
0.0
  0
SPLINE
  5
33D
100
AcDbEntity
  8
0
100
AcDbSpline
 62
7
  6
CONTINUOUS
 70
0
 71
3
 72
9
 73
5
 74
0
 42
0.0000001
 43
0.0000001
 44
0.0000000001
 40
0.0
 40
0.0
 40
0.0
 40
0.0
 40
0.2405220257
 40
1.0
 40
1.0
 40
1.0
 40
1.0
 10
188.230129515
 20
377.0455776249
 30
0.0
 10
188.1799799117
 20
377.016623911
 30
0.0
 10
187.9524554921
 20
376.9348909445
 30
0.0
 10
187.6813769402
 20
376.954152143
 30
0.0
 10
187.5230227205
 20
377.0455759252
 30
0.0
  0
SPLINE
  5
33E
100
AcDbEntity
  8
0
100
AcDbSpline
 62
7
  6
CONTINUOUS
 70
0
 71
3
 72
9
 73
5
 74
0
 42
0.0000001
 43
0.0000001
 44
0.0000000001
 40
0.0
 40
0.0
 40
0.0
 40
0.0
 40
0.277845252
 40
1.0
 40
1.0
 40
1.0
 40
1.0
 10
157.8244142777
 20
394.1916876073
 30
0.0
 10
157.8095764994
 20
394.2002540089
 30
0.0
 10
157.7581590374
 20
394.2339342666
 30
0.0
 10
157.7135475782
 20
394.2812357283
 30
0.0
 10
157.6947852933
 20
394.3216212754
 30
0.0
  0
SPLINE
  5
33F
100
AcDbEntity
  8
0
100
AcDbSpline
 62
7
  6
CONTINUOUS
 70
0
 71
3
 72
8
 73
4
 74
0
 42
0.0000001
 43
0.0000001
 44
0.0000000001
 40
0.0
 40
0.0
 40
0.0
 40
0.0
 40
1.0
 40
1.0
 40
1.0
 40
1.0
 10
157.6947852933
 20
394.3216212754
 30
0.0
 10
157.6841001805
 20
394.3446208263
 30
0.0
 10
157.6779200602
 20
394.370449278
 30
0.0
 10
157.6779200474
 20
394.3958096995
 30
0.0
  0
SPLINE
  5
340
100
AcDbEntity
  8
0
100
AcDbSpline
 62
7
  6
CONTINUOUS
 70
0
 71
3
 72
9
 73
5
 74
0
 42
0.0000001
 43
0.0000001
 44
0.0000000001
 40
0.0
 40
0.0
 40
0.0
 40
0.0
 40
0.2405220257
 40
1.0
 40
1.0
 40
1.0
 40
1.0
 10
170.5523863864
 20
387.2515964879
 30
0.0
 10
170.5022367831
 20
387.222642774
 30
0.0
 10
170.2747123634
 20
387.1409098075
 30
0.0
 10
170.0036338116
 20
387.160171006
 30
0.0
 10
169.8452795918
 20
387.2515947882
 30
0.0
  0
SPLINE
  5
341
100
AcDbEntity
  8
0
100
AcDbSpline
 62
7
  6
CONTINUOUS
 70
0
 71
3
 72
9
 73
5
 74
0
 42
0.0000001
 43
0.0000001
 44
0.0000000001
 40
0.0
 40
0.0
 40
0.0
 40
0.0
 40
0.277845252
 40
1.0
 40
1.0
 40
1.0
 40
1.0
 10
140.146671149
 20
404.3977064704
 30
0.0
 10
140.1318333707
 20
404.4062728719
 30
0.0
 10
140.0804159087
 20
404.4399531297
 30
0.0
 10
140.0358044496
 20
404.4872545913
 30
0.0
 10
140.0170421646
 20
404.5276401384
 30
0.0
  0
SPLINE
  5
342
100
AcDbEntity
  8
0
100
AcDbSpline
 62
7
  6
CONTINUOUS
 70
0
 71
3
 72
8
 73
4
 74
0
 42
0.0000001
 43
0.0000001
 44
0.0000000001
 40
0.0
 40
0.0
 40
0.0
 40
0.0
 40
1.0
 40
1.0
 40
1.0
 40
1.0
 10
140.0170421646
 20
404.5276401384
 30
0.0
 10
140.0063570518
 20
404.5506396893
 30
0.0
 10
140.0001769315
 20
404.576468141
 30
0.0
 10
140.0001769187
 20
404.6018285625
 30
0.0
  0
SPLINE
  5
343
100
AcDbEntity
  8
0
100
AcDbSpline
 62
7
  6
CONTINUOUS
 70
0
 71
3
 72
9
 73
5
 74
0
 42
0.0000001
 43
0.0000001
 44
0.0000000001
 40
0.0
 40
0.0
 40
0.0
 40
0.0
 40
0.2405220257
 40
1.0
 40
1.0
 40
1.0
 40
1.0
 10
152.8746432577
 20
397.4576153509
 30
0.0
 10
152.8244936544
 20
397.4286616371
 30
0.0
 10
152.5969692347
 20
397.3469286705
 30
0.0
 10
152.3258906829
 20
397.366189869
 30
0.0
 10
152.1675364632
 20
397.4576136512
 30
0.0
  0
SPLINE
  5
344
100
AcDbEntity
  8
0
100
AcDbSpline
 62
7
  6
CONTINUOUS
 70
0
 71
3
 72
9
 73
5
 74
0
 42
0.0000001
 43
0.0000001
 44
0.0000000001
 40
0.0
 40
0.0
 40
0.0
 40
0.0
 40
0.277845252
 40
1.0
 40
1.0
 40
1.0
 40
1.0
 10
122.4689280203
 20
414.6037253334
 30
0.0
 10
122.454090242
 20
414.612291735
 30
0.0
 10
122.40267278
 20
414.6459719927
 30
0.0
 10
122.3580613209
 20
414.6932734543
 30
0.0
 10
122.339299036
 20
414.7336590014
 30
0.0
  0
SPLINE
  5
345
100
AcDbEntity
  8
0
100
AcDbSpline
 62
7
  6
CONTINUOUS
 70
0
 71
3
 72
8
 73
4
 74
0
 42
0.0000001
 43
0.0000001
 44
0.0000000001
 40
0.0
 40
0.0
 40
0.0
 40
0.0
 40
1.0
 40
1.0
 40
1.0
 40
1.0
 10
122.339299036
 20
414.7336590014
 30
0.0
 10
122.3286139232
 20
414.7566585523
 30
0.0
 10
122.3224338029
 20
414.782487004
 30
0.0
 10
122.32243379
 20
414.8078474255
 30
0.0
  0
SPLINE
  5
346
100
AcDbEntity
  8
0
100
AcDbSpline
 62
7
  6
CONTINUOUS
 70
0
 71
3
 72
9
 73
5
 74
0
 42
0.0000001
 43
0.0000001
 44
0.0000000001
 40
0.0
 40
0.0
 40
0.0
 40
0.0
 40
0.2405220257
 40
1.0
 40
1.0
 40
1.0
 40
1.0
 10
135.196900129
 20
407.6636342139
 30
0.0
 10
135.1467505257
 20
407.6346805001
 30
0.0
 10
134.9192261061
 20
407.5529475335
 30
0.0
 10
134.6481475542
 20
407.5722087321
 30
0.0
 10
134.4897933345
 20
407.6636325142
 30
0.0
  0
SPLINE
  5
347
100
AcDbEntity
  8
0
100
AcDbSpline
 62
7
  6
CONTINUOUS
 70
0
 71
3
 72
9
 73
5
 74
0
 42
0.0000001
 43
0.0000001
 44
0.0000000001
 40
0.0
 40
0.0
 40
0.0
 40
0.0
 40
0.277845252
 40
1.0
 40
1.0
 40
1.0
 40
1.0
 10
104.7911848917
 20
424.8097441964
 30
0.0
 10
104.7763471134
 20
424.818310598
 30
0.0
 10
104.7249296513
 20
424.8519908557
 30
0.0
 10
104.6803181922
 20
424.8992923173
 30
0.0
 10
104.6615559073
 20
424.9396778644
 30
0.0
  0
SPLINE
  5
348
100
AcDbEntity
  8
0
100
AcDbSpline
 62
7
  6
CONTINUOUS
 70
0
 71
3
 72
8
 73
4
 74
0
 42
0.0000001
 43
0.0000001
 44
0.0000000001
 40
0.0
 40
0.0
 40
0.0
 40
0.0
 40
1.0
 40
1.0
 40
1.0
 40
1.0
 10
104.6615559073
 20
424.9396778644
 30
0.0
 10
104.6508707945
 20
424.9626774153
 30
0.0
 10
104.6446906742
 20
424.988505867
 30
0.0
 10
104.6446906613
 20
425.0138662885
 30
0.0
  0
SPLINE
  5
349
100
AcDbEntity
  8
0
100
AcDbSpline
 62
7
  6
CONTINUOUS
 70
0
 71
3
 72
9
 73
5
 74
0
 42
0.0000001
 43
0.0000001
 44
0.0000000001
 40
0.0
 40
0.0
 40
0.0
 40
0.0
 40
0.2405220257
 40
1.0
 40
1.0
 40
1.0
 40
1.0
 10
117.5191570003
 20
417.8696530769
 30
0.0
 10
117.469007397
 20
417.8406993631
 30
0.0
 10
117.2414829774
 20
417.7589663966
 30
0.0
 10
116.9704044255
 20
417.7782275951
 30
0.0
 10
116.8120502058
 20
417.8696513772
 30
0.0
  0
SPLINE
  5
34A
100
AcDbEntity
  8
0
100
AcDbSpline
 62
7
  6
CONTINUOUS
 70
0
 71
3
 72
9
 73
5
 74
0
 42
0.0000001
 43
0.0000001
 44
0.0000000001
 40
0.0
 40
0.0
 40
0.0
 40
0.0
 40
0.277845252
 40
1.0
 40
1.0
 40
1.0
 40
1.0
 10
87.113441763
 20
435.0157630594
 30
0.0
 10
87.0986039847
 20
435.024329461
 30
0.0
 10
87.0471865227
 20
435.0580097187
 30
0.0
 10
87.0025750636
 20
435.1053111803
 30
0.0
 10
86.9838127786
 20
435.1456967274
 30
0.0
  0
SPLINE
  5
34B
100
AcDbEntity
  8
0
100
AcDbSpline
 62
7
  6
CONTINUOUS
 70
0
 71
3
 72
8
 73
4
 74
0
 42
0.0000001
 43
0.0000001
 44
0.0000000001
 40
0.0
 40
0.0
 40
0.0
 40
0.0
 40
1.0
 40
1.0
 40
1.0
 40
1.0
 10
86.9838127786
 20
435.1456967274
 30
0.0
 10
86.9731276658
 20
435.1686962783
 30
0.0
 10
86.9669475455
 20
435.19452473
 30
0.0
 10
86.9669475327
 20
435.2198851515
 30
0.0
  0
SPLINE
  5
34C
100
AcDbEntity
  8
0
100
AcDbSpline
 62
7
  6
CONTINUOUS
 70
0
 71
3
 72
9
 73
5
 74
0
 42
0.0000001
 43
0.0000001
 44
0.0000000001
 40
0.0
 40
0.0
 40
0.0
 40
0.0
 40
0.2405220257
 40
1.0
 40
1.0
 40
1.0
 40
1.0
 10
99.8414138717
 20
428.0756719399
 30
0.0
 10
99.7912642684
 20
428.0467182261
 30
0.0
 10
99.5637398487
 20
427.9649852596
 30
0.0
 10
99.2926612969
 20
427.9842464581
 30
0.0
 10
99.1343070771
 20
428.0756702402
 30
0.0
  0
SPLINE
  5
34D
100
AcDbEntity
  8
0
100
AcDbSpline
 62
7
  6
CONTINUOUS
 70
0
 71
3
 72
9
 73
5
 74
0
 42
0.0000001
 43
0.0000001
 44
0.0000000001
 40
0.0
 40
0.0
 40
0.0
 40
0.0
 40
0.277845252
 40
1.0
 40
1.0
 40
1.0
 40
1.0
 10
69.4356986343
 20
445.2217819224
 30
0.0
 10
69.420860856
 20
445.230348324
 30
0.0
 10
69.369443394
 20
445.2640285817
 30
0.0
 10
69.3248319349
 20
445.3113300433
 30
0.0
 10
69.3060696499
 20
445.3517155905
 30
0.0
  0
SPLINE
  5
34E
100
AcDbEntity
  8
0
100
AcDbSpline
 62
7
  6
CONTINUOUS
 70
0
 71
3
 72
8
 73
4
 74
0
 42
0.0000001
 43
0.0000001
 44
0.0000000001
 40
0.0
 40
0.0
 40
0.0
 40
0.0
 40
1.0
 40
1.0
 40
1.0
 40
1.0
 10
69.3060696499
 20
445.3517155905
 30
0.0
 10
69.2953845371
 20
445.3747151413
 30
0.0
 10
69.2892044168
 20
445.400543593
 30
0.0
 10
69.289204404
 20
445.4259040145
 30
0.0
  0
SPLINE
  5
34F
100
AcDbEntity
  8
0
100
AcDbSpline
 62
7
  6
CONTINUOUS
 70
0
 71
3
 72
9
 73
5
 74
0
 42
0.0000001
 43
0.0000001
 44
0.0000000001
 40
0.0
 40
0.0
 40
0.0
 40
0.0
 40
0.2405220257
 40
1.0
 40
1.0
 40
1.0
 40
1.0
 10
82.163670743
 20
438.2816908029
 30
0.0
 10
82.1135211397
 20
438.2527370891
 30
0.0
 10
81.88599672
 20
438.1710041226
 30
0.0
 10
81.6149181682
 20
438.1902653211
 30
0.0
 10
81.4565639485
 20
438.2816891032
 30
0.0
  0
SPLINE
  5
350
100
AcDbEntity
  8
0
100
AcDbSpline
 62
7
  6
CONTINUOUS
 70
0
 71
3
 72
9
 73
5
 74
0
 42
0.0000001
 43
0.0000001
 44
0.0000000001
 40
0.0
 40
0.0
 40
0.0
 40
0.0
 40
0.2390726762
 40
1.0
 40
1.0
 40
1.0
 40
1.0
 10
62.9320101556
 20
444.4132053226
 30
0.0
 10
62.9711152342
 20
444.4029580212
 30
0.0
 10
63.1371957984
 20
444.3697007409
 30
0.0
 10
63.3097862094
 20
444.3749131285
 30
0.0
 10
63.4368547131
 20
444.39513282
 30
0.0
  0
SPLINE
  5
351
100
AcDbEntity
  8
0
100
AcDbSpline
 62
7
  6
CONTINUOUS
 70
0
 71
3
 72
9
 73
5
 74
0
 42
0.0000001
 43
0.0000001
 44
0.0000000001
 40
0.0
 40
0.0
 40
0.0
 40
0.0
 40
0.4502218054
 40
1.0
 40
1.0
 40
1.0
 40
1.0
 10
63.4368547131
 20
444.39513282
 30
0.0
 10
63.9673593443
 20
444.4795490182
 30
0.0
 10
65.0192802585
 20
445.2169998311
 30
0.0
 10
65.6628774964
 20
446.243196751
 30
0.0
 10
65.9001529459
 20
446.8547432446
 30
0.0
  0
SPLINE
  5
352
100
AcDbEntity
  8
0
100
AcDbSpline
 62
7
  6
CONTINUOUS
 70
0
 71
3
 72
9
 73
5
 74
0
 42
0.0000001
 43
0.0000001
 44
0.0000000001
 40
0.0
 40
0.0
 40
0.0
 40
0.0
 40
0.2405228133
 40
1.0
 40
1.0
 40
1.0
 40
1.0
 10
409.5554411024
 20
252.9403860313
 30
0.0
 10
409.5052911286
 20
252.9693394769
 30
0.0
 10
409.2777663577
 20
253.0510711275
 30
0.0
 10
409.0066876962
 20
253.0318091564
 30
0.0
 10
408.8483343079
 20
252.9403843317
 30
0.0
  0
SPLINE
  5
353
100
AcDbEntity
  8
0
100
AcDbSpline
 62
7
  6
CONTINUOUS
 70
0
 71
3
 72
12
 73
8
 74
0
 42
0.0000001
 43
0.0000001
 44
0.0000000001
 40
0.0
 40
0.0
 40
0.0
 40
0.0
 40
0.1822474532
 40
0.2922566316
 40
0.4167444499
 40
0.699577893
 40
1.0
 40
1.0
 40
1.0
 40
1.0
 10
424.6387366257
 20
244.5271076801
 30
0.0
 10
424.868117505
 20
244.3943324537
 30
0.0
 10
425.3366111605
 20
244.3551426666
 30
0.0
 10
425.9081324988
 20
244.5589676439
 30
0.0
 10
426.5557103481
 20
244.9529675964
 30
0.0
 10
427.2754264933
 20
245.7109794562
 30
0.0
 10
427.6917175448
 20
246.4617362886
 30
0.0
 10
427.8497515211
 20
246.8690482304
 30
0.0
  0
SPLINE
  5
354
100
AcDbEntity
  8
0
100
AcDbSpline
 62
7
  6
CONTINUOUS
 70
0
 71
3
 72
9
 73
5
 74
0
 42
0.0000001
 43
0.0000001
 44
0.0000000001
 40
0.0
 40
0.0
 40
0.0
 40
0.0
 40
0.2405228133
 40
1.0
 40
1.0
 40
1.0
 40
1.0
 10
391.8776979737
 20
263.1464048943
 30
0.0
 10
391.8275479999
 20
263.1753583399
 30
0.0
 10
391.6000232291
 20
263.2570899905
 30
0.0
 10
391.3289445675
 20
263.2378280194
 30
0.0
 10
391.1705911792
 20
263.1464031947
 30
0.0
  0
SPLINE
  5
355
100
AcDbEntity
  8
0
100
AcDbSpline
 62
7
  6
CONTINUOUS
 70
0
 71
3
 72
9
 73
5
 74
0
 42
0.0000001
 43
0.0000001
 44
0.0000000001
 40
0.0
 40
0.0
 40
0.0
 40
0.0
 40
0.2405228133
 40
1.0
 40
1.0
 40
1.0
 40
1.0
 10
374.1999548451
 20
273.3524237574
 30
0.0
 10
374.1498048713
 20
273.3813772029
 30
0.0
 10
373.9222801004
 20
273.4631088535
 30
0.0
 10
373.6512014388
 20
273.4438468824
 30
0.0
 10
373.4928480505
 20
273.3524220577
 30
0.0
  0
SPLINE
  5
356
100
AcDbEntity
  8
0
100
AcDbSpline
 62
7
  6
CONTINUOUS
 70
0
 71
3
 72
9
 73
5
 74
0
 42
0.0000001
 43
0.0000001
 44
0.0000000001
 40
0.0
 40
0.0
 40
0.0
 40
0.0
 40
0.2208527039
 40
1.0
 40
1.0
 40
1.0
 40
1.0
 10
85.8456812021
 20
440.5270319344
 30
0.0
 10
85.8456812117
 20
440.5079966987
 30
0.0
 10
85.8302458671
 20
440.4212206418
 30
0.0
 10
85.7573475032
 20
440.3564886633
 30
0.0
 10
85.6991899157
 20
440.3229115646
 30
0.0
  0
SPLINE
  5
357
100
AcDbEntity
  8
0
100
AcDbSpline
 62
7
  6
CONTINUOUS
 70
0
 71
3
 72
9
 73
5
 74
0
 42
0.0000001
 43
0.0000001
 44
0.0000000001
 40
0.0
 40
0.0
 40
0.0
 40
0.0
 40
0.2405228133
 40
1.0
 40
1.0
 40
1.0
 40
1.0
 10
356.5222117164
 20
283.5584426204
 30
0.0
 10
356.4720617426
 20
283.5873960659
 30
0.0
 10
356.2445369717
 20
283.6691277166
 30
0.0
 10
355.9734583102
 20
283.6498657454
 30
0.0
 10
355.8151049219
 20
283.5584409207
 30
0.0
  0
SPLINE
  5
358
100
AcDbEntity
  8
0
100
AcDbSpline
 62
7
  6
CONTINUOUS
 70
0
 71
3
 72
9
 73
5
 74
0
 42
0.0000001
 43
0.0000001
 44
0.0000000001
 40
0.0
 40
0.0
 40
0.0
 40
0.0
 40
0.2208527039
 40
1.0
 40
1.0
 40
1.0
 40
1.0
 10
103.5234243307
 20
430.3210130714
 30
0.0
 10
103.5234243404
 20
430.3019778357
 30
0.0
 10
103.5079889957
 20
430.2152017788
 30
0.0
 10
103.4350906319
 20
430.1504698003
 30
0.0
 10
103.3769330444
 20
430.1168927016
 30
0.0
  0
SPLINE
  5
359
100
AcDbEntity
  8
0
100
AcDbSpline
 62
7
  6
CONTINUOUS
 70
0
 71
3
 72
9
 73
5
 74
0
 42
0.0000001
 43
0.0000001
 44
0.0000000001
 40
0.0
 40
0.0
 40
0.0
 40
0.0
 40
0.2405228133
 40
1.0
 40
1.0
 40
1.0
 40
1.0
 10
338.8444685877
 20
293.7644614834
 30
0.0
 10
338.7943186139
 20
293.7934149289
 30
0.0
 10
338.566793843
 20
293.8751465796
 30
0.0
 10
338.2957151815
 20
293.8558846084
 30
0.0
 10
338.1373617932
 20
293.7644597837
 30
0.0
  0
SPLINE
  5
35A
100
AcDbEntity
  8
0
100
AcDbSpline
 62
7
  6
CONTINUOUS
 70
0
 71
3
 72
9
 73
5
 74
0
 42
0.0000001
 43
0.0000001
 44
0.0000000001
 40
0.0
 40
0.0
 40
0.0
 40
0.0
 40
0.2405228133
 40
1.0
 40
1.0
 40
1.0
 40
1.0
 10
321.166725459
 20
303.9704803464
 30
0.0
 10
321.1165754852
 20
303.9994337919
 30
0.0
 10
320.8890507144
 20
304.0811654426
 30
0.0
 10
320.6179720528
 20
304.0619034714
 30
0.0
 10
320.4596186645
 20
303.9704786467
 30
0.0
  0
SPLINE
  5
35B
100
AcDbEntity
  8
0
100
AcDbSpline
 62
7
  6
CONTINUOUS
 70
0
 71
3
 72
9
 73
5
 74
0
 42
0.0000001
 43
0.0000001
 44
0.0000000001
 40
0.0
 40
0.0
 40
0.0
 40
0.0
 40
0.2208527039
 40
1.0
 40
1.0
 40
1.0
 40
1.0
 10
121.2011674594
 20
420.1149942084
 30
0.0
 10
121.2011674691
 20
420.0959589727
 30
0.0
 10
121.1857321244
 20
420.0091829158
 30
0.0
 10
121.1128337606
 20
419.9444509373
 30
0.0
 10
121.0546761731
 20
419.9108738386
 30
0.0
  0
SPLINE
  5
35C
100
AcDbEntity
  8
0
100
AcDbSpline
 62
7
  6
CONTINUOUS
 70
0
 71
3
 72
9
 73
5
 74
0
 42
0.0000001
 43
0.0000001
 44
0.0000000001
 40
0.0
 40
0.0
 40
0.0
 40
0.0
 40
0.2405228133
 40
1.0
 40
1.0
 40
1.0
 40
1.0
 10
303.4889823304
 20
314.1764992094
 30
0.0
 10
303.4388323566
 20
314.205452655
 30
0.0
 10
303.2113075857
 20
314.2871843056
 30
0.0
 10
302.9402289241
 20
314.2679223344
 30
0.0
 10
302.7818755358
 20
314.1764975097
 30
0.0
  0
SPLINE
  5
35D
100
AcDbEntity
  8
0
100
AcDbSpline
 62
7
  6
CONTINUOUS
 70
0
 71
3
 72
9
 73
5
 74
0
 42
0.0000001
 43
0.0000001
 44
0.0000000001
 40
0.0
 40
0.0
 40
0.0
 40
0.0
 40
0.2208527039
 40
1.0
 40
1.0
 40
1.0
 40
1.0
 10
138.8789105881
 20
409.9089753454
 30
0.0
 10
138.8789105977
 20
409.8899401097
 30
0.0
 10
138.8634752531
 20
409.8031640528
 30
0.0
 10
138.7905768893
 20
409.7384320743
 30
0.0
 10
138.7324193017
 20
409.7048549756
 30
0.0
  0
SPLINE
  5
35E
100
AcDbEntity
  8
0
100
AcDbSpline
 62
7
  6
CONTINUOUS
 70
0
 71
3
 72
9
 73
5
 74
0
 42
0.0000001
 43
0.0000001
 44
0.0000000001
 40
0.0
 40
0.0
 40
0.0
 40
0.0
 40
0.2405228133
 40
1.0
 40
1.0
 40
1.0
 40
1.0
 10
285.8112392017
 20
324.3825180724
 30
0.0
 10
285.7610892279
 20
324.411471518
 30
0.0
 10
285.533564457
 20
324.4932031686
 30
0.0
 10
285.2624857955
 20
324.4739411974
 30
0.0
 10
285.1041324072
 20
324.3825163727
 30
0.0
  0
SPLINE
  5
35F
100
AcDbEntity
  8
0
100
AcDbSpline
 62
7
  6
CONTINUOUS
 70
0
 71
3
 72
9
 73
5
 74
0
 42
0.0000001
 43
0.0000001
 44
0.0000000001
 40
0.0
 40
0.0
 40
0.0
 40
0.0
 40
0.2405228133
 40
1.0
 40
1.0
 40
1.0
 40
1.0
 10
268.133496073
 20
334.5885369354
 30
0.0
 10
268.0833460992
 20
334.617490381
 30
0.0
 10
267.8558213283
 20
334.6992220316
 30
0.0
 10
267.5847426668
 20
334.6799600604
 30
0.0
 10
267.4263892785
 20
334.5885352357
 30
0.0
  0
SPLINE
  5
360
100
AcDbEntity
  8
0
100
AcDbSpline
 62
7
  6
CONTINUOUS
 70
0
 71
3
 72
9
 73
5
 74
0
 42
0.0000001
 43
0.0000001
 44
0.0000000001
 40
0.0
 40
0.0
 40
0.0
 40
0.0
 40
0.2208527039
 40
1.0
 40
1.0
 40
1.0
 40
1.0
 10
156.5566537168
 20
399.7029564823
 30
0.0
 10
156.5566537264
 20
399.6839212467
 30
0.0
 10
156.5412183818
 20
399.5971451898
 30
0.0
 10
156.4683200179
 20
399.5324132113
 30
0.0
 10
156.4101624304
 20
399.4988361125
 30
0.0
  0
SPLINE
  5
361
100
AcDbEntity
  8
0
100
AcDbSpline
 62
7
  6
CONTINUOUS
 70
0
 71
3
 72
9
 73
5
 74
0
 42
0.0000001
 43
0.0000001
 44
0.0000000001
 40
0.0
 40
0.0
 40
0.0
 40
0.0
 40
0.2405228133
 40
1.0
 40
1.0
 40
1.0
 40
1.0
 10
250.4557529443
 20
344.7945557984
 30
0.0
 10
250.4056029705
 20
344.823509244
 30
0.0
 10
250.1780781997
 20
344.9052408946
 30
0.0
 10
249.9069995381
 20
344.8859789234
 30
0.0
 10
249.7486461498
 20
344.7945540987
 30
0.0
  0
SPLINE
  5
362
100
AcDbEntity
  8
0
100
AcDbSpline
 62
7
  6
CONTINUOUS
 70
0
 71
3
 72
9
 73
5
 74
0
 42
0.0000001
 43
0.0000001
 44
0.0000000001
 40
0.0
 40
0.0
 40
0.0
 40
0.0
 40
0.2208527039
 40
1.0
 40
1.0
 40
1.0
 40
1.0
 10
174.2343968454
 20
389.4969376193
 30
0.0
 10
174.2343968551
 20
389.4779023837
 30
0.0
 10
174.2189615104
 20
389.3911263268
 30
0.0
 10
174.1460631466
 20
389.3263943483
 30
0.0
 10
174.0879055591
 20
389.2928172495
 30
0.0
  0
SPLINE
  5
363
100
AcDbEntity
  8
0
100
AcDbSpline
 62
7
  6
CONTINUOUS
 70
0
 71
3
 72
9
 73
5
 74
0
 42
0.0000001
 43
0.0000001
 44
0.0000000001
 40
0.0
 40
0.0
 40
0.0
 40
0.0
 40
0.2405228133
 40
1.0
 40
1.0
 40
1.0
 40
1.0
 10
232.7780098157
 20
355.0005746614
 30
0.0
 10
232.7278598419
 20
355.029528107
 30
0.0
 10
232.500335071
 20
355.1112597576
 30
0.0
 10
232.2292564094
 20
355.0919977864
 30
0.0
 10
232.0709030211
 20
355.0005729617
 30
0.0
  0
SPLINE
  5
364
100
AcDbEntity
  8
0
100
AcDbSpline
 62
7
  6
CONTINUOUS
 70
0
 71
3
 72
9
 73
5
 74
0
 42
0.0000001
 43
0.0000001
 44
0.0000000001
 40
0.0
 40
0.0
 40
0.0
 40
0.0
 40
0.2405228133
 40
1.0
 40
1.0
 40
1.0
 40
1.0
 10
215.100266687
 20
365.2065935244
 30
0.0
 10
215.0501167132
 20
365.23554697
 30
0.0
 10
214.8225919423
 20
365.3172786206
 30
0.0
 10
214.5515132808
 20
365.2980166494
 30
0.0
 10
214.3931598925
 20
365.2065918248
 30
0.0
  0
SPLINE
  5
365
100
AcDbEntity
  8
0
100
AcDbSpline
 62
7
  6
CONTINUOUS
 70
0
 71
3
 72
9
 73
5
 74
0
 42
0.0000001
 43
0.0000001
 44
0.0000000001
 40
0.0
 40
0.0
 40
0.0
 40
0.0
 40
0.2208527039
 40
1.0
 40
1.0
 40
1.0
 40
1.0
 10
191.9121399741
 20
379.2909187563
 30
0.0
 10
191.9121399838
 20
379.2718835207
 30
0.0
 10
191.8967046391
 20
379.1851074638
 30
0.0
 10
191.8238062753
 20
379.1203754853
 30
0.0
 10
191.7656486878
 20
379.0867983865
 30
0.0
  0
SPLINE
  5
366
100
AcDbEntity
  8
0
100
AcDbSpline
 62
7
  6
CONTINUOUS
 70
0
 71
3
 72
9
 73
5
 74
0
 42
0.0000001
 43
0.0000001
 44
0.0000000001
 40
0.0
 40
0.0
 40
0.0
 40
0.0
 40
0.2405228133
 40
1.0
 40
1.0
 40
1.0
 40
1.0
 10
197.4225235583
 20
375.4126123874
 30
0.0
 10
197.3723735845
 20
375.441565833
 30
0.0
 10
197.1448488136
 20
375.5232974836
 30
0.0
 10
196.8737701521
 20
375.5040355125
 30
0.0
 10
196.7154167638
 20
375.4126106878
 30
0.0
  0
SPLINE
  5
367
100
AcDbEntity
  8
0
100
AcDbSpline
 62
7
  6
CONTINUOUS
 70
0
 71
3
 72
9
 73
5
 74
0
 42
0.0000001
 43
0.0000001
 44
0.0000000001
 40
0.0
 40
0.0
 40
0.0
 40
0.0
 40
0.2208527039
 40
1.0
 40
1.0
 40
1.0
 40
1.0
 10
209.5898831028
 20
369.0848998933
 30
0.0
 10
209.5898831124
 20
369.0658646577
 30
0.0
 10
209.5744477678
 20
368.9790886008
 30
0.0
 10
209.501549404
 20
368.9143566222
 30
0.0
 10
209.4433918164
 20
368.8807795235
 30
0.0
  0
SPLINE
  5
368
100
AcDbEntity
  8
0
100
AcDbSpline
 62
7
  6
CONTINUOUS
 70
0
 71
3
 72
9
 73
5
 74
0
 42
0.0000001
 43
0.0000001
 44
0.0000000001
 40
0.0
 40
0.0
 40
0.0
 40
0.0
 40
0.2405228133
 40
1.0
 40
1.0
 40
1.0
 40
1.0
 10
179.7447804296
 20
385.6186312504
 30
0.0
 10
179.6946304558
 20
385.647584696
 30
0.0
 10
179.467105685
 20
385.7293163466
 30
0.0
 10
179.1960270234
 20
385.7100543755
 30
0.0
 10
179.0376736351
 20
385.6186295508
 30
0.0
  0
SPLINE
  5
369
100
AcDbEntity
  8
0
100
AcDbSpline
 62
7
  6
CONTINUOUS
 70
0
 71
3
 72
9
 73
5
 74
0
 42
0.0000001
 43
0.0000001
 44
0.0000000001
 40
0.0
 40
0.0
 40
0.0
 40
0.0
 40
0.2405228133
 40
1.0
 40
1.0
 40
1.0
 40
1.0
 10
162.067037301
 20
395.8246501134
 30
0.0
 10
162.0168873272
 20
395.853603559
 30
0.0
 10
161.7893625563
 20
395.9353352096
 30
0.0
 10
161.5182838947
 20
395.9160732385
 30
0.0
 10
161.3599305064
 20
395.8246484138
 30
0.0
  0
SPLINE
  5
36A
100
AcDbEntity
  8
0
100
AcDbSpline
 62
7
  6
CONTINUOUS
 70
0
 71
3
 72
9
 73
5
 74
0
 42
0.0000001
 43
0.0000001
 44
0.0000000001
 40
0.0
 40
0.0
 40
0.0
 40
0.0
 40
0.2208527039
 40
1.0
 40
1.0
 40
1.0
 40
1.0
 10
227.2676262315
 20
358.8788810303
 30
0.0
 10
227.2676262411
 20
358.8598457947
 30
0.0
 10
227.2521908965
 20
358.7730697378
 30
0.0
 10
227.1792925326
 20
358.7083377592
 30
0.0
 10
227.1211349451
 20
358.6747606605
 30
0.0
  0
SPLINE
  5
36B
100
AcDbEntity
  8
0
100
AcDbSpline
 62
7
  6
CONTINUOUS
 70
0
 71
3
 72
9
 73
5
 74
0
 42
0.0000001
 43
0.0000001
 44
0.0000000001
 40
0.0
 40
0.0
 40
0.0
 40
0.0
 40
0.2405228133
 40
1.0
 40
1.0
 40
1.0
 40
1.0
 10
144.3892941723
 20
406.0306689765
 30
0.0
 10
144.3391441985
 20
406.059622422
 30
0.0
 10
144.1116194276
 20
406.1413540726
 30
0.0
 10
143.8405407661
 20
406.1220921015
 30
0.0
 10
143.6821873778
 20
406.0306672768
 30
0.0
  0
SPLINE
  5
36C
100
AcDbEntity
  8
0
100
AcDbSpline
 62
7
  6
CONTINUOUS
 70
0
 71
3
 72
9
 73
5
 74
0
 42
0.0000001
 43
0.0000001
 44
0.0000000001
 40
0.0
 40
0.0
 40
0.0
 40
0.0
 40
0.2208527039
 40
1.0
 40
1.0
 40
1.0
 40
1.0
 10
244.9453693601
 20
348.6728621673
 30
0.0
 10
244.9453693698
 20
348.6538269317
 30
0.0
 10
244.9299340251
 20
348.5670508747
 30
0.0
 10
244.8570356613
 20
348.5023188962
 30
0.0
 10
244.7988780738
 20
348.4687417975
 30
0.0
  0
SPLINE
  5
36D
100
AcDbEntity
  8
0
100
AcDbSpline
 62
7
  6
CONTINUOUS
 70
0
 71
3
 72
9
 73
5
 74
0
 42
0.0000001
 43
0.0000001
 44
0.0000000001
 40
0.0
 40
0.0
 40
0.0
 40
0.0
 40
0.2405228133
 40
1.0
 40
1.0
 40
1.0
 40
1.0
 10
126.7115510436
 20
416.2366878395
 30
0.0
 10
126.6614010698
 20
416.265641285
 30
0.0
 10
126.4338762989
 20
416.3473729357
 30
0.0
 10
126.1627976374
 20
416.3281109645
 30
0.0
 10
126.0044442491
 20
416.2366861398
 30
0.0
  0
SPLINE
  5
36E
100
AcDbEntity
  8
0
100
AcDbSpline
 62
7
  6
CONTINUOUS
 70
0
 71
3
 72
9
 73
5
 74
0
 42
0.0000001
 43
0.0000001
 44
0.0000000001
 40
0.0
 40
0.0
 40
0.0
 40
0.0
 40
0.2405228133
 40
1.0
 40
1.0
 40
1.0
 40
1.0
 10
109.0338079149
 20
426.4427067025
 30
0.0
 10
108.9836579411
 20
426.471660148
 30
0.0
 10
108.7561331703
 20
426.5533917987
 30
0.0
 10
108.4850545087
 20
426.5341298275
 30
0.0
 10
108.3267011204
 20
426.4427050028
 30
0.0
  0
SPLINE
  5
36F
100
AcDbEntity
  8
0
100
AcDbSpline
 62
7
  6
CONTINUOUS
 70
0
 71
3
 72
9
 73
5
 74
0
 42
0.0000001
 43
0.0000001
 44
0.0000000001
 40
0.0
 40
0.0
 40
0.0
 40
0.0
 40
0.2208527039
 40
1.0
 40
1.0
 40
1.0
 40
1.0
 10
262.6231124888
 20
338.4668433043
 30
0.0
 10
262.6231124985
 20
338.4478080687
 30
0.0
 10
262.6076771538
 20
338.3610320117
 30
0.0
 10
262.53477879
 20
338.2963000332
 30
0.0
 10
262.4766212025
 20
338.2627229345
 30
0.0
  0
SPLINE
  5
370
100
AcDbEntity
  8
0
100
AcDbSpline
 62
7
  6
CONTINUOUS
 70
0
 71
3
 72
9
 73
5
 74
0
 42
0.0000001
 43
0.0000001
 44
0.0000000001
 40
0.0
 40
0.0
 40
0.0
 40
0.0
 40
0.2405228133
 40
1.0
 40
1.0
 40
1.0
 40
1.0
 10
91.3560647863
 20
436.6487255655
 30
0.0
 10
91.3059148125
 20
436.677679011
 30
0.0
 10
91.0783900416
 20
436.7594106617
 30
0.0
 10
90.80731138
 20
436.7401486905
 30
0.0
 10
90.6489579917
 20
436.6487238658
 30
0.0
  0
SPLINE
  5
371
100
AcDbEntity
  8
0
100
AcDbSpline
 62
7
  6
CONTINUOUS
 70
0
 71
3
 72
9
 73
5
 74
0
 42
0.0000001
 43
0.0000001
 44
0.0000000001
 40
0.0
 40
0.0
 40
0.0
 40
0.0
 40
0.2208527039
 40
1.0
 40
1.0
 40
1.0
 40
1.0
 10
280.3008556175
 20
328.2608244413
 30
0.0
 10
280.3008556271
 20
328.2417892057
 30
0.0
 10
280.2854202825
 20
328.1550131487
 30
0.0
 10
280.2125219187
 20
328.0902811702
 30
0.0
 10
280.1543643311
 20
328.0567040715
 30
0.0
  0
SPLINE
  5
372
100
AcDbEntity
  8
0
100
AcDbSpline
 62
7
  6
CONTINUOUS
 70
0
 71
3
 72
9
 73
5
 74
0
 42
0.0000001
 43
0.0000001
 44
0.0000000001
 40
0.0
 40
0.0
 40
0.0
 40
0.0
 40
0.2405228133
 40
1.0
 40
1.0
 40
1.0
 40
1.0
 10
73.6783216576
 20
446.8547444285
 30
0.0
 10
73.6281716838
 20
446.8836978741
 30
0.0
 10
73.4006469129
 20
446.9654295247
 30
0.0
 10
73.1295682514
 20
446.9461675535
 30
0.0
 10
72.9712148631
 20
446.8547427288
 30
0.0
  0
SPLINE
  5
373
100
AcDbEntity
  8
0
100
AcDbSpline
 62
7
  6
CONTINUOUS
 70
0
 71
3
 72
9
 73
5
 74
0
 42
0.0000001
 43
0.0000001
 44
0.0000000001
 40
0.0
 40
0.0
 40
0.0
 40
0.0
 40
0.2208527039
 40
1.0
 40
1.0
 40
1.0
 40
1.0
 10
297.9785987462
 20
318.0548055783
 30
0.0
 10
297.9785987558
 20
318.0357703427
 30
0.0
 10
297.9631634112
 20
317.9489942857
 30
0.0
 10
297.8902650473
 20
317.8842623072
 30
0.0
 10
297.8321074598
 20
317.8506852085
 30
0.0
  0
SPLINE
  5
374
100
AcDbEntity
  8
0
100
AcDbSpline
 62
7
  6
CONTINUOUS
 70
0
 71
3
 72
9
 73
5
 74
0
 42
0.0000001
 43
0.0000001
 44
0.0000000001
 40
0.0
 40
0.0
 40
0.0
 40
0.0
 40
0.2208527039
 40
1.0
 40
1.0
 40
1.0
 40
1.0
 10
315.6563418748
 20
307.8487867153
 30
0.0
 10
315.6563418845
 20
307.8297514796
 30
0.0
 10
315.6409065398
 20
307.7429754227
 30
0.0
 10
315.568008176
 20
307.6782434442
 30
0.0
 10
315.5098505885
 20
307.6446663455
 30
0.0
  0
SPLINE
  5
375
100
AcDbEntity
  8
0
100
AcDbSpline
 62
7
  6
CONTINUOUS
 70
0
 71
3
 72
9
 73
5
 74
0
 42
0.0000001
 43
0.0000001
 44
0.0000000001
 40
0.0
 40
0.0
 40
0.0
 40
0.0
 40
0.2208527039
 40
1.0
 40
1.0
 40
1.0
 40
1.0
 10
333.3340850035
 20
297.6427678523
 30
0.0
 10
333.3340850132
 20
297.6237326166
 30
0.0
 10
333.3186496685
 20
297.5369565597
 30
0.0
 10
333.2457513047
 20
297.4722245812
 30
0.0
 10
333.1875937172
 20
297.4386474825
 30
0.0
  0
SPLINE
  5
376
100
AcDbEntity
  8
0
100
AcDbSpline
 62
7
  6
CONTINUOUS
 70
0
 71
3
 72
9
 73
5
 74
0
 42
0.0000001
 43
0.0000001
 44
0.0000000001
 40
0.0
 40
0.0
 40
0.0
 40
0.0
 40
0.2208527039
 40
1.0
 40
1.0
 40
1.0
 40
1.0
 10
351.0118281322
 20
287.4367489893
 30
0.0
 10
351.0118281418
 20
287.4177137536
 30
0.0
 10
350.9963927972
 20
287.3309376967
 30
0.0
 10
350.9234944334
 20
287.2662057182
 30
0.0
 10
350.8653368458
 20
287.2326286195
 30
0.0
  0
SPLINE
  5
377
100
AcDbEntity
  8
0
100
AcDbSpline
 62
7
  6
CONTINUOUS
 70
0
 71
3
 72
9
 73
5
 74
0
 42
0.0000001
 43
0.0000001
 44
0.0000000001
 40
0.0
 40
0.0
 40
0.0
 40
0.0
 40
0.2208527039
 40
1.0
 40
1.0
 40
1.0
 40
1.0
 10
368.6895712609
 20
277.2307301263
 30
0.0
 10
368.6895712705
 20
277.2116948906
 30
0.0
 10
368.6741359259
 20
277.1249188337
 30
0.0
 10
368.601237562
 20
277.0601868552
 30
0.0
 10
368.5430799745
 20
277.0266097565
 30
0.0
  0
SPLINE
  5
378
100
AcDbEntity
  8
0
100
AcDbSpline
 62
7
  6
CONTINUOUS
 70
0
 71
3
 72
9
 73
5
 74
0
 42
0.0000001
 43
0.0000001
 44
0.0000000001
 40
0.0
 40
0.0
 40
0.0
 40
0.0
 40
0.2208527039
 40
1.0
 40
1.0
 40
1.0
 40
1.0
 10
386.3673143895
 20
267.0247112632
 30
0.0
 10
386.3673143992
 20
267.0056760276
 30
0.0
 10
386.3518790545
 20
266.9188999707
 30
0.0
 10
386.2789806907
 20
266.8541679922
 30
0.0
 10
386.2208231032
 20
266.8205908934
 30
0.0
  0
SPLINE
  5
379
100
AcDbEntity
  8
0
100
AcDbSpline
 62
7
  6
CONTINUOUS
 70
0
 71
3
 72
9
 73
5
 74
0
 42
0.0000001
 43
0.0000001
 44
0.0000000001
 40
0.0
 40
0.0
 40
0.0
 40
0.0
 40
0.2208527039
 40
1.0
 40
1.0
 40
1.0
 40
1.0
 10
404.0450575182
 20
256.8186924002
 30
0.0
 10
404.0450575278
 20
256.7996571646
 30
0.0
 10
404.0296221832
 20
256.7128811077
 30
0.0
 10
403.9567238194
 20
256.6481491292
 30
0.0
 10
403.8985662319
 20
256.6145720304
 30
0.0
  0
SPLINE
  5
37A
100
AcDbEntity
  8
0
100
AcDbSpline
 62
7
  6
CONTINUOUS
 70
0
 71
3
 72
9
 73
5
 74
0
 42
0.0000001
 43
0.0000001
 44
0.0000000001
 40
0.0
 40
0.0
 40
0.0
 40
0.0
 40
0.2208527039
 40
1.0
 40
1.0
 40
1.0
 40
1.0
 10
421.7228006469
 20
246.6126735372
 30
0.0
 10
421.7228006565
 20
246.5936383016
 30
0.0
 10
421.7073653119
 20
246.5068622447
 30
0.0
 10
421.6344669481
 20
246.4421302662
 30
0.0
 10
421.5763093605
 20
246.4085531674
 30
0.0
  0
SPLINE
  5
37B
100
AcDbEntity
  8
0
100
AcDbSpline
 62
7
  6
CONTINUOUS
 70
0
 71
3
 72
9
 73
5
 74
0
 42
0.0000001
 43
0.0000001
 44
0.0000000001
 40
0.0
 40
0.0
 40
0.0
 40
0.0
 40
0.2390726762
 40
1.0
 40
1.0
 40
1.0
 40
1.0
 10
71.4172562021
 20
449.312135169
 30
0.0
 10
71.4563612808
 20
449.3018878677
 30
0.0
 10
71.622441845
 20
449.2686305874
 30
0.0
 10
71.795032256
 20
449.273842975
 30
0.0
 10
71.9221007597
 20
449.2940626665
 30
0.0
  0
SPLINE
  5
37C
100
AcDbEntity
  8
0
100
AcDbSpline
 62
7
  6
CONTINUOUS
 70
0
 71
3
 72
9
 73
5
 74
0
 42
0.0000001
 43
0.0000001
 44
0.0000000001
 40
0.0
 40
0.0
 40
0.0
 40
0.0
 40
0.4502218054
 40
1.0
 40
1.0
 40
1.0
 40
1.0
 10
71.9221007597
 20
449.2940626665
 30
0.0
 10
72.4526053908
 20
449.3784788647
 30
0.0
 10
73.504526305
 20
450.1159296776
 30
0.0
 10
74.148123543
 20
451.1421265975
 30
0.0
 10
74.3853989924
 20
451.7536730911
 30
0.0
  0
SPLINE
  5
37D
100
AcDbEntity
  8
0
100
AcDbSpline
 62
7
  6
CONTINUOUS
 70
0
 71
3
 72
8
 73
4
 74
0
 42
0.0000001
 43
0.0000001
 44
0.0000000001
 40
0.0
 40
0.0
 40
0.0
 40
0.0
 40
1.0
 40
1.0
 40
1.0
 40
1.0
 10
431.4266776372
 20
244.4912210609
 30
0.0
 10
431.3976665505
 20
244.5079794126
 30
0.0
 10
431.3852707072
 20
244.5493026742
 30
0.0
 10
431.3852707072
 20
244.582806189
 30
0.0
  0
SPLINE
  5
37E
100
AcDbEntity
  8
0
100
AcDbSpline
 62
7
  6
CONTINUOUS
 70
0
 71
3
 72
8
 73
4
 74
0
 42
0.0000001
 43
0.0000001
 44
0.0000000001
 40
0.0
 40
0.0
 40
0.0
 40
0.0
 40
1.0
 40
1.0
 40
1.0
 40
1.0
 10
58.6876938063
 20
437.3833871638
 30
0.0
 10
58.7693435862
 20
437.4305274049
 30
0.0
 10
58.8291145737
 20
437.5340555739
 30
0.0
 10
58.8291145737
 20
437.628336478
 30
0.0
  0
SPLINE
  5
37F
100
AcDbEntity
  8
0
100
AcDbSpline
 62
7
  6
CONTINUOUS
 70
0
 71
3
 72
9
 73
5
 74
0
 42
0.0000001
 43
0.0000001
 44
0.0000000001
 40
0.0
 40
0.0
 40
0.0
 40
0.0
 40
0.5000016721
 40
1.0
 40
1.0
 40
1.0
 40
1.0
 10
58.8291145737
 20
441.7924988054
 30
0.0
 10
58.8291145737
 20
442.0833169477
 30
0.0
 10
59.0278578081
 20
442.6575502464
 30
0.0
 10
59.4257845879
 20
443.1167872429
 30
0.0
 10
59.6776391784
 20
443.2621946906
 30
0.0
  0
SPLINE
  5
380
100
AcDbEntity
  8
0
100
AcDbSpline
 62
7
  6
CONTINUOUS
 70
0
 71
3
 72
9
 73
5
 74
0
 42
0.0000001
 43
0.0000001
 44
0.0000000001
 40
0.0
 40
0.0
 40
0.0
 40
0.0
 40
0.2939127524
 40
1.0
 40
1.0
 40
1.0
 40
1.0
 10
421.5763064166
 20
246.8167956293
 30
0.0
 10
421.598121129
 20
246.804201184
 30
0.0
 10
421.6683523965
 20
246.756812493
 30
0.0
 10
421.7228006162
 20
246.6731876045
 30
0.0
 10
421.7228006469
 20
246.6126735372
 30
0.0
  0
SPLINE
  5
381
100
AcDbEntity
  8
0
100
AcDbSpline
 62
7
  6
CONTINUOUS
 70
0
 71
3
 72
9
 73
5
 74
0
 42
0.0000001
 43
0.0000001
 44
0.0000000001
 40
0.0
 40
0.0
 40
0.0
 40
0.0
 40
0.2939127524
 40
1.0
 40
1.0
 40
1.0
 40
1.0
 10
227.1211320011
 20
359.0830031224
 30
0.0
 10
227.1429467136
 20
359.0704086771
 30
0.0
 10
227.213177981
 20
359.0230199861
 30
0.0
 10
227.2676262008
 20
358.9393950975
 30
0.0
 10
227.2676262315
 20
358.8788810303
 30
0.0
  0
SPLINE
  5
382
100
AcDbEntity
  8
0
100
AcDbSpline
 62
7
  6
CONTINUOUS
 70
0
 71
3
 72
9
 73
5
 74
0
 42
0.0000001
 43
0.0000001
 44
0.0000000001
 40
0.0
 40
0.0
 40
0.0
 40
0.0
 40
0.2405220257
 40
1.0
 40
1.0
 40
1.0
 40
1.0
 10
196.7154167638
 20
376.2291131049
 30
0.0
 10
196.7655663671
 20
376.2580668187
 30
0.0
 10
196.9930907868
 20
376.3397997852
 30
0.0
 10
197.2641693386
 20
376.3205385867
 30
0.0
 10
197.4225235583
 20
376.2291148046
 30
0.0
  0
SPLINE
  5
383
100
AcDbEntity
  8
0
100
AcDbSpline
 62
7
  6
CONTINUOUS
 70
0
 71
3
 72
9
 73
5
 74
0
 42
0.0000001
 43
0.0000001
 44
0.0000000001
 40
0.0
 40
0.0
 40
0.0
 40
0.0
 40
0.2208527039
 40
1.0
 40
1.0
 40
1.0
 40
1.0
 10
369.8108375915
 20
271.9235833434
 30
0.0
 10
369.8108375818
 20
271.942618579
 30
0.0
 10
369.8262729265
 20
272.0293946359
 30
0.0
 10
369.8991712903
 20
272.0941266144
 30
0.0
 10
369.9573288778
 20
272.1277037132
 30
0.0
  0
SPLINE
  5
384
100
AcDbEntity
  8
0
100
AcDbSpline
 62
7
  6
CONTINUOUS
 70
0
 71
3
 72
9
 73
5
 74
0
 42
0.0000001
 43
0.0000001
 44
0.0000000001
 40
0.0
 40
0.0
 40
0.0
 40
0.0
 40
0.2208527039
 40
1.0
 40
1.0
 40
1.0
 40
1.0
 10
122.32243379
 20
414.8078474255
 30
0.0
 10
122.3224337804
 20
414.8268826611
 30
0.0
 10
122.337869125
 20
414.913658718
 30
0.0
 10
122.4107674889
 20
414.9783906965
 30
0.0
 10
122.4689250764
 20
415.0119677953
 30
0.0
  0
SPLINE
  5
385
100
AcDbEntity
  8
0
100
AcDbSpline
 62
7
  6
CONTINUOUS
 70
0
 71
3
 72
9
 73
5
 74
0
 42
0.0000001
 43
0.0000001
 44
0.0000000001
 40
0.0
 40
0.0
 40
0.0
 40
0.0
 40
0.2405220257
 40
1.0
 40
1.0
 40
1.0
 40
1.0
 10
391.1705911792
 20
263.9629056118
 30
0.0
 10
391.2207407825
 20
263.9918593256
 30
0.0
 10
391.4482652022
 20
264.0735922922
 30
0.0
 10
391.719343754
 20
264.0543310937
 30
0.0
 10
391.8776979737
 20
263.9629073115
 30
0.0
  0
SPLINE
  5
386
100
AcDbEntity
  8
0
100
AcDbSpline
 62
7
  6
CONTINUOUS
 70
0
 71
3
 72
9
 73
5
 74
0
 42
0.0000001
 43
0.0000001
 44
0.0000000001
 40
0.0
 40
0.0
 40
0.0
 40
0.0
 40
0.2208527039
 40
1.0
 40
1.0
 40
1.0
 40
1.0
 10
387.4885807201
 20
261.7175644804
 30
0.0
 10
387.4885807105
 20
261.736599716
 30
0.0
 10
387.5040160551
 20
261.8233757729
 30
0.0
 10
387.576914419
 20
261.8881077514
 30
0.0
 10
387.6350720065
 20
261.9216848502
 30
0.0
  0
SPLINE
  5
387
100
AcDbEntity
  8
0
100
AcDbSpline
 62
7
  6
CONTINUOUS
 70
0
 71
3
 72
9
 73
5
 74
0
 42
0.0000001
 43
0.0000001
 44
0.0000000001
 40
0.0
 40
0.0
 40
0.0
 40
0.0
 40
0.2208527039
 40
1.0
 40
1.0
 40
1.0
 40
1.0
 10
405.1663238488
 20
251.5115456173
 30
0.0
 10
405.1663238392
 20
251.530580853
 30
0.0
 10
405.1817591838
 20
251.6173569099
 30
0.0
 10
405.2546575476
 20
251.6820888884
 30
0.0
 10
405.3128151352
 20
251.7156659871
 30
0.0
  0
SPLINE
  5
388
100
AcDbEntity
  8
0
100
AcDbSpline
 62
7
  6
CONTINUOUS
 70
0
 71
3
 72
9
 73
5
 74
0
 42
0.0000001
 43
0.0000001
 44
0.0000000001
 40
0.0
 40
0.0
 40
0.0
 40
0.0
 40
0.2939127524
 40
1.0
 40
1.0
 40
1.0
 40
1.0
 10
209.4433888725
 20
369.2890219854
 30
0.0
 10
209.4652035849
 20
369.2764275401
 30
0.0
 10
209.5354348524
 20
369.2290388491
 30
0.0
 10
209.5898830721
 20
369.1454139606
 30
0.0
 10
209.5898831028
 20
369.0848998933
 30
0.0
  0
SPLINE
  5
389
100
AcDbEntity
  8
0
100
AcDbSpline
 62
7
  6
CONTINUOUS
 70
0
 71
3
 72
9
 73
5
 74
0
 42
0.0000001
 43
0.0000001
 44
0.0000000001
 40
0.0
 40
0.0
 40
0.0
 40
0.0
 40
0.2405220257
 40
1.0
 40
1.0
 40
1.0
 40
1.0
 10
179.0376736351
 20
386.4351319679
 30
0.0
 10
179.0878232384
 20
386.4640856817
 30
0.0
 10
179.3153476581
 20
386.5458186483
 30
0.0
 10
179.5864262099
 20
386.5265574497
 30
0.0
 10
179.7447804296
 20
386.4351336676
 30
0.0
  0
SPLINE
  5
38A
100
AcDbEntity
  8
0
100
AcDbSpline
 62
7
  6
CONTINUOUS
 70
0
 71
3
 72
9
 73
5
 74
0
 42
0.0000001
 43
0.0000001
 44
0.0000000001
 40
0.0
 40
0.0
 40
0.0
 40
0.0
 40
0.2208527039
 40
1.0
 40
1.0
 40
1.0
 40
1.0
 10
140.0001769187
 20
404.6018285625
 30
0.0
 10
140.0001769091
 20
404.6208637981
 30
0.0
 10
140.0156122537
 20
404.707639855
 30
0.0
 10
140.0885106175
 20
404.7723718335
 30
0.0
 10
140.146668205
 20
404.8059489323
 30
0.0
  0
SPLINE
  5
38B
100
AcDbEntity
  8
0
100
AcDbSpline
 62
7
  6
CONTINUOUS
 70
0
 71
3
 72
12
 73
8
 74
0
 42
0.0000001
 43
0.0000001
 44
0.0000000001
 40
0.0
 40
0.0
 40
0.0
 40
0.0
 40
0.300421774
 40
0.5832551794
 40
0.7077430324
 40
0.8177523038
 40
1.0
 40
1.0
 40
1.0
 40
1.0
 10
419.3645054745
 20
242.7866208011
 30
0.0
 10
419.2064716775
 20
242.3793093211
 30
0.0
 10
418.7901809573
 20
241.6285530405
 30
0.0
 10
418.0704656629
 20
240.8705410024
 30
0.0
 10
417.4228877243
 20
240.4765410447
 30
0.0
 10
416.8513661659
 20
240.272715132
 30
0.0
 10
416.3828718507
 20
240.3119049971
 30
0.0
 10
416.1534906817
 20
240.444680415
 30
0.0
  0
SPLINE
  5
38C
100
AcDbEntity
  8
0
100
AcDbSpline
 62
7
  6
CONTINUOUS
 70
0
 71
3
 72
9
 73
5
 74
0
 42
0.0000001
 43
0.0000001
 44
0.0000000001
 40
0.0
 40
0.0
 40
0.0
 40
0.0
 40
0.2939127524
 40
1.0
 40
1.0
 40
1.0
 40
1.0
 10
403.8985632879
 20
257.0228144923
 30
0.0
 10
403.9203780003
 20
257.010220047
 30
0.0
 10
403.9906092678
 20
256.9628313561
 30
0.0
 10
404.0450574876
 20
256.8792064675
 30
0.0
 10
404.0450575182
 20
256.8186924002
 30
0.0
  0
SPLINE
  5
38D
100
AcDbEntity
  8
0
100
AcDbSpline
 62
7
  6
CONTINUOUS
 70
0
 71
3
 72
9
 73
5
 74
0
 42
0.0000001
 43
0.0000001
 44
0.0000000001
 40
0.0
 40
0.0
 40
0.0
 40
0.0
 40
0.2939127524
 40
1.0
 40
1.0
 40
1.0
 40
1.0
 10
191.7656457438
 20
379.4950408484
 30
0.0
 10
191.7874604562
 20
379.4824464031
 30
0.0
 10
191.8576917237
 20
379.4350577121
 30
0.0
 10
191.9121399435
 20
379.3514328236
 30
0.0
 10
191.9121399741
 20
379.2909187563
 30
0.0
  0
SPLINE
  5
38E
100
AcDbEntity
  8
0
100
AcDbSpline
 62
7
  6
CONTINUOUS
 70
0
 71
3
 72
9
 73
5
 74
0
 42
0.0000001
 43
0.0000001
 44
0.0000000001
 40
0.0
 40
0.0
 40
0.0
 40
0.0
 40
0.2405220257
 40
1.0
 40
1.0
 40
1.0
 40
1.0
 10
161.3599305064
 20
396.6411508309
 30
0.0
 10
161.4100801097
 20
396.6701045447
 30
0.0
 10
161.6376045294
 20
396.7518375113
 30
0.0
 10
161.9086830813
 20
396.7325763127
 30
0.0
 10
162.067037301
 20
396.6411525306
 30
0.0
  0
SPLINE
  5
38F
100
AcDbEntity
  8
0
100
AcDbSpline
 62
7
  6
CONTINUOUS
 70
0
 71
3
 72
9
 73
5
 74
0
 42
0.0000001
 43
0.0000001
 44
0.0000000001
 40
0.0
 40
0.0
 40
0.0
 40
0.0
 40
0.2405220257
 40
1.0
 40
1.0
 40
1.0
 40
1.0
 10
373.4928480505
 20
274.1689244748
 30
0.0
 10
373.5429976538
 20
274.1978781887
 30
0.0
 10
373.7705220735
 20
274.2796111552
 30
0.0
 10
374.0416006253
 20
274.2603499567
 30
0.0
 10
374.1999548451
 20
274.1689261745
 30
0.0
  0
SPLINE
  5
390
100
AcDbEntity
  8
0
100
AcDbSpline
 62
7
  6
CONTINUOUS
 70
0
 71
3
 72
9
 73
5
 74
0
 42
0.0000001
 43
0.0000001
 44
0.0000000001
 40
0.0
 40
0.0
 40
0.0
 40
0.0
 40
0.2208527039
 40
1.0
 40
1.0
 40
1.0
 40
1.0
 10
157.6779200474
 20
394.3958096995
 30
0.0
 10
157.6779200377
 20
394.4148449351
 30
0.0
 10
157.6933553824
 20
394.501620992
 30
0.0
 10
157.7662537462
 20
394.5663529705
 30
0.0
 10
157.8244113337
 20
394.5999300693
 30
0.0
  0
SPLINE
  5
391
100
AcDbEntity
  8
0
100
AcDbSpline
 62
7
  6
CONTINUOUS
 70
0
 71
3
 72
9
 73
5
 74
0
 42
0.0000001
 43
0.0000001
 44
0.0000000001
 40
0.0
 40
0.0
 40
0.0
 40
0.0
 40
0.2939127524
 40
1.0
 40
1.0
 40
1.0
 40
1.0
 10
174.0879026151
 20
389.7010597114
 30
0.0
 10
174.1097173275
 20
389.6884652661
 30
0.0
 10
174.179948595
 20
389.6410765752
 30
0.0
 10
174.2343968148
 20
389.5574516866
 30
0.0
 10
174.2343968454
 20
389.4969376193
 30
0.0
  0
SPLINE
  5
392
100
AcDbEntity
  8
0
100
AcDbSpline
 62
7
  6
CONTINUOUS
 70
0
 71
3
 72
9
 73
5
 74
0
 42
0.0000001
 43
0.0000001
 44
0.0000000001
 40
0.0
 40
0.0
 40
0.0
 40
0.0
 40
0.2405220257
 40
1.0
 40
1.0
 40
1.0
 40
1.0
 10
143.6821873778
 20
406.8471696939
 30
0.0
 10
143.7323369811
 20
406.8761234078
 30
0.0
 10
143.9598614007
 20
406.9578563743
 30
0.0
 10
144.2309399526
 20
406.9385951758
 30
0.0
 10
144.3892941723
 20
406.8471713936
 30
0.0
  0
SPLINE
  5
393
100
AcDbEntity
  8
0
100
AcDbSpline
 62
7
  6
CONTINUOUS
 70
0
 71
3
 72
12
 73
8
 74
0
 42
0.0000001
 43
0.0000001
 44
0.0000000001
 40
0.0
 40
0.0
 40
0.0
 40
0.0
 40
0.300421774
 40
0.5832551794
 40
0.7077430324
 40
0.8177523038
 40
1.0
 40
1.0
 40
1.0
 40
1.0
 10
427.8497515211
 20
247.6855506475
 30
0.0
 10
427.691717724
 20
247.2782391676
 30
0.0
 10
427.2754270038
 20
246.5274828869
 30
0.0
 10
426.5557117095
 20
245.7694708489
 30
0.0
 10
425.9081337708
 20
245.3754708911
 30
0.0
 10
425.3366122125
 20
245.1716449785
 30
0.0
 10
424.8681178972
 20
245.2108348435
 30
0.0
 10
424.6387367282
 20
245.3436102614
 30
0.0
  0
SPLINE
  5
394
100
AcDbEntity
  8
0
100
AcDbSpline
 62
7
  6
CONTINUOUS
 70
0
 71
3
 72
9
 73
5
 74
0
 42
0.0000001
 43
0.0000001
 44
0.0000000001
 40
0.0
 40
0.0
 40
0.0
 40
0.0
 40
0.2939127524
 40
1.0
 40
1.0
 40
1.0
 40
1.0
 10
386.2208201592
 20
267.2288333553
 30
0.0
 10
386.2426348716
 20
267.2162389101
 30
0.0
 10
386.3128661391
 20
267.1688502191
 30
0.0
 10
386.3673143589
 20
267.0852253305
 30
0.0
 10
386.3673143895
 20
267.0247112632
 30
0.0
  0
SPLINE
  5
395
100
AcDbEntity
  8
0
100
AcDbSpline
 62
7
  6
CONTINUOUS
 70
0
 71
3
 72
9
 73
5
 74
0
 42
0.0000001
 43
0.0000001
 44
0.0000000001
 40
0.0
 40
0.0
 40
0.0
 40
0.0
 40
0.2208527039
 40
1.0
 40
1.0
 40
1.0
 40
1.0
 10
175.355663176
 20
384.1897908364
 30
0.0
 10
175.3556631664
 20
384.2088260721
 30
0.0
 10
175.371098511
 20
384.295602129
 30
0.0
 10
175.4439968749
 20
384.3603341075
 30
0.0
 10
175.5021544624
 20
384.3939112062
 30
0.0
  0
SPLINE
  5
396
100
AcDbEntity
  8
0
100
AcDbSpline
 62
7
  6
CONTINUOUS
 70
0
 71
3
 72
9
 73
5
 74
0
 42
0.0000001
 43
0.0000001
 44
0.0000000001
 40
0.0
 40
0.0
 40
0.0
 40
0.0
 40
0.2939127524
 40
1.0
 40
1.0
 40
1.0
 40
1.0
 10
156.4101594864
 20
399.9070785744
 30
0.0
 10
156.4319741989
 20
399.8944841292
 30
0.0
 10
156.5022054663
 20
399.8470954382
 30
0.0
 10
156.5566536861
 20
399.7634705496
 30
0.0
 10
156.5566537168
 20
399.7029564823
 30
0.0
  0
SPLINE
  5
397
100
AcDbEntity
  8
0
100
AcDbSpline
 62
7
  6
CONTINUOUS
 70
0
 71
3
 72
9
 73
5
 74
0
 42
0.0000001
 43
0.0000001
 44
0.0000000001
 40
0.0
 40
0.0
 40
0.0
 40
0.0
 40
0.2405220257
 40
1.0
 40
1.0
 40
1.0
 40
1.0
 10
126.0044442491
 20
417.0531885569
 30
0.0
 10
126.0545938524
 20
417.0821422708
 30
0.0
 10
126.2821182721
 20
417.1638752373
 30
0.0
 10
126.5531968239
 20
417.1446140388
 30
0.0
 10
126.7115510436
 20
417.0531902566
 30
0.0
  0
SPLINE
  5
398
100
AcDbEntity
  8
0
100
AcDbSpline
 62
7
  6
CONTINUOUS
 70
0
 71
3
 72
9
 73
5
 74
0
 42
0.0000001
 43
0.0000001
 44
0.0000000001
 40
0.0
 40
0.0
 40
0.0
 40
0.0
 40
0.2405220257
 40
1.0
 40
1.0
 40
1.0
 40
1.0
 10
355.8151049219
 20
284.3749433378
 30
0.0
 10
355.8652545252
 20
284.4038970517
 30
0.0
 10
356.0927789448
 20
284.4856300182
 30
0.0
 10
356.3638574967
 20
284.4663688197
 30
0.0
 10
356.5222117164
 20
284.3749450375
 30
0.0
  0
SPLINE
  5
399
100
AcDbEntity
  8
0
100
AcDbSpline
 62
7
  6
CONTINUOUS
 70
0
 71
3
 72
9
 73
5
 74
0
 42
0.0000001
 43
0.0000001
 44
0.0000000001
 40
0.0
 40
0.0
 40
0.0
 40
0.0
 40
0.2939127524
 40
1.0
 40
1.0
 40
1.0
 40
1.0
 10
138.7324163578
 20
410.1130974375
 30
0.0
 10
138.7542310702
 20
410.1005029922
 30
0.0
 10
138.8244623377
 20
410.0531143012
 30
0.0
 10
138.8789105574
 20
409.9694894126
 30
0.0
 10
138.8789105881
 20
409.9089753454
 30
0.0
  0
SPLINE
  5
39A
100
AcDbEntity
  8
0
100
AcDbSpline
 62
7
  6
CONTINUOUS
 70
0
 71
3
 72
9
 73
5
 74
0
 42
0.0000001
 43
0.0000001
 44
0.0000000001
 40
0.0
 40
0.0
 40
0.0
 40
0.0
 40
0.2405220257
 40
1.0
 40
1.0
 40
1.0
 40
1.0
 10
108.3267011204
 20
427.2592074199
 30
0.0
 10
108.3768507237
 20
427.2881611338
 30
0.0
 10
108.6043751434
 20
427.3698941003
 30
0.0
 10
108.8754536952
 20
427.3506329018
 30
0.0
 10
109.0338079149
 20
427.2592091196
 30
0.0
  0
SPLINE
  5
39B
100
AcDbEntity
  8
0
100
AcDbSpline
 62
7
  6
CONTINUOUS
 70
0
 71
3
 72
9
 73
5
 74
0
 42
0.0000001
 43
0.0000001
 44
0.0000000001
 40
0.0
 40
0.0
 40
0.0
 40
0.0
 40
0.2208527039
 40
1.0
 40
1.0
 40
1.0
 40
1.0
 10
193.0334063047
 20
373.9837719734
 30
0.0
 10
193.0334062951
 20
374.0028072091
 30
0.0
 10
193.0488416397
 20
374.089583266
 30
0.0
 10
193.1217400036
 20
374.1543152445
 30
0.0
 10
193.1798975911
 20
374.1878923432
 30
0.0
  0
SPLINE
  5
39C
100
AcDbEntity
  8
0
100
AcDbSpline
 62
7
  6
CONTINUOUS
 70
0
 71
3
 72
9
 73
5
 74
0
 42
0.0000001
 43
0.0000001
 44
0.0000000001
 40
0.0
 40
0.0
 40
0.0
 40
0.0
 40
0.2939127524
 40
1.0
 40
1.0
 40
1.0
 40
1.0
 10
368.5430770305
 20
277.4348522184
 30
0.0
 10
368.564891743
 20
277.4222577731
 30
0.0
 10
368.6351230104
 20
277.3748690821
 30
0.0
 10
368.6895712302
 20
277.2912441935
 30
0.0
 10
368.6895712609
 20
277.2307301263
 30
0.0
  0
SPLINE
  5
39D
100
AcDbEntity
  8
0
100
AcDbSpline
 62
7
  6
CONTINUOUS
 70
0
 71
3
 72
9
 73
5
 74
0
 42
0.0000001
 43
0.0000001
 44
0.0000000001
 40
0.0
 40
0.0
 40
0.0
 40
0.0
 40
0.2939127524
 40
1.0
 40
1.0
 40
1.0
 40
1.0
 10
121.0546732291
 20
420.3191163005
 30
0.0
 10
121.0764879415
 20
420.3065218552
 30
0.0
 10
121.146719209
 20
420.2591331642
 30
0.0
 10
121.2011674288
 20
420.1755082756
 30
0.0
 10
121.2011674594
 20
420.1149942084
 30
0.0
  0
SPLINE
  5
39E
100
AcDbEntity
  8
0
100
AcDbSpline
 62
7
  6
CONTINUOUS
 70
0
 71
3
 72
9
 73
5
 74
0
 42
0.0000001
 43
0.0000001
 44
0.0000000001
 40
0.0
 40
0.0
 40
0.0
 40
0.0
 40
0.2405220257
 40
1.0
 40
1.0
 40
1.0
 40
1.0
 10
90.6489579917
 20
437.4652262829
 30
0.0
 10
90.699107595
 20
437.4941799968
 30
0.0
 10
90.9266320147
 20
437.5759129633
 30
0.0
 10
91.1977105666
 20
437.5566517648
 30
0.0
 10
91.3560647863
 20
437.4652279826
 30
0.0
  0
SPLINE
  5
39F
100
AcDbEntity
  8
0
100
AcDbSpline
 62
7
  6
CONTINUOUS
 70
0
 71
3
 72
9
 73
5
 74
0
 42
0.0000001
 43
0.0000001
 44
0.0000000001
 40
0.0
 40
0.0
 40
0.0
 40
0.0
 40
0.2208527039
 40
1.0
 40
1.0
 40
1.0
 40
1.0
 10
210.7111494334
 20
363.7777531104
 30
0.0
 10
210.7111494238
 20
363.7967883461
 30
0.0
 10
210.7265847684
 20
363.883564403
 30
0.0
 10
210.7994831322
 20
363.9482963815
 30
0.0
 10
210.8576407197
 20
363.9818734802
 30
0.0
  0
SPLINE
  5
3A0
100
AcDbEntity
  8
0
100
AcDbSpline
 62
7
  6
CONTINUOUS
 70
0
 71
3
 72
9
 73
5
 74
0
 42
0.0000001
 43
0.0000001
 44
0.0000000001
 40
0.0
 40
0.0
 40
0.0
 40
0.0
 40
0.2405220257
 40
1.0
 40
1.0
 40
1.0
 40
1.0
 10
338.1373617932
 20
294.5809622008
 30
0.0
 10
338.1875113965
 20
294.6099159147
 30
0.0
 10
338.4150358162
 20
294.6916488812
 30
0.0
 10
338.686114368
 20
294.6723876827
 30
0.0
 10
338.8444685877
 20
294.5809639005
 30
0.0
  0
SPLINE
  5
3A1
100
AcDbEntity
  8
0
100
AcDbSpline
 62
7
  6
CONTINUOUS
 70
0
 71
3
 72
9
 73
5
 74
0
 42
0.0000001
 43
0.0000001
 44
0.0000000001
 40
0.0
 40
0.0
 40
0.0
 40
0.0
 40
0.2939127524
 40
1.0
 40
1.0
 40
1.0
 40
1.0
 10
103.3769301004
 20
430.5251351635
 30
0.0
 10
103.3987448128
 20
430.5125407182
 30
0.0
 10
103.4689760803
 20
430.4651520272
 30
0.0
 10
103.5234243001
 20
430.3815271386
 30
0.0
 10
103.5234243307
 20
430.3210130714
 30
0.0
  0
SPLINE
  5
3A2
100
AcDbEntity
  8
0
100
AcDbSpline
 62
7
  6
CONTINUOUS
 70
0
 71
3
 72
9
 73
5
 74
0
 42
0.0000001
 43
0.0000001
 44
0.0000000001
 40
0.0
 40
0.0
 40
0.0
 40
0.0
 40
0.2405220257
 40
1.0
 40
1.0
 40
1.0
 40
1.0
 10
72.9712148631
 20
447.6712451459
 30
0.0
 10
73.0213644664
 20
447.7001988598
 30
0.0
 10
73.248888886
 20
447.7819318263
 30
0.0
 10
73.5199674379
 20
447.7626706278
 30
0.0
 10
73.6783216576
 20
447.6712468456
 30
0.0
  0
SPLINE
  5
3A3
100
AcDbEntity
  8
0
100
AcDbSpline
 62
7
  6
CONTINUOUS
 70
0
 71
3
 72
8
 73
4
 74
0
 42
0.0000001
 43
0.0000001
 44
0.0000000001
 40
0.0
 40
0.0
 40
0.0
 40
0.0
 40
1.0
 40
1.0
 40
1.0
 40
1.0
 10
431.5266914746
 20
244.5011545363
 30
0.0
 10
431.497677869
 20
244.4844036233
 30
0.0
 10
431.4556873915
 20
244.4744634789
 30
0.0
 10
431.4266776372
 20
244.4912210609
 30
0.0
  0
SPLINE
  5
3A4
100
AcDbEntity
  8
0
100
AcDbSpline
 62
7
  6
CONTINUOUS
 70
0
 71
3
 72
9
 73
5
 74
0
 42
0.0000001
 43
0.0000001
 44
0.0000000001
 40
0.0
 40
0.0
 40
0.0
 40
0.0
 40
0.2939127524
 40
1.0
 40
1.0
 40
1.0
 40
1.0
 10
350.8653339019
 20
287.6408710814
 30
0.0
 10
350.8871486143
 20
287.6282766361
 30
0.0
 10
350.9573798818
 20
287.5808879451
 30
0.0
 10
351.0118281015
 20
287.4972630565
 30
0.0
 10
351.0118281322
 20
287.4367489893
 30
0.0
  0
SPLINE
  5
3A5
100
AcDbEntity
  8
0
100
AcDbSpline
 62
7
  6
CONTINUOUS
 70
0
 71
3
 72
9
 73
5
 74
0
 42
0.0000001
 43
0.0000001
 44
0.0000000001
 40
0.0
 40
0.0
 40
0.0
 40
0.0
 40
0.2208527039
 40
1.0
 40
1.0
 40
1.0
 40
1.0
 10
228.3888925621
 20
353.5717342474
 30
0.0
 10
228.3888925524
 20
353.590769483
 30
0.0
 10
228.4043278971
 20
353.67754554
 30
0.0
 10
228.4772262609
 20
353.7422775185
 30
0.0
 10
228.5353838484
 20
353.7758546172
 30
0.0
  0
SPLINE
  5
3A6
100
AcDbEntity
  8
0
100
AcDbSpline
 62
7
  6
CONTINUOUS
 70
0
 71
3
 72
9
 73
5
 74
0
 42
0.0000001
 43
0.0000001
 44
0.0000000001
 40
0.0
 40
0.0
 40
0.0
 40
0.0
 40
0.2939127524
 40
1.0
 40
1.0
 40
1.0
 40
1.0
 10
85.6991869717
 20
440.7311540265
 30
0.0
 10
85.7210016842
 20
440.7185595812
 30
0.0
 10
85.7912329516
 20
440.6711708902
 30
0.0
 10
85.8456811714
 20
440.5875460016
 30
0.0
 10
85.8456812021
 20
440.5270319344
 30
0.0
  0
SPLINE
  5
3A7
100
AcDbEntity
  8
0
100
AcDbSpline
 62
7
  6
CONTINUOUS
 70
0
 71
3
 72
9
 73
5
 74
0
 42
0.0000001
 43
0.0000001
 44
0.0000000001
 40
0.0
 40
0.0
 40
0.0
 40
0.0
 40
0.2405220257
 40
1.0
 40
1.0
 40
1.0
 40
1.0
 10
320.4596186645
 20
304.7869810638
 30
0.0
 10
320.5097682678
 20
304.8159347777
 30
0.0
 10
320.7372926875
 20
304.8976677442
 30
0.0
 10
321.0083712393
 20
304.8784065457
 30
0.0
 10
321.166725459
 20
304.7869827635
 30
0.0
  0
SPLINE
  5
3A8
100
AcDbEntity
  8
0
100
AcDbSpline
 62
7
  6
CONTINUOUS
 70
0
 71
3
 72
9
 73
5
 74
0
 42
0.0000001
 43
0.0000001
 44
0.0000000001
 40
0.0
 40
0.0
 40
0.0
 40
0.0
 40
0.2208527039
 40
1.0
 40
1.0
 40
1.0
 40
1.0
 10
246.0666356907
 20
343.3657153844
 30
0.0
 10
246.0666356811
 20
343.38475062
 30
0.0
 10
246.0820710257
 20
343.471526677
 30
0.0
 10
246.1549693896
 20
343.5362586555
 30
0.0
 10
246.2131269771
 20
343.5698357542
 30
0.0
  0
SPLINE
  5
3A9
100
AcDbEntity
  8
0
100
AcDbSpline
 62
7
  6
CONTINUOUS
 70
0
 71
3
 72
8
 73
4
 74
0
 42
0.0000001
 43
0.0000001
 44
0.0000000001
 40
0.0
 40
0.0
 40
0.0
 40
0.0
 40
1.0
 40
1.0
 40
1.0
 40
1.0
 10
430.63675994
 20
248.4303094905
 30
0.0
 10
430.6657710267
 20
248.4135511389
 30
0.0
 10
430.67816687
 20
248.3722278773
 30
0.0
 10
430.67816687
 20
248.3387243625
 30
0.0
  0
SPLINE
  5
3AA
100
AcDbEntity
  8
0
100
AcDbSpline
 62
7
  6
CONTINUOUS
 70
0
 71
3
 72
9
 73
5
 74
0
 42
0.0000001
 43
0.0000001
 44
0.0000000001
 40
0.0
 40
0.0
 40
0.0
 40
0.0
 40
0.2939127524
 40
1.0
 40
1.0
 40
1.0
 40
1.0
 10
333.1875907732
 20
297.8468899444
 30
0.0
 10
333.2094054856
 20
297.8342954991
 30
0.0
 10
333.2796367531
 20
297.7869068081
 30
0.0
 10
333.3340849729
 20
297.7032819195
 30
0.0
 10
333.3340850035
 20
297.6427678523
 30
0.0
  0
SPLINE
  5
3AB
100
AcDbEntity
  8
0
100
AcDbSpline
 62
7
  6
CONTINUOUS
 70
0
 71
3
 72
9
 73
5
 74
0
 42
0.0000001
 43
0.0000001
 44
0.0000000001
 40
0.0
 40
0.0
 40
0.0
 40
0.0
 40
0.2405220257
 40
1.0
 40
1.0
 40
1.0
 40
1.0
 10
302.7818755358
 20
314.9929999268
 30
0.0
 10
302.8320251391
 20
315.0219536407
 30
0.0
 10
303.0595495588
 20
315.1036866072
 30
0.0
 10
303.3306281106
 20
315.0844254087
 30
0.0
 10
303.4889823304
 20
314.9930016265
 30
0.0
  0
SPLINE
  5
3AC
100
AcDbEntity
  8
0
100
AcDbSpline
 62
7
  6
CONTINUOUS
 70
0
 71
3
 72
9
 73
5
 74
0
 42
0.0000001
 43
0.0000001
 44
0.0000000001
 40
0.0
 40
0.0
 40
0.0
 40
0.0
 40
0.2208527039
 40
1.0
 40
1.0
 40
1.0
 40
1.0
 10
263.7443788194
 20
333.1596965214
 30
0.0
 10
263.7443788098
 20
333.178731757
 30
0.0
 10
263.7598141544
 20
333.265507814
 30
0.0
 10
263.8327125182
 20
333.3302397925
 30
0.0
 10
263.8908701058
 20
333.3638168912
 30
0.0
  0
SPLINE
  5
3AD
100
AcDbEntity
  8
0
100
AcDbSpline
 62
7
  6
CONTINUOUS
 70
0
 71
3
 72
9
 73
5
 74
0
 42
0.0000001
 43
0.0000001
 44
0.0000000001
 40
0.0
 40
0.0
 40
0.0
 40
0.0
 40
0.2939127524
 40
1.0
 40
1.0
 40
1.0
 40
1.0
 10
315.5098476445
 20
308.0529088074
 30
0.0
 10
315.5316623569
 20
308.0403143621
 30
0.0
 10
315.6018936244
 20
307.9929256711
 30
0.0
 10
315.6563418442
 20
307.9093007825
 30
0.0
 10
315.6563418748
 20
307.8487867153
 30
0.0
  0
SPLINE
  5
3AE
100
AcDbEntity
  8
0
100
AcDbSpline
 62
7
  6
CONTINUOUS
 70
0
 71
3
 72
9
 73
5
 74
0
 42
0.0000001
 43
0.0000001
 44
0.0000000001
 40
0.0
 40
0.0
 40
0.0
 40
0.0
 40
0.2405220257
 40
1.0
 40
1.0
 40
1.0
 40
1.0
 10
285.1041324072
 20
325.1990187898
 30
0.0
 10
285.1542820105
 20
325.2279725037
 30
0.0
 10
285.3818064301
 20
325.3097054702
 30
0.0
 10
285.652884982
 20
325.2904442717
 30
0.0
 10
285.8112392017
 20
325.1990204895
 30
0.0
  0
SPLINE
  5
3AF
100
AcDbEntity
  8
0
100
AcDbSpline
 62
7
  6
CONTINUOUS
 70
0
 71
3
 72
9
 73
5
 74
0
 42
0.0000001
 43
0.0000001
 44
0.0000000001
 40
0.0
 40
0.0
 40
0.0
 40
0.0
 40
0.2208527039
 40
1.0
 40
1.0
 40
1.0
 40
1.0
 10
281.4221219481
 20
322.9536776584
 30
0.0
 10
281.4221219385
 20
322.972712894
 30
0.0
 10
281.4375572831
 20
323.059488951
 30
0.0
 10
281.5104556469
 20
323.1242209295
 30
0.0
 10
281.5686132344
 20
323.1577980282
 30
0.0
  0
SPLINE
  5
3B0
100
AcDbEntity
  8
0
100
AcDbSpline
 62
7
  6
CONTINUOUS
 70
0
 71
3
 72
9
 73
5
 74
0
 42
0.0000001
 43
0.0000001
 44
0.0000000001
 40
0.0
 40
0.0
 40
0.0
 40
0.0
 40
0.2939127524
 40
1.0
 40
1.0
 40
1.0
 40
1.0
 10
297.8321045158
 20
318.2589276704
 30
0.0
 10
297.8539192283
 20
318.2463332251
 30
0.0
 10
297.9241504957
 20
318.1989445341
 30
0.0
 10
297.9785987155
 20
318.1153196455
 30
0.0
 10
297.9785987462
 20
318.0548055783
 30
0.0
  0
SPLINE
  5
3B1
100
AcDbEntity
  8
0
100
AcDbSpline
 62
7
  6
CONTINUOUS
 70
0
 71
3
 72
9
 73
5
 74
0
 42
0.0000001
 43
0.0000001
 44
0.0000000001
 40
0.0
 40
0.0
 40
0.0
 40
0.0
 40
0.2405220257
 40
1.0
 40
1.0
 40
1.0
 40
1.0
 10
267.4263892785
 20
335.4050376529
 30
0.0
 10
267.4765388818
 20
335.4339913667
 30
0.0
 10
267.7040633015
 20
335.5157243332
 30
0.0
 10
267.9751418533
 20
335.4964631347
 30
0.0
 10
268.133496073
 20
335.4050393525
 30
0.0
  0
SPLINE
  5
3B2
100
AcDbEntity
  8
0
100
AcDbSpline
 62
7
  6
CONTINUOUS
 70
0
 71
3
 72
9
 73
5
 74
0
 42
0.0000001
 43
0.0000001
 44
0.0000000001
 40
0.0
 40
0.0
 40
0.0
 40
0.0
 40
0.2208527039
 40
1.0
 40
1.0
 40
1.0
 40
1.0
 10
69.289204404
 20
445.4259040145
 30
0.0
 10
69.2892043944
 20
445.4449392501
 30
0.0
 10
69.304639739
 20
445.5317153071
 30
0.0
 10
69.3775381028
 20
445.5964472856
 30
0.0
 10
69.4356956903
 20
445.6300243843
 30
0.0
  0
SPLINE
  5
3B3
100
AcDbEntity
  8
0
100
AcDbSpline
 62
7
  6
CONTINUOUS
 70
0
 71
3
 72
9
 73
5
 74
0
 42
0.0000001
 43
0.0000001
 44
0.0000000001
 40
0.0
 40
0.0
 40
0.0
 40
0.0
 40
0.2208527039
 40
1.0
 40
1.0
 40
1.0
 40
1.0
 10
299.0998650768
 20
312.7476587954
 30
0.0
 10
299.0998650671
 20
312.766694031
 30
0.0
 10
299.1153004118
 20
312.853470088
 30
0.0
 10
299.1881987756
 20
312.9182020665
 30
0.0
 10
299.2463563631
 20
312.9517791652
 30
0.0
  0
SPLINE
  5
3B4
100
AcDbEntity
  8
0
100
AcDbSpline
 62
7
  6
CONTINUOUS
 70
0
 71
3
 72
9
 73
5
 74
0
 42
0.0000001
 43
0.0000001
 44
0.0000000001
 40
0.0
 40
0.0
 40
0.0
 40
0.0
 40
0.2939127524
 40
1.0
 40
1.0
 40
1.0
 40
1.0
 10
280.1543613872
 20
328.4649465334
 30
0.0
 10
280.1761760996
 20
328.4523520881
 30
0.0
 10
280.2464073671
 20
328.4049633971
 30
0.0
 10
280.3008555868
 20
328.3213385085
 30
0.0
 10
280.3008556175
 20
328.2608244413
 30
0.0
  0
SPLINE
  5
3B5
100
AcDbEntity
  8
0
100
AcDbSpline
 62
7
  6
CONTINUOUS
 70
0
 71
3
 72
9
 73
5
 74
0
 42
0.0000001
 43
0.0000001
 44
0.0000000001
 40
0.0
 40
0.0
 40
0.0
 40
0.0
 40
0.2405220257
 40
1.0
 40
1.0
 40
1.0
 40
1.0
 10
249.7486461498
 20
345.6110565159
 30
0.0
 10
249.7987957531
 20
345.6400102297
 30
0.0
 10
250.0263201728
 20
345.7217431962
 30
0.0
 10
250.2973987246
 20
345.7024819977
 30
0.0
 10
250.4557529443
 20
345.6110582155
 30
0.0
  0
SPLINE
  5
3B6
100
AcDbEntity
  8
0
100
AcDbSpline
 62
7
  6
CONTINUOUS
 70
0
 71
3
 72
8
 73
4
 74
0
 42
0.0000001
 43
0.0000001
 44
0.0000000001
 40
0.0
 40
0.0
 40
0.0
 40
0.0
 40
1.0
 40
1.0
 40
1.0
 40
1.0
 10
412.2934671024
 20
233.5602140344
 30
0.0
 10
412.2934671024
 20
233.4659331303
 30
0.0
 10
412.2336961149
 20
233.3624049613
 30
0.0
 10
412.152046335
 20
233.3152647202
 30
0.0
  0
SPLINE
  5
3B7
100
AcDbEntity
  8
0
100
AcDbSpline
 62
7
  6
CONTINUOUS
 70
0
 71
3
 72
9
 73
5
 74
0
 42
0.0000001
 43
0.0000001
 44
0.0000000001
 40
0.0
 40
0.0
 40
0.0
 40
0.0
 40
0.2208527039
 40
1.0
 40
1.0
 40
1.0
 40
1.0
 10
316.7776082054
 20
302.5416399324
 30
0.0
 10
316.7776081958
 20
302.560675168
 30
0.0
 10
316.7930435404
 20
302.6474512249
 30
0.0
 10
316.8659419043
 20
302.7121832035
 30
0.0
 10
316.9240994918
 20
302.7457603022
 30
0.0
  0
SPLINE
  5
3B8
100
AcDbEntity
  8
0
100
AcDbSpline
 62
7
  6
CONTINUOUS
 70
0
 71
3
 72
9
 73
5
 74
0
 42
0.0000001
 43
0.0000001
 44
0.0000000001
 40
0.0
 40
0.0
 40
0.0
 40
0.0
 40
0.2208527039
 40
1.0
 40
1.0
 40
1.0
 40
1.0
 10
86.9669475327
 20
435.2198851515
 30
0.0
 10
86.966947523
 20
435.2389203871
 30
0.0
 10
86.9823828677
 20
435.325696444
 30
0.0
 10
87.0552812315
 20
435.3904284226
 30
0.0
 10
87.113438819
 20
435.4240055213
 30
0.0
  0
SPLINE
  5
3B9
100
AcDbEntity
  8
0
100
AcDbSpline
 62
7
  6
CONTINUOUS
 70
0
 71
3
 72
9
 73
5
 74
0
 42
0.0000001
 43
0.0000001
 44
0.0000000001
 40
0.0
 40
0.0
 40
0.0
 40
0.0
 40
0.2939127524
 40
1.0
 40
1.0
 40
1.0
 40
1.0
 10
262.4766182585
 20
338.6709653964
 30
0.0
 10
262.4984329709
 20
338.6583709511
 30
0.0
 10
262.5686642384
 20
338.6109822601
 30
0.0
 10
262.6231124582
 20
338.5273573715
 30
0.0
 10
262.6231124888
 20
338.4668433043
 30
0.0
  0
SPLINE
  5
3BA
100
AcDbEntity
  8
0
100
AcDbSpline
 62
7
  6
CONTINUOUS
 70
0
 71
3
 72
9
 73
5
 74
0
 42
0.0000001
 43
0.0000001
 44
0.0000000001
 40
0.0
 40
0.0
 40
0.0
 40
0.0
 40
0.2405220257
 40
1.0
 40
1.0
 40
1.0
 40
1.0
 10
232.0709030211
 20
355.8170753789
 30
0.0
 10
232.1210526244
 20
355.8460290927
 30
0.0
 10
232.3485770441
 20
355.9277620592
 30
0.0
 10
232.619655596
 20
355.9085008607
 30
0.0
 10
232.7780098157
 20
355.8170770785
 30
0.0
  0
SPLINE
  5
3BB
100
AcDbEntity
  8
0
100
AcDbSpline
 62
7
  6
CONTINUOUS
 70
0
 71
3
 72
9
 73
5
 74
0
 42
0.0000001
 43
0.0000001
 44
0.0000000001
 40
0.0
 40
0.0
 40
0.0
 40
0.0
 40
0.2405220257
 40
1.0
 40
1.0
 40
1.0
 40
1.0
 10
408.8483343079
 20
253.7568867488
 30
0.0
 10
408.8984839112
 20
253.7858404626
 30
0.0
 10
409.1260083309
 20
253.8675734292
 30
0.0
 10
409.3970868827
 20
253.8483122306
 30
0.0
 10
409.5554411024
 20
253.7568884485
 30
0.0
  0
SPLINE
  5
3BC
100
AcDbEntity
  8
0
100
AcDbSpline
 62
7
  6
CONTINUOUS
 70
0
 71
3
 72
9
 73
5
 74
0
 42
0.0000001
 43
0.0000001
 44
0.0000000001
 40
0.0
 40
0.0
 40
0.0
 40
0.0
 40
0.2208527039
 40
1.0
 40
1.0
 40
1.0
 40
1.0
 10
334.4553513341
 20
292.3356210694
 30
0.0
 10
334.4553513245
 20
292.354656305
 30
0.0
 10
334.4707866691
 20
292.4414323619
 30
0.0
 10
334.5436850329
 20
292.5061643405
 30
0.0
 10
334.6018426205
 20
292.5397414392
 30
0.0
  0
SPLINE
  5
3BD
100
AcDbEntity
  8
0
100
AcDbSpline
 62
7
  6
CONTINUOUS
 70
0
 71
3
 72
9
 73
5
 74
0
 42
0.0000001
 43
0.0000001
 44
0.0000000001
 40
0.0
 40
0.0
 40
0.0
 40
0.0
 40
0.2208527039
 40
1.0
 40
1.0
 40
1.0
 40
1.0
 10
104.6446906613
 20
425.0138662885
 30
0.0
 10
104.6446906517
 20
425.0329015241
 30
0.0
 10
104.6601259963
 20
425.119677581
 30
0.0
 10
104.7330243602
 20
425.1844095596
 30
0.0
 10
104.7911819477
 20
425.2179866583
 30
0.0
  0
SPLINE
  5
3BE
100
AcDbEntity
  8
0
100
AcDbSpline
 62
7
  6
CONTINUOUS
 70
0
 71
3
 72
9
 73
5
 74
0
 42
0.0000001
 43
0.0000001
 44
0.0000000001
 40
0.0
 40
0.0
 40
0.0
 40
0.0
 40
0.2939127524
 40
1.0
 40
1.0
 40
1.0
 40
1.0
 10
244.7988751298
 20
348.8769842594
 30
0.0
 10
244.8206898422
 20
348.8643898141
 30
0.0
 10
244.8909211097
 20
348.8170011231
 30
0.0
 10
244.9453693295
 20
348.7333762345
 30
0.0
 10
244.9453693601
 20
348.6728621673
 30
0.0
  0
SPLINE
  5
3BF
100
AcDbEntity
  8
0
100
AcDbSpline
 62
7
  6
CONTINUOUS
 70
0
 71
3
 72
9
 73
5
 74
0
 42
0.0000001
 43
0.0000001
 44
0.0000000001
 40
0.0
 40
0.0
 40
0.0
 40
0.0
 40
0.2208527039
 40
1.0
 40
1.0
 40
1.0
 40
1.0
 10
352.1330944628
 20
282.1296022064
 30
0.0
 10
352.1330944532
 20
282.148637442
 30
0.0
 10
352.1485297978
 20
282.2354134989
 30
0.0
 10
352.2214281616
 20
282.3001454774
 30
0.0
 10
352.2795857491
 20
282.3337225762
 30
0.0
  0
SPLINE
  5
3C0
100
AcDbEntity
  8
0
100
AcDbSpline
 62
7
  6
CONTINUOUS
 70
0
 71
3
 72
9
 73
5
 74
0
 42
0.0000001
 43
0.0000001
 44
0.0000000001
 40
0.0
 40
0.0
 40
0.0
 40
0.0
 40
0.2405220257
 40
1.0
 40
1.0
 40
1.0
 40
1.0
 10
214.3931598925
 20
366.0230942419
 30
0.0
 10
214.4433094958
 20
366.0520479557
 30
0.0
 10
214.6708339154
 20
366.1337809222
 30
0.0
 10
214.9419124673
 20
366.1145197237
 30
0.0
 10
215.100266687
 20
366.0230959416
 30
0.0
  0
SPLINE
  5
3C1
100
AcDbEntity
  8
0
100
AcDbSpline
 62
7
  6
CONTINUOUS
 70
0
 71
3
 72
9
 73
5
 74
0
 42
0.0000001
 43
0.0000001
 44
0.0000000001
 40
0.0
 40
0.0
 40
0.0
 40
0.0
 40
0.4999983279
 40
1.0
 40
1.0
 40
1.0
 40
1.0
 10
413.1419917071
 20
239.194072247
 30
0.0
 10
412.8901371165
 20
239.0486647993
 30
0.0
 10
412.4922103368
 20
238.5894278029
 30
0.0
 10
412.2934671024
 20
238.0151945042
 30
0.0
 10
412.2934671024
 20
237.7243763618
 30
0.0
  0
ENDSEC
  0
SECTION
  2
OBJECTS
  0
DICTIONARY
  5
C
100
AcDbDictionary
280
0
281
1
  3
ACAD_GROUP
350
D
  3
ACAD_MLINESTYLE
350
17
  3
ACAD_LAYOUT
350
1A
  3
ACAD_PLOTSETTINGS
350
19
  3
ACAD_PLOTSTYLENAME
350
E
  0
DICTIONARY
  5
D
102
{ACAD_REACTORS
330
C
102
}
100
AcDbDictionary
280
0
281
1
  0
ACDBDICTIONARYWDFLT
  5
E
102
{ACAD_REACTORS
330
C
102
}
100
AcDbDictionary
281
1
  3
Normal
350
F
100
AcDbDictionaryWithDefault
340
F
  0
DICTIONARY
  5
17
102
{ACAD_REACTORS
330
C
102
}
100
AcDbDictionary
280
0
281
1
  3
Standard
350
18
  0
DICTIONARY
  5
19
102
{ACAD_REACTORS
330
C
102
}
100
AcDbDictionary
281
1
  0
DICTIONARY
  5
1A
102
{ACAD_REACTORS
330
C
102
}
100
AcDbDictionary
281
1
  3
Model
350
3C2
  3
Layout1
350
3C3
  0
ACDBPLACEHOLDER
  5
F
102
{ACAD_REACTORS
330
E
102
}
  0
MLINESTYLE
  5
18
102
{ACAD_REACTORS
330
17
102
}
100
AcDbMlineStyle
  2
STANDARD
 70
0
  3

 62
256
 51
90.0
 52
90.0
 71
2
 49
0.5
 62
256
  6
BYLAYER
 49
-0.5
 62
256
  6
BYLAYER
  0
LAYOUT
  5
3C2
102
{ACAD_REACTORS
330
1A
102
}
100
AcDbPlotSettings
  1

  2
none_device
  4

  6

 40
0.0
 41
0.0
 42
0.0
 43
0.0
 44
210.0
 45
297.0
 46
0.0
 47
0.0
 48
0.0
 49
0.0
140
0.0
141
0.0
142
1.0
143
1.0
 70
1024
 72
1
 73
0
 74
0
  7

 75
0
147
1.0
148
0.0
149
0.0
100
AcDbLayout
  1
Model
 70
0
 71
0
 10
0.0
 20
0.0
 11
210.0
 21
297.0
 12
0.0
 22
0.0
 32
0.0
 14
0.0
 24
0.0
 34
0.0
 15
0.0
 25
0.0
 35
0.0
146
0.0
 13
0.0
 23
0.0
 33
0.0
 16
1.0
 26
0.0
 36
0.0
 17
0.0
 27
1.0
 37
0.0
 76
0
330
211
345
0
346
0
  0
LAYOUT
  5
3C3
102
{ACAD_REACTORS
330
1A
102
}
100
AcDbPlotSettings
  1

  2
none_device
  4

  6

 40
0.0
 41
0.0
 42
0.0
 43
0.0
 44
210.0
 45
297.0
 46
0.0
 47
0.0
 48
0.0
 49
0.0
140
0.0
141
0.0
142
1.0
143
1.0
 70
0
 72
1
 73
0
 74
0
  7

 75
0
147
1.0
148
0.0
149
0.0
100
AcDbLayout
  1
Layout1
 70
0
 71
1
 10
0.0
 20
0.0
 11
210.0
 21
297.0
 12
0.0
 22
0.0
 32
0.0
 14
0.0
 24
0.0
 34
0.0
 15
0.0
 25
0.0
 35
0.0
146
0.0
 13
0.0
 23
0.0
 33
0.0
 16
1.0
 26
0.0
 36
0.0
 17
0.0
 27
1.0
 37
0.0
 76
0
330
212
345
0
346
0
  0
ENDSEC
  0
EOF
