999
DXF file: C:\Users\sesa63760\Dev\_Creo\CAD\MCADPD0004697_3D-CAD\drw0001_7.dxf
999
Pro/ENGINEER 2019471 by Parametric Technology Corporation
  0
SECTION
  2
HEADER
  9
$ACADVER
  1
AC1024
  9
$DWGCODEPAGE
  3
ANSI_1252
  9
$EXTMAX
 10
113.7656654068
 20
160.8971553611
 30
0.0
  9
$EXTMIN
 10
0.0
 20
0.0
 30
0.0
  9
$LIMMIN
 10
0.0
 20
0.0
  9
$LIMMAX
 10
113.7656654068
 20
160.8971553611
  9
$VIEWCTR
 10
56.8828327034
 20
80.4485776805
  9
$VIEWSIZE
 40
160.8971553611
  9
$CLAYER
  8
0
  9
$LTSCALE
 40
10.488110868
  9
$CELTYPE
  6
BYLAYER
  9
$DIMSCALE
 40
1.0
  9
$DIMASZ
 40
1.3543531596
  9
$DIMEXO
 40
1.0
  9
$DIMDLI
 40
7.2463311451
  9
$DIMEXE
 40
1.0
  9
$DIMCEN
 40
1.7162363239
  9
$DIMLFAC
 40
1.0
  9
$DIMBLK
  1
_FILLED
  9
$DIMALT
 70
0
  9
$DIMALTF
 40
0.0393700787
  9
$DIMTXT
 40
1.8960944234
  9
$DIMTOL
 70
1
  9
$DIMLIM
 70
0
  9
$DIMTFAC
 40
1.0
  9
$DIMTP
 40
0.01
  9
$DIMTM
 40
0.01
  9
$DIMGAP
 40
0.625
  9
$DIMDSEP
 70
46
  9
$AUNITS
 70
0
  9
$PDMODE
 70
3
  9
$PDSIZE
 40
0.3125
  9
$HANDSEED
  5
2D5
  9
$TILEMODE
 70
1
  9
$MEASUREMENT
 70
1
  9
$INSUNITS
 70
4
  0
ENDSEC
  0
SECTION
  2
CLASSES
  0
CLASS
  1
ACDBDICTIONARYWDFLT
  2
AcDbDictionaryWithDefault
  3
AutoCAD 2000
 90
0
 91
1
280
0
281
0
  0
CLASS
  1
ACDBPLACEHOLDER
  2
AcDbPlaceHolder
  3
AutoCAD 2000
 90
0
 91
1
280
0
281
0
  0
CLASS
  1
LAYOUT
  2
AcDbLayout
  3
AutoCAD 2000
 90
0
 91
0
280
0
281
0
  0
ENDSEC
  0
SECTION
  2
TABLES
  0
TABLE
  2
VPORT
  5
8
100
AcDbSymbolTable
 70
2
  0
VPORT
  5
1F4
100
AcDbSymbolTableRecord
100
AcDbViewportTableRecord
  2
*ACTIVE
 70
0
 10
0.0
 20
0.0
 11
1.0
 21
1.0
 12
56.8828327034
 22
80.4485776805
 13
0.0
 23
0.0
 14
1.0
 24
1.0
 15
0.0
 25
0.0
 16
0.0
 26
0.0
 36
1.0
 17
0.0
 27
0.0
 37
0.0
 40
160.8971553611
 41
0.7070707071
 42
50.0
 43
0.0
 44
0.0
 50
0.0
 51
0.0
 71
0
 72
100
 73
1
 74
1
 75
0
 76
0
 77
0
 78
0
  0
ENDTAB
  0
TABLE
  2
LTYPE
  5
5
100
AcDbSymbolTable
 70
6
  0
LTYPE
  5
14
100
AcDbSymbolTableRecord
100
AcDbLinetypeTableRecord
  2
BYBLOCK
 70
0
  3

 72
65
 73
0
 40
0.0
  0
LTYPE
  5
15
100
AcDbSymbolTableRecord
100
AcDbLinetypeTableRecord
  2
BYLAYER
 70
0
  3

 72
65
 73
0
 40
0.0
  0
LTYPE
  5
16
100
AcDbSymbolTableRecord
100
AcDbLinetypeTableRecord
  2
CONTINUOUS
 70
64
  3
Solid line
 72
65
 73
0
 40
0.0
  0
LTYPE
  5
1F5
100
AcDbSymbolTableRecord
100
AcDbLinetypeTableRecord
  2
CENTER
 70
64
  3
____ _ ____ _ ____ _ ____ _ ____ _ ____ _ ____
 72
65
 73
4
 40
0.6
 49
0.375
 74
0
 49
-0.075
 74
0
 49
0.075
 74
0
 49
-0.075
 74
0
  0
LTYPE
  5
1F6
100
AcDbSymbolTableRecord
100
AcDbLinetypeTableRecord
  2
HIDDEN
 70
64
  3
- - - - - - - - - - - - - - - - - - - -
 72
65
 73
2
 40
0.2
 49
0.1
 74
0
 49
-0.1
 74
0
  0
LTYPE
  5
1F7
100
AcDbSymbolTableRecord
100
AcDbLinetypeTableRecord
  2
PHANTOM
 70
64
  3
_____ _ _ _____ _ _ _____ _ _ _____
 72
65
 73
6
 40
0.8
 49
0.45
 74
0
 49
-0.05
 74
0
 49
0.1
 74
0
 49
-0.05
 74
0
 49
0.1
 74
0
 49
-0.05
 74
0
  0
LTYPE
  5
1F8
100
AcDbSymbolTableRecord
100
AcDbLinetypeTableRecord
  2
DOT
 70
64
  3
. . . . . . . . . . . . . . . . . . . .
 72
65
 73
2
 40
0.2
 49
0.1
 74
0
 49
-0.1
 74
0
  0
LTYPE
  5
1F9
100
AcDbSymbolTableRecord
100
AcDbLinetypeTableRecord
  2
DASHED
 70
64
  3
- - - - - - - - - - - - - - - - - - - -
 72
65
 73
2
 40
0.2
 49
0.1
 74
0
 49
-0.1
 74
0
  0
ENDTAB
  0
TABLE
  2
LAYER
  5
2
100
AcDbSymbolTable
 70
36
  0
LAYER
  5
10
100
AcDbSymbolTableRecord
100
AcDbLayerTableRecord
  2
0
 70
0
 62
7
  6
CONTINUOUS
370
-3
390
F
  0
LAYER
  5
1FA
100
AcDbSymbolTableRecord
100
AcDbLayerTableRecord
  2
DEFAULT_1
 70
0
 62
7
  6
CENTER
370
-3
390
F
  0
LAYER
  5
1FB
100
AcDbSymbolTableRecord
100
AcDbLayerTableRecord
  2
DEFAULT_2
 70
0
 62
7
  6
HIDDEN
370
-3
390
F
  0
LAYER
  5
1FC
100
AcDbSymbolTableRecord
100
AcDbLayerTableRecord
  2
DEFAULT_3
 70
0
 62
7
  6
PHANTOM
370
-3
390
F
  0
LAYER
  5
1FD
100
AcDbSymbolTableRecord
100
AcDbLayerTableRecord
  2
00_COMPONENTS
 70
0
 62
7
  6
CONTINUOUS
370
-3
390
F
  0
LAYER
  5
1FE
100
AcDbSymbolTableRecord
100
AcDbLayerTableRecord
  2
01_1_DEFAULT_DATUMS
 70
0
 62
7
  6
CONTINUOUS
370
-3
390
F
  0
LAYER
  5
1FF
100
AcDbSymbolTableRecord
100
AcDbLayerTableRecord
  2
01_PLANES
 70
0
 62
7
  6
CONTINUOUS
370
-3
390
F
  0
LAYER
  5
200
100
AcDbSymbolTableRecord
100
AcDbLayerTableRecord
  2
02_COORD_SYS
 70
0
 62
7
  6
CONTINUOUS
370
-3
390
F
  0
LAYER
  5
201
100
AcDbSymbolTableRecord
100
AcDbLayerTableRecord
  2
03_AXES
 70
0
 62
7
  6
CONTINUOUS
370
-3
390
F
  0
LAYER
  5
202
100
AcDbSymbolTableRecord
100
AcDbLayerTableRecord
  2
04_POINTS
 70
0
 62
7
  6
CONTINUOUS
370
-3
390
F
  0
LAYER
  5
203
100
AcDbSymbolTableRecord
100
AcDbLayerTableRecord
  2
05_CURVES
 70
0
 62
7
  6
CONTINUOUS
370
-3
390
F
  0
LAYER
  5
204
100
AcDbSymbolTableRecord
100
AcDbLayerTableRecord
  2
06_SURFS
 70
0
 62
7
  6
CONTINUOUS
370
-3
390
F
  0
LAYER
  5
205
100
AcDbSymbolTableRecord
100
AcDbLayerTableRecord
  2
07_COSMETICS
 70
0
 62
7
  6
CONTINUOUS
370
-3
390
F
  0
LAYER
  5
206
100
AcDbSymbolTableRecord
100
AcDbLayerTableRecord
  2
10_NOTES
 70
0
 62
7
  6
CONTINUOUS
370
-3
390
F
  0
LAYER
  5
207
100
AcDbSymbolTableRecord
100
AcDbLayerTableRecord
  2
11_NOTES_PUB
 70
0
 62
7
  6
CONTINUOUS
370
-3
390
F
  0
LAYER
  5
208
100
AcDbSymbolTableRecord
100
AcDbLayerTableRecord
  2
13_REF_GTOL
 70
0
 62
7
  6
CONTINUOUS
370
-3
390
F
  0
LAYER
  5
209
100
AcDbSymbolTableRecord
100
AcDbLayerTableRecord
  2
16_MISC
 70
0
 62
7
  6
CONTINUOUS
370
-3
390
F
  0
LAYER
  5
20A
100
AcDbSymbolTableRecord
100
AcDbLayerTableRecord
  2
17_NO_PRINT
 70
0
 62
7
  6
CONTINUOUS
370
-3
390
F
  0
LAYER
  5
20B
100
AcDbSymbolTableRecord
100
AcDbLayerTableRecord
  2
18_DATUM_CAMS_JOINTS
 70
0
 62
7
  6
CONTINUOUS
370
-3
390
F
  0
LAYER
  5
20C
100
AcDbSymbolTableRecord
100
AcDbLayerTableRecord
  2
19_DATUM_FUNCTIONAL
 70
0
 62
7
  6
CONTINUOUS
370
-3
390
F
  0
LAYER
  5
20D
100
AcDbSymbolTableRecord
100
AcDbLayerTableRecord
  2
20_DATUM_KINEMATIC_SCHEME
 70
0
 62
7
  6
CONTINUOUS
370
-3
390
F
  0
ENDTAB
  0
TABLE
  2
STYLE
  5
3
100
AcDbSymbolTable
 70
1
  0
STYLE
  5
11
100
AcDbSymbolTableRecord
100
AcDbTextStyleTableRecord
  2
STANDARD
 70
0
 40
0.0
 41
1.0
 50
0.0
 71
0
 42
0.2
  3
ARIAL.TTF
  4

  0
STYLE
  5
20E
100
AcDbSymbolTableRecord
100
AcDbTextStyleTableRecord
  2
TEXTSTYLE_1
 70
0
 40
0.0
 41
0.8
 50
0.0
 71
0
 42
0.2
  3
gdt
  4

  0
ENDTAB
  0
TABLE
  2
VIEW
  5
6
100
AcDbSymbolTable
 70
0
  0
ENDTAB
  0
TABLE
  2
UCS
  5
7
100
AcDbSymbolTable
 70
0
  0
ENDTAB
  0
TABLE
  2
APPID
  5
9
100
AcDbSymbolTable
 70
1
  0
APPID
  5
20F
100
AcDbSymbolTableRecord
100
AcDbRegAppTableRecord
  2
ACAD
 70
0
  0
ENDTAB
  0
TABLE
  2
BLOCK_RECORD
  5
1
100
AcDbSymbolTable
 70
0
  0
BLOCK_RECORD
  5
210
100
AcDbSymbolTableRecord
100
AcDbBlockTableRecord
  2
*Model_Space
  0
BLOCK_RECORD
  5
211
100
AcDbSymbolTableRecord
100
AcDbBlockTableRecord
  2
*Paper_Space
  0
BLOCK_RECORD
  5
212
100
AcDbSymbolTableRecord
100
AcDbBlockTableRecord
  2
_FILLED
  0
ENDTAB
  0
TABLE
  2
DIMSTYLE
  5
A
100
AcDbSymbolTable
 70
1
100
AcDbDimStyleTable
 71
0
  0
DIMSTYLE
105
213
100
AcDbSymbolTableRecord
100
AcDbDimStyleTableRecord
  2
STANDARD
 70
0
  3

  4

 40
1.0
 41
1.3543531596
 42
1.0
 43
0.38
 44
1.0
 45
0.0
 46
0.0
 47
0.01
 48
0.01
140
1.8960944234
141
0.09
142
0.0
143
25.4
144
1.0
145
0.0
146
1.0
147
0.625
 71
1
 72
0
 73
0
 74
0
 75
0
 76
0
 77
1
 78
8
 79
2
170
0
171
1
172
0
173
0
174
0
175
0
176
0
177
0
178
0
270
2
179
2
271
2
272
2
273
2
274
2
275
0
280
0
281
0
282
0
283
1
284
8
285
0
286
0
287
3
288
0
340
11
278
46
341
212
342
212
343
212
344
212
  0
ENDTAB
  0
ENDSEC
  0
SECTION
  2
BLOCKS
  0
BLOCK
  5
20
100
AcDbEntity
  8
0
100
AcDbBlockBegin
  2
*Model_Space
 70
0
 10
0.0
 20
0.0
 30
0.0
  3
*Model_Space
  1

  0
ENDBLK
  5
21
100
AcDbEntity
  8
0
100
AcDbBlockEnd
  0
BLOCK
  5
1C
100
AcDbEntity
  8
0
100
AcDbBlockBegin
  2
*Paper_Space
 70
0
 10
0.0
 20
0.0
 30
0.0
  3
*Paper_Space
  1

  0
ENDBLK
  5
1D
100
AcDbEntity
  8
0
100
AcDbBlockEnd
  0
BLOCK
  5
214
100
AcDbEntity
  8
0
100
AcDbBlockBegin
  2
_FILLED
 70
64
 10
0.0
 20
0.0
  3
_FILLED
  1

  0
SOLID
  5
215
100
AcDbEntity
  8
0
  6
BYBLOCK
 62
0
100
AcDbTrace
 10
0.0
 20
0.0
 11
-1.0
 21
0.25
 12
-1.0
 22
-0.25
 13
-1.0
 23
-0.25
  0
ENDBLK
  5
216
100
AcDbEntity
  8
0
  6
BYBLOCK
 62
0
100
AcDbBlockEnd
  0
ENDSEC
  0
SECTION
  2
ENTITIES
  0
LINE
  5
217
100
AcDbEntity
  8
0
100
AcDbLine
 62
7
  6
BYLAYER
 10
73.2797692461
 20
19.5924507659
 11
65.8797692461
 21
19.5924507659
  0
LINE
  5
218
100
AcDbEntity
  8
0
100
AcDbLine
 62
7
  6
BYLAYER
 10
73.7797692461
 20
20.0924507659
 11
65.3797692461
 21
20.0924507659
  0
LINE
  5
219
100
AcDbEntity
  8
0
100
AcDbLine
 62
7
  6
BYLAYER
 10
74.9297692461
 20
21.0924507659
 11
64.2297692461
 21
21.0924507659
  0
LINE
  5
21A
100
AcDbEntity
  8
0
100
AcDbLine
 62
7
  6
BYLAYER
 10
75.7535373486
 20
21.566018603
 11
63.4060011436
 21
21.566018603
  0
LINE
  5
21B
100
AcDbEntity
  8
0
100
AcDbLine
 62
7
  6
BYLAYER
 10
63.3637438423
 20
21.5924507659
 11
75.7957946499
 21
21.5924507659
  0
LINE
  5
21C
100
AcDbEntity
  8
0
100
AcDbLine
 62
7
  6
BYLAYER
 10
63.374519478
 20
21.6188829287
 11
75.7850190141
 21
21.6188829287
  0
LINE
  5
21D
100
AcDbEntity
  8
0
100
AcDbLine
 62
7
  6
BYLAYER
 10
76.1877723589
 20
21.9876140572
 11
62.9717661332
 21
21.9876140572
  0
LINE
  5
21E
100
AcDbEntity
  8
0
100
AcDbLine
 62
7
  6
BYLAYER
 10
59.2097692461
 20
21.9924507659
 11
56.8097692461
 21
21.9924507659
  0
LINE
  5
21F
100
AcDbEntity
  8
0
100
AcDbLine
 62
7
  6
BYLAYER
 10
54.2097692461
 20
21.9924507659
 11
51.8097692461
 21
21.9924507659
  0
LINE
  5
220
100
AcDbEntity
  8
0
100
AcDbLine
 62
7
  6
BYLAYER
 10
49.2097692461
 20
21.9924507659
 11
46.8097692461
 21
21.9924507659
  0
LINE
  5
221
100
AcDbEntity
  8
0
100
AcDbLine
 62
7
  6
BYLAYER
 10
44.2097692461
 20
21.9924507659
 11
41.8097692461
 21
21.9924507659
  0
LINE
  5
222
100
AcDbEntity
  8
0
100
AcDbLine
 62
7
  6
BYLAYER
 10
39.2097692461
 20
21.9924507659
 11
36.8097692461
 21
21.9924507659
  0
LINE
  5
223
100
AcDbEntity
  8
0
100
AcDbLine
 62
7
  6
BYLAYER
 10
12.0797692461
 20
22.0924507659
 11
102.0797692461
 21
22.0924507659
  0
LINE
  5
224
100
AcDbEntity
  8
0
100
AcDbLine
 62
7
  6
BYLAYER
 10
102.0797692461
 20
22.5924507659
 11
97.7297692461
 21
22.5924507659
  0
LINE
  5
225
100
AcDbEntity
  8
0
100
AcDbLine
 62
7
  6
BYLAYER
 10
77.4097692461
 20
22.5924507659
 11
72.3297692461
 21
22.5924507659
  0
LINE
  5
226
100
AcDbEntity
  8
0
100
AcDbLine
 62
7
  6
BYLAYER
 10
16.4497692461
 20
22.5924507659
 11
12.0797692461
 21
22.5924507659
  0
LINE
  5
227
100
AcDbEntity
  8
0
100
AcDbLine
 62
7
  6
BYLAYER
 10
12.0797692461
 20
23.5172669523
 11
16.4497692461
 21
23.5172669523
  0
LINE
  5
228
100
AcDbEntity
  8
0
100
AcDbLine
 62
7
  6
BYLAYER
 10
72.3297692461
 20
23.5172669523
 11
77.4097692461
 21
23.5172669523
  0
LINE
  5
229
100
AcDbEntity
  8
0
100
AcDbLine
 62
7
  6
BYLAYER
 10
97.7297692461
 20
23.5172669523
 11
102.0797692461
 21
23.5172669523
  0
LINE
  5
22A
100
AcDbEntity
  8
0
100
AcDbLine
 62
7
  6
BYLAYER
 10
16.4497692461
 20
23.5924507659
 11
72.3297692461
 21
23.5924507659
  0
LINE
  5
22B
100
AcDbEntity
  8
0
100
AcDbLine
 62
7
  6
BYLAYER
 10
77.4097692461
 20
23.5924507659
 11
97.7297692461
 21
23.5924507659
  0
LINE
  5
22C
100
AcDbEntity
  8
0
100
AcDbLine
 62
7
  6
BYLAYER
 10
102.0797692461
 20
23.6643098767
 11
97.7297692461
 21
23.6643098767
  0
LINE
  5
22D
100
AcDbEntity
  8
0
100
AcDbLine
 62
7
  6
BYLAYER
 10
77.4097692461
 20
23.6643098767
 11
72.3297692461
 21
23.6643098767
  0
LINE
  5
22E
100
AcDbEntity
  8
0
100
AcDbLine
 62
7
  6
BYLAYER
 10
16.4497692461
 20
23.6643098767
 11
12.0797692461
 21
23.6643098767
  0
LINE
  5
22F
100
AcDbEntity
  8
0
100
AcDbLine
 62
7
  6
BYLAYER
 10
16.4497692461
 20
28.3924507659
 11
72.3297692461
 21
28.3924507659
  0
LINE
  5
230
100
AcDbEntity
  8
0
100
AcDbLine
 62
7
  6
BYLAYER
 10
77.4097692461
 20
28.3924507659
 11
97.7297692461
 21
28.3924507659
  0
LINE
  5
231
100
AcDbEntity
  8
0
100
AcDbLine
 62
7
  6
BYLAYER
 10
12.0797692461
 20
30.020591655
 11
16.4497692461
 21
30.020591655
  0
LINE
  5
232
100
AcDbEntity
  8
0
100
AcDbLine
 62
7
  6
BYLAYER
 10
72.3297692461
 20
30.020591655
 11
77.4097692461
 21
30.020591655
  0
LINE
  5
233
100
AcDbEntity
  8
0
100
AcDbLine
 62
7
  6
BYLAYER
 10
97.7297692461
 20
30.020591655
 11
102.0797692461
 21
30.020591655
  0
LINE
  5
234
100
AcDbEntity
  8
0
100
AcDbLine
 62
7
  6
BYLAYER
 10
102.0797692461
 20
30.1676345795
 11
97.7297692461
 21
30.1676345795
  0
LINE
  5
235
100
AcDbEntity
  8
0
100
AcDbLine
 62
7
  6
BYLAYER
 10
77.4097692461
 20
30.1676345795
 11
72.3297692461
 21
30.1676345795
  0
LINE
  5
236
100
AcDbEntity
  8
0
100
AcDbLine
 62
7
  6
BYLAYER
 10
16.4497692461
 20
30.1676345795
 11
12.0797692461
 21
30.1676345795
  0
LINE
  5
237
100
AcDbEntity
  8
0
100
AcDbLine
 62
7
  6
BYLAYER
 10
12.0797692461
 20
22.0924507659
 11
12.0797692461
 21
142.0924507659
  0
LINE
  5
238
100
AcDbEntity
  8
0
100
AcDbLine
 62
7
  6
BYLAYER
 10
16.4497692461
 20
35.5924507659
 11
72.3297692461
 21
35.5924507659
  0
LINE
  5
239
100
AcDbEntity
  8
0
100
AcDbLine
 62
7
  6
BYLAYER
 10
77.4097692461
 20
35.5924507659
 11
97.7297692461
 21
35.5924507659
  0
LINE
  5
23A
100
AcDbEntity
  8
0
100
AcDbLine
 62
7
  6
BYLAYER
 10
63.4060011436
 20
21.566018603
 11
63.3637438423
 21
21.5924507659
  0
LINE
  5
23B
100
AcDbEntity
  8
0
100
AcDbLine
 62
7
  6
BYLAYER
 10
12.4800859017
 20
130.8924507659
 11
12.4800859017
 21
142.0924507659
  0
LINE
  5
23C
100
AcDbEntity
  8
0
100
AcDbLine
 62
7
  6
BYLAYER
 10
14.6103760017
 20
134.8924507659
 11
14.6103760017
 21
130.8924507659
  0
LINE
  5
23D
100
AcDbEntity
  8
0
100
AcDbLine
 62
7
  6
BYLAYER
 10
16.4497692461
 20
39.7924507659
 11
16.4497692461
 21
22.0924507659
  0
LINE
  5
23E
100
AcDbEntity
  8
0
100
AcDbLine
 62
7
  6
BYLAYER
 10
16.5202177738
 20
142.0924507659
 11
16.5202177738
 21
134.8924507659
  0
LINE
  5
23F
100
AcDbEntity
  8
0
100
AcDbLine
 62
7
  6
BYLAYER
 10
16.9297692461
 20
134.8924507659
 11
16.9297692461
 21
142.0924507659
  0
LINE
  5
240
100
AcDbEntity
  8
0
100
AcDbLine
 62
7
  6
BYLAYER
 10
16.4497692461
 20
39.5924507659
 11
72.3297692461
 21
39.5924507659
  0
LINE
  5
241
100
AcDbEntity
  8
0
100
AcDbLine
 62
7
  6
BYLAYER
 10
77.4097692461
 20
39.5924507659
 11
97.7297692461
 21
39.5924507659
  0
LINE
  5
242
100
AcDbEntity
  8
0
100
AcDbLine
 62
7
  6
BYLAYER
 10
97.7297692461
 20
39.7924507659
 11
77.4097692461
 21
39.7924507659
  0
LINE
  5
243
100
AcDbEntity
  8
0
100
AcDbLine
 62
7
  6
BYLAYER
 10
72.3297692461
 20
39.7924507659
 11
16.4497692461
 21
39.7924507659
  0
LINE
  5
244
100
AcDbEntity
  8
0
100
AcDbLine
 62
7
  6
BYLAYER
 10
21.7297692461
 20
142.0924507659
 11
21.7297692461
 21
134.8924507659
  0
LINE
  5
245
100
AcDbEntity
  8
0
100
AcDbLine
 62
7
  6
BYLAYER
 10
22.1300859017
 20
134.8924507659
 11
22.1300859017
 21
142.0924507659
  0
LINE
  5
246
100
AcDbEntity
  8
0
100
AcDbLine
 62
7
  6
BYLAYER
 10
12.0797692461
 20
45.7924507659
 11
102.0797692461
 21
45.7924507659
  0
LINE
  5
247
100
AcDbEntity
  8
0
100
AcDbLine
 62
7
  6
BYLAYER
 10
24.0491624905
 20
130.8924507659
 11
24.0491624905
 21
134.8924507659
  0
LINE
  5
248
100
AcDbEntity
  8
0
100
AcDbLine
 62
7
  6
BYLAYER
 10
26.0767692461
 20
134.8924507659
 11
26.0767692461
 21
120.8943568829
  0
LINE
  5
249
100
AcDbEntity
  8
0
100
AcDbLine
 62
7
  6
BYLAYER
 10
102.0797692461
 20
46.9924507659
 11
12.0797692461
 21
46.9924507659
  0
LINE
  5
24A
100
AcDbEntity
  8
0
100
AcDbLine
 62
7
  6
BYLAYER
 10
62.9717661332
 20
21.9876140572
 11
62.9038210782
 21
22.0924507659
  0
LINE
  5
24B
100
AcDbEntity
  8
0
100
AcDbLine
 62
7
  6
BYLAYER
 10
36.8097692461
 20
22.0924507659
 11
36.8097692461
 21
21.9924507659
  0
LINE
  5
24C
100
AcDbEntity
  8
0
100
AcDbLine
 62
7
  6
BYLAYER
 10
39.2097692461
 20
21.9924507659
 11
39.2097692461
 21
22.0924507659
  0
LINE
  5
24D
100
AcDbEntity
  8
0
100
AcDbLine
 62
7
  6
BYLAYER
 10
41.8097692461
 20
22.0924507659
 11
41.8097692461
 21
21.9924507659
  0
LINE
  5
24E
100
AcDbEntity
  8
0
100
AcDbLine
 62
7
  6
BYLAYER
 10
42.3297692461
 20
92.7916906536
 11
42.3297692461
 21
106.229899012
  0
LINE
  5
24F
100
AcDbEntity
  8
0
100
AcDbLine
 62
7
  6
BYLAYER
 10
44.2097692461
 20
21.9924507659
 11
44.2097692461
 21
22.0924507659
  0
LINE
  5
250
100
AcDbEntity
  8
0
100
AcDbLine
 62
7
  6
BYLAYER
 10
44.8297692461
 20
106.229899012
 11
44.8297692461
 21
92.7916906536
  0
LINE
  5
251
100
AcDbEntity
  8
0
100
AcDbLine
 62
7
  6
BYLAYER
 10
45.0797692461
 20
130.8924507659
 11
45.0797692461
 21
133.8924507659
  0
LINE
  5
252
100
AcDbEntity
  8
0
100
AcDbLine
 62
7
  6
BYLAYER
 10
46.8097692461
 20
22.0924507659
 11
46.8097692461
 21
21.9924507659
  0
LINE
  5
253
100
AcDbEntity
  8
0
100
AcDbLine
 62
7
  6
BYLAYER
 10
47.5797692461
 20
133.8924507659
 11
47.5797692461
 21
130.8924507659
  0
LINE
  5
254
100
AcDbEntity
  8
0
100
AcDbLine
 62
7
  6
BYLAYER
 10
49.2097692461
 20
21.9924507659
 11
49.2097692461
 21
22.0924507659
  0
LINE
  5
255
100
AcDbEntity
  8
0
100
AcDbLine
 62
7
  6
BYLAYER
 10
51.8097692461
 20
22.0924507659
 11
51.8097692461
 21
21.9924507659
  0
LINE
  5
256
100
AcDbEntity
  8
0
100
AcDbLine
 62
7
  6
BYLAYER
 10
75.7850190141
 20
21.6188829287
 11
75.7957946499
 21
21.5924507659
  0
LINE
  5
257
100
AcDbEntity
  8
0
100
AcDbLine
 62
7
  6
BYLAYER
 10
54.2097692461
 20
21.9924507659
 11
54.2097692461
 21
22.0924507659
  0
LINE
  5
258
100
AcDbEntity
  8
0
100
AcDbLine
 62
7
  6
BYLAYER
 10
56.8097692461
 20
22.0924507659
 11
56.8097692461
 21
21.9924507659
  0
LINE
  5
259
100
AcDbEntity
  8
0
100
AcDbLine
 62
7
  6
BYLAYER
 10
59.2097692461
 20
21.9924507659
 11
59.2097692461
 21
22.0924507659
  0
LINE
  5
25A
100
AcDbEntity
  8
0
100
AcDbLine
 62
7
  6
BYLAYER
 10
65.3797692461
 20
20.0924507659
 11
65.3797692461
 21
21.0924507659
  0
LINE
  5
25B
100
AcDbEntity
  8
0
100
AcDbLine
 62
7
  6
BYLAYER
 10
66.5797692461
 20
130.8924507659
 11
66.5797692461
 21
133.8924507659
  0
LINE
  5
25C
100
AcDbEntity
  8
0
100
AcDbLine
 62
7
  6
BYLAYER
 10
69.0797692461
 20
133.8924507659
 11
69.0797692461
 21
130.8924507659
  0
LINE
  5
25D
100
AcDbEntity
  8
0
100
AcDbLine
 62
7
  6
BYLAYER
 10
69.3297692461
 20
92.7916906536
 11
69.3297692461
 21
106.229899012
  0
LINE
  5
25E
100
AcDbEntity
  8
0
100
AcDbLine
 62
7
  6
BYLAYER
 10
71.8297692461
 20
106.229899012
 11
71.8297692461
 21
92.7916906536
  0
LINE
  5
25F
100
AcDbEntity
  8
0
100
AcDbLine
 62
7
  6
BYLAYER
 10
72.3297692461
 20
22.0924507659
 11
72.3297692461
 21
39.7924507659
  0
LINE
  5
260
100
AcDbEntity
  8
0
100
AcDbLine
 62
7
  6
BYLAYER
 10
12.0797692461
 20
92.6432774934
 11
102.0797692461
 21
92.6432774934
  0
LINE
  5
261
100
AcDbEntity
  8
0
100
AcDbLine
 62
7
  6
BYLAYER
 10
71.8297692461
 20
92.7916906536
 11
69.3297692461
 21
92.7916906536
  0
LINE
  5
262
100
AcDbEntity
  8
0
100
AcDbLine
 62
7
  6
BYLAYER
 10
44.8297692461
 20
92.7916906536
 11
42.3297692461
 21
92.7916906536
  0
LINE
  5
263
100
AcDbEntity
  8
0
100
AcDbLine
 62
7
  6
BYLAYER
 10
12.0797692461
 20
93.3567319742
 11
42.3297692461
 21
93.3567319742
  0
LINE
  5
264
100
AcDbEntity
  8
0
100
AcDbLine
 62
7
  6
BYLAYER
 10
44.8297692461
 20
93.3567319742
 11
69.3297692461
 21
93.3567319742
  0
LINE
  5
265
100
AcDbEntity
  8
0
100
AcDbLine
 62
7
  6
BYLAYER
 10
71.8297692461
 20
93.3567319742
 11
102.0797692461
 21
93.3567319742
  0
LINE
  5
266
100
AcDbEntity
  8
0
100
AcDbLine
 62
7
  6
BYLAYER
 10
73.7797692461
 20
20.0924507659
 11
73.7797692461
 21
21.0924507659
  0
LINE
  5
267
100
AcDbEntity
  8
0
100
AcDbLine
 62
7
  6
BYLAYER
 10
77.4097692461
 20
39.7924507659
 11
77.4097692461
 21
22.0924507659
  0
LINE
  5
268
100
AcDbEntity
  8
0
100
AcDbLine
 62
7
  6
BYLAYER
 10
102.0797692461
 20
101.9948113141
 11
71.8297692461
 21
101.9948113141
  0
LINE
  5
269
100
AcDbEntity
  8
0
100
AcDbLine
 62
7
  6
BYLAYER
 10
69.3297692461
 20
101.9948113141
 11
44.8297692461
 21
101.9948113141
  0
LINE
  5
26A
100
AcDbEntity
  8
0
100
AcDbLine
 62
7
  6
BYLAYER
 10
42.3297692461
 20
101.9948113141
 11
12.0797692461
 21
101.9948113141
  0
LINE
  5
26B
100
AcDbEntity
  8
0
100
AcDbLine
 62
7
  6
BYLAYER
 10
42.3297692461
 20
103.3924507659
 11
44.8297692461
 21
103.3924507659
  0
LINE
  5
26C
100
AcDbEntity
  8
0
100
AcDbLine
 62
7
  6
BYLAYER
 10
69.3297692461
 20
103.3924507659
 11
71.8297692461
 21
103.3924507659
  0
LINE
  5
26D
100
AcDbEntity
  8
0
100
AcDbLine
 62
7
  6
BYLAYER
 10
71.8297692461
 20
104.3924507659
 11
69.3297692461
 21
104.3924507659
  0
LINE
  5
26E
100
AcDbEntity
  8
0
100
AcDbLine
 62
7
  6
BYLAYER
 10
44.8297692461
 20
104.3924507659
 11
42.3297692461
 21
104.3924507659
  0
LINE
  5
26F
100
AcDbEntity
  8
0
100
AcDbLine
 62
7
  6
BYLAYER
 10
71.8297692461
 20
106.229899012
 11
69.3297692461
 21
106.229899012
  0
LINE
  5
270
100
AcDbEntity
  8
0
100
AcDbLine
 62
7
  6
BYLAYER
 10
44.8297692461
 20
106.229899012
 11
42.3297692461
 21
106.229899012
  0
LINE
  5
271
100
AcDbEntity
  8
0
100
AcDbLine
 62
7
  6
BYLAYER
 10
88.0797692461
 20
130.8924507659
 11
88.0797692461
 21
133.8924507659
  0
LINE
  5
272
100
AcDbEntity
  8
0
100
AcDbLine
 62
7
  6
BYLAYER
 10
88.0967692461
 20
120.8943568829
 11
88.0967692461
 21
134.8924507659
  0
LINE
  5
273
100
AcDbEntity
  8
0
100
AcDbLine
 62
7
  6
BYLAYER
 10
63.374519478
 20
21.6188829287
 11
63.3637438423
 21
21.5924507659
  0
LINE
  5
274
100
AcDbEntity
  8
0
100
AcDbLine
 62
7
  6
BYLAYER
 10
90.1103760017
 20
134.8924507659
 11
90.1103760017
 21
130.8924507659
  0
LINE
  5
275
100
AcDbEntity
  8
0
100
AcDbLine
 62
7
  6
BYLAYER
 10
92.9942630738
 20
142.0924507659
 11
92.9942630738
 21
134.8924507659
  0
LINE
  5
276
100
AcDbEntity
  8
0
100
AcDbLine
 62
7
  6
BYLAYER
 10
93.2173100962
 20
142.0924507659
 11
93.2173100962
 21
134.8924507659
  0
LINE
  5
277
100
AcDbEntity
  8
0
100
AcDbLine
 62
7
  6
BYLAYER
 10
96.4448009587
 20
134.8924507659
 11
96.4448009587
 21
142.0924507659
  0
LINE
  5
278
100
AcDbEntity
  8
0
100
AcDbLine
 62
7
  6
BYLAYER
 10
96.6677476737
 20
134.8924507659
 11
96.6677476737
 21
142.0924507659
  0
LINE
  5
279
100
AcDbEntity
  8
0
100
AcDbLine
 62
7
  6
BYLAYER
 10
97.7297692461
 20
22.0924507659
 11
97.7297692461
 21
39.7924507659
  0
LINE
  5
27A
100
AcDbEntity
  8
0
100
AcDbLine
 62
7
  6
BYLAYER
 10
12.0797692461
 20
120.8924507659
 11
26.5442297488
 21
120.8924507659
  0
LINE
  5
27B
100
AcDbEntity
  8
0
100
AcDbLine
 62
7
  6
BYLAYER
 10
33.9153087433
 20
120.8924507659
 11
53.4942297488
 21
120.8924507659
  0
LINE
  5
27C
100
AcDbEntity
  8
0
100
AcDbLine
 62
7
  6
BYLAYER
 10
60.8653087433
 20
120.8924507659
 11
80.4442297488
 21
120.8924507659
  0
LINE
  5
27D
100
AcDbEntity
  8
0
100
AcDbLine
 62
7
  6
BYLAYER
 10
87.8153087433
 20
120.8924507659
 11
102.0797692461
 21
120.8924507659
  0
LINE
  5
27E
100
AcDbEntity
  8
0
100
AcDbLine
 62
7
  6
BYLAYER
 10
99.5491624905
 20
130.8924507659
 11
99.5491624905
 21
134.8924507659
  0
LINE
  5
27F
100
AcDbEntity
  8
0
100
AcDbLine
 62
7
  6
BYLAYER
 10
101.6794525905
 20
142.0924507659
 11
101.6794525905
 21
130.8924507659
  0
LINE
  5
280
100
AcDbEntity
  8
0
100
AcDbLine
 62
7
  6
BYLAYER
 10
102.0797692461
 20
22.0924507659
 11
102.0797692461
 21
142.0924507659
  0
LINE
  5
281
100
AcDbEntity
  8
0
100
AcDbLine
 62
7
  6
BYLAYER
 10
76.1877723589
 20
21.9876140572
 11
76.2557174139
 21
22.0924507659
  0
LINE
  5
282
100
AcDbEntity
  8
0
100
AcDbLine
 62
7
  6
BYLAYER
 10
27.0797692461
 20
129.8924507659
 11
44.0797692461
 21
129.8924507659
  0
LINE
  5
283
100
AcDbEntity
  8
0
100
AcDbLine
 62
7
  6
BYLAYER
 10
48.5797692461
 20
129.8924507659
 11
65.5797692461
 21
129.8924507659
  0
LINE
  5
284
100
AcDbEntity
  8
0
100
AcDbLine
 62
7
  6
BYLAYER
 10
70.0797692461
 20
129.8924507659
 11
87.0797692461
 21
129.8924507659
  0
LINE
  5
285
100
AcDbEntity
  8
0
100
AcDbLine
 62
7
  6
BYLAYER
 10
12.1724047854
 20
130.4924507659
 11
14.5180300167
 21
130.4924507659
  0
LINE
  5
286
100
AcDbEntity
  8
0
100
AcDbLine
 62
7
  6
BYLAYER
 10
24.1415084755
 20
130.4924507659
 11
26.0767692461
 21
130.4924507659
  0
LINE
  5
287
100
AcDbEntity
  8
0
100
AcDbLine
 62
7
  6
BYLAYER
 10
88.0967692461
 20
130.4924507659
 11
90.0180300167
 21
130.4924507659
  0
LINE
  5
288
100
AcDbEntity
  8
0
100
AcDbLine
 62
7
  6
BYLAYER
 10
99.6415084755
 20
130.4924507659
 11
101.9872671778
 21
130.4924507659
  0
LINE
  5
289
100
AcDbEntity
  8
0
100
AcDbLine
 62
7
  6
BYLAYER
 10
101.6794525905
 20
130.8924507659
 11
99.5491624905
 21
130.8924507659
  0
LINE
  5
28A
100
AcDbEntity
  8
0
100
AcDbLine
 62
7
  6
BYLAYER
 10
90.1103760017
 20
130.8924507659
 11
88.0967692461
 21
130.8924507659
  0
LINE
  5
28B
100
AcDbEntity
  8
0
100
AcDbLine
 62
7
  6
BYLAYER
 10
26.0767692461
 20
130.8924507659
 11
24.0491624905
 21
130.8924507659
  0
LINE
  5
28C
100
AcDbEntity
  8
0
100
AcDbLine
 62
7
  6
BYLAYER
 10
14.6103760017
 20
130.8924507659
 11
12.4800859017
 21
130.8924507659
  0
LINE
  5
28D
100
AcDbEntity
  8
0
100
AcDbLine
 62
7
  6
BYLAYER
 10
99.5491624905
 20
134.8924507659
 11
90.1103760017
 21
134.8924507659
  0
LINE
  5
28E
100
AcDbEntity
  8
0
100
AcDbLine
 62
7
  6
BYLAYER
 10
88.0967692461
 20
134.8924507659
 11
26.0767692461
 21
134.8924507659
  0
LINE
  5
28F
100
AcDbEntity
  8
0
100
AcDbLine
 62
7
  6
BYLAYER
 10
24.0491624905
 20
134.8924507659
 11
14.6103760017
 21
134.8924507659
  0
LINE
  5
290
100
AcDbEntity
  8
0
100
AcDbLine
 62
7
  6
BYLAYER
 10
75.7535373486
 20
21.566018603
 11
75.7957946499
 21
21.5924507659
  0
LINE
  5
291
100
AcDbEntity
  8
0
100
AcDbLine
 62
7
  6
BYLAYER
 10
12.0797692461
 20
142.0924507659
 11
102.0797692461
 21
142.0924507659
  0
CIRCLE
  5
292
100
AcDbEntity
  8
0
100
AcDbCircle
 62
7
  6
BYLAYER
 10
54.5297692461
 20
31.9924507659
 40
2.0
  0
CIRCLE
  5
293
100
AcDbEntity
  8
0
100
AcDbCircle
 62
7
  6
BYLAYER
 10
49.4497692461
 20
31.9924507659
 40
2.0
  0
CIRCLE
  5
294
100
AcDbEntity
  8
0
100
AcDbCircle
 62
7
  6
BYLAYER
 10
44.3697692461
 20
31.9924507659
 40
2.0
  0
CIRCLE
  5
295
100
AcDbEntity
  8
0
100
AcDbCircle
 62
7
  6
BYLAYER
 10
39.2897692461
 20
31.9924507659
 40
2.0
  0
CIRCLE
  5
296
100
AcDbEntity
  8
0
100
AcDbCircle
 62
7
  6
BYLAYER
 10
34.2097692461
 20
31.9924507659
 40
2.0
  0
CIRCLE
  5
297
100
AcDbEntity
  8
0
100
AcDbCircle
 62
7
  6
BYLAYER
 10
29.1297692461
 20
31.9924507659
 40
2.0
  0
CIRCLE
  5
298
100
AcDbEntity
  8
0
100
AcDbCircle
 62
7
  6
BYLAYER
 10
24.0497692461
 20
31.9924507659
 40
2.0
  0
CIRCLE
  5
299
100
AcDbEntity
  8
0
100
AcDbCircle
 62
7
  6
BYLAYER
 10
18.9697692461
 20
31.9924507659
 40
2.0
  0
ARC
  5
29A
100
AcDbEntity
  8
0
100
AcDbCircle
 62
7
  6
BYLAYER
 10
30.2290054316
 20
111.8833428194
 40
9.7341079764
100
AcDbArc
 50
67.7468405998
 51
112.2531594002
  0
ARC
  5
29B
100
AcDbEntity
  8
0
100
AcDbCircle
 62
7
  6
BYLAYER
 10
30.2297692461
 20
111.8924507659
 40
9.7174979963
100
AcDbArc
 50
180.0
 51
360.0
  0
CIRCLE
  5
29C
100
AcDbEntity
  8
0
100
AcDbCircle
 62
7
  6
BYLAYER
 10
30.2297692461
 20
111.8924507659
 40
8.975
  0
ARC
  5
29D
100
AcDbEntity
  8
0
100
AcDbCircle
 62
7
  6
BYLAYER
 10
27.0797692461
 20
133.8924507659
 40
1.0
100
AcDbArc
 50
90.0
 51
180.0
  0
ARC
  5
29E
100
AcDbEntity
  8
0
100
AcDbCircle
 62
7
  6
BYLAYER
 10
27.0797692461
 20
130.8924507659
 40
1.0
100
AcDbArc
 50
179.0722026053
 51
270.0000000002
  0
ARC
  5
29F
100
AcDbEntity
  8
0
100
AcDbCircle
 62
7
  6
BYLAYER
 10
44.0797692461
 20
130.8924507659
 40
1.0
100
AcDbArc
 50
270.0
 51
360.0
  0
ARC
  5
2A0
100
AcDbEntity
  8
0
100
AcDbCircle
 62
7
  6
BYLAYER
 10
44.0797692461
 20
133.8924507659
 40
1.0
100
AcDbArc
 50
0.0
 51
90.0000000001
  0
ARC
  5
2A1
100
AcDbEntity
  8
0
100
AcDbCircle
 62
7
  6
BYLAYER
 10
48.5797692461
 20
133.8924507659
 40
1.0
100
AcDbArc
 50
90.0000000001
 51
180.0
  0
ARC
  5
2A2
100
AcDbEntity
  8
0
100
AcDbCircle
 62
7
  6
BYLAYER
 10
48.5797692461
 20
130.8924507659
 40
1.0
100
AcDbArc
 50
180.0
 51
270.0000000001
  0
CIRCLE
  5
2A3
100
AcDbEntity
  8
0
100
AcDbCircle
 62
7
  6
BYLAYER
 10
69.7697692461
 20
31.9924507659
 40
2.0
  0
CIRCLE
  5
2A4
100
AcDbEntity
  8
0
100
AcDbCircle
 62
7
  6
BYLAYER
 10
64.6897692461
 20
31.9924507659
 40
2.0
  0
CIRCLE
  5
2A5
100
AcDbEntity
  8
0
100
AcDbCircle
 62
7
  6
BYLAYER
 10
59.6097692461
 20
31.9924507659
 40
2.0
  0
CIRCLE
  5
2A6
100
AcDbEntity
  8
0
100
AcDbCircle
 62
7
  6
BYLAYER
 10
95.1797692461
 20
31.9924507659
 40
2.0
  0
CIRCLE
  5
2A7
100
AcDbEntity
  8
0
100
AcDbCircle
 62
7
  6
BYLAYER
 10
90.0997692461
 20
31.9924507659
 40
2.0
  0
CIRCLE
  5
2A8
100
AcDbEntity
  8
0
100
AcDbCircle
 62
7
  6
BYLAYER
 10
85.0197692461
 20
31.9924507659
 40
2.0
  0
CIRCLE
  5
2A9
100
AcDbEntity
  8
0
100
AcDbCircle
 62
7
  6
BYLAYER
 10
79.9397692461
 20
31.9924507659
 40
2.0
  0
ARC
  5
2AA
100
AcDbEntity
  8
0
100
AcDbCircle
 62
7
  6
BYLAYER
 10
76.7186548932
 20
21.0034249305
 40
1.1182417012
100
AcDbArc
 50
118.3429158441
 51
146.6069055176
  0
ARC
  5
2AB
100
AcDbEntity
  8
0
100
AcDbCircle
 62
7
  6
BYLAYER
 10
62.4408835989
 20
21.0034249305
 40
1.1182417012
100
AcDbArc
 50
33.3930944824
 51
61.6570841559
  0
ARC
  5
2AC
100
AcDbEntity
  8
0
100
AcDbCircle
 62
7
  6
BYLAYER
 10
64.254286248
 20
22.0883514134
 40
0.9962023806
100
AcDbArc
 50
211.6227459621
 51
268.5897819541
  0
ARC
  5
2AD
100
AcDbEntity
  8
0
100
AcDbCircle
 62
7
  6
BYLAYER
 10
74.9052522442
 20
22.0883514134
 40
0.9962023806
100
AcDbArc
 50
271.4102180459
 51
328.3772540379
  0
ARC
  5
2AE
100
AcDbEntity
  8
0
100
AcDbCircle
 62
7
  6
BYLAYER
 10
65.8797692461
 20
20.0924507659
 40
0.5
100
AcDbArc
 50
180.0
 51
270.0
  0
ARC
  5
2AF
100
AcDbEntity
  8
0
100
AcDbCircle
 62
7
  6
BYLAYER
 10
73.2797692461
 20
20.0924507659
 40
0.5
100
AcDbArc
 50
270.0
 51
360.0
  0
ARC
  5
2B0
100
AcDbEntity
  8
0
100
AcDbCircle
 62
7
  6
BYLAYER
 10
83.9881712108
 20
111.6043367961
 40
10.0377635492
100
AcDbArc
 50
66.3033126793
 51
67.7162152921
  0
ARC
  5
2B1
100
AcDbEntity
  8
0
100
AcDbCircle
 62
7
  6
BYLAYER
 10
84.1305330605
 20
111.8833428194
 40
9.7341079764
100
AcDbArc
 50
67.7468405998
 51
112.2531594002
  0
ARC
  5
2B2
100
AcDbEntity
  8
0
100
AcDbCircle
 62
7
  6
BYLAYER
 10
57.1805330605
 20
111.8833428194
 40
9.7341079764
100
AcDbArc
 50
67.7468405998
 51
112.2531594002
  0
ARC
  5
2B3
100
AcDbEntity
  8
0
100
AcDbCircle
 62
7
  6
BYLAYER
 10
57.1797692461
 20
111.8924507659
 40
9.7174979963
100
AcDbArc
 50
180.0
 51
360.0
  0
ARC
  5
2B4
100
AcDbEntity
  8
0
100
AcDbCircle
 62
7
  6
BYLAYER
 10
84.1297692461
 20
111.8924507659
 40
9.7174979963
100
AcDbArc
 50
180.0
 51
360.0
  0
CIRCLE
  5
2B5
100
AcDbEntity
  8
0
100
AcDbCircle
 62
7
  6
BYLAYER
 10
57.1797692461
 20
111.8924507659
 40
8.975
  0
CIRCLE
  5
2B6
100
AcDbEntity
  8
0
100
AcDbCircle
 62
7
  6
BYLAYER
 10
84.1297692461
 20
111.8924507659
 40
8.975
  0
ARC
  5
2B7
100
AcDbEntity
  8
0
100
AcDbCircle
 62
7
  6
BYLAYER
 10
65.5797692461
 20
130.8924507659
 40
1.0
100
AcDbArc
 50
270.0
 51
360.0
  0
ARC
  5
2B8
100
AcDbEntity
  8
0
100
AcDbCircle
 62
7
  6
BYLAYER
 10
65.5797692461
 20
133.8924507659
 40
1.0
100
AcDbArc
 50
0.0
 51
90.0000000001
  0
ARC
  5
2B9
100
AcDbEntity
  8
0
100
AcDbCircle
 62
7
  6
BYLAYER
 10
70.0797692461
 20
133.8924507659
 40
1.0
100
AcDbArc
 50
90.0000000001
 51
180.0
  0
ARC
  5
2BA
100
AcDbEntity
  8
0
100
AcDbCircle
 62
7
  6
BYLAYER
 10
70.0797692461
 20
130.8924507659
 40
1.0
100
AcDbArc
 50
180.0
 51
270.0000000002
  0
ARC
  5
2BB
100
AcDbEntity
  8
0
100
AcDbCircle
 62
7
  6
BYLAYER
 10
87.0797692461
 20
130.8924507659
 40
1.0
100
AcDbArc
 50
270.0
 51
360.0
  0
ARC
  5
2BC
100
AcDbEntity
  8
0
100
AcDbCircle
 62
7
  6
BYLAYER
 10
87.0797692461
 20
133.8924507659
 40
1.0
100
AcDbArc
 50
0.0
 51
90.0000000001
  0
SPLINE
  5
2BD
100
AcDbEntity
  8
0
100
AcDbSpline
 62
7
  6
BYLAYER
 70
0
 71
3
 72
9
 73
5
 74
0
 42
0.0000001
 43
0.0000001
 44
0.0000000001
 40
0.0
 40
0.0
 40
0.0
 40
0.0
 40
0.4473316169
 40
1.0
 40
1.0
 40
1.0
 40
1.0
 10
24.1420139471
 20
130.4913778623
 30
0.0
 10
24.1109145995
 20
130.5448585646
 30
0.0
 10
24.0644390118
 20
130.6774449168
 30
0.0
 10
24.0491624905
 20
130.8160171517
 30
0.0
 10
24.0491624905
 20
130.8924507659
 30
0.0
  0
SPLINE
  5
2BE
100
AcDbEntity
  8
0
100
AcDbSpline
 62
7
  6
BYLAYER
 70
0
 71
3
 72
11
 73
7
 74
0
 42
0.0000001
 43
0.0000001
 44
0.0000000001
 40
0.0
 40
0.0
 40
0.0
 40
0.0
 40
0.2675092019
 40
0.5220429551
 40
0.7649825867
 40
1.0
 40
1.0
 40
1.0
 40
1.0
 10
24.5797692461
 20
128.4071983944
 30
0.0
 10
24.5797692461
 20
128.599038856
 30
0.0
 10
24.5670201914
 20
128.973659117
 30
0.0
 10
24.4962282059
 20
129.5187811441
 30
0.0
 10
24.3632088103
 20
130.0286542792
 30
0.0
 10
24.2241787018
 20
130.3442232044
 30
0.0
 10
24.1420139471
 20
130.4913778623
 30
0.0
  0
SPLINE
  5
2BF
100
AcDbEntity
  8
0
100
AcDbSpline
 62
7
  6
BYLAYER
 70
0
 71
3
 72
11
 73
7
 74
0
 42
0.0000001
 43
0.0000001
 44
0.0000000001
 40
0.0
 40
0.0
 40
0.0
 40
0.0
 40
0.2350176136
 40
0.4779574967
 40
0.7324909707
 40
1.0
 40
1.0
 40
1.0
 40
1.0
 10
14.5175243923
 20
130.4913774665
 30
0.0
 10
14.4353595954
 20
130.344222704
 30
0.0
 10
14.2963295278
 20
130.0286534873
 30
0.0
 10
14.1633098902
 20
129.5187803837
 30
0.0
 10
14.0925183577
 20
128.9736585382
 30
0.0
 10
14.0797692461
 20
128.599038686
 30
0.0
 10
14.0797692461
 20
128.4071983844
 30
0.0
  0
SPLINE
  5
2C0
100
AcDbEntity
  8
0
100
AcDbSpline
 62
7
  6
BYLAYER
 70
0
 71
3
 72
9
 73
5
 74
0
 42
0.0000001
 43
0.0000001
 44
0.0000000001
 40
0.0
 40
0.0
 40
0.0
 40
0.0
 40
0.5526680576
 40
1.0
 40
1.0
 40
1.0
 40
1.0
 10
14.6103760017
 20
130.8924507659
 30
0.0
 10
14.6103760017
 20
130.8160171189
 30
0.0
 10
14.5950994397
 20
130.6774447437
 30
0.0
 10
14.5486237896
 20
130.5448582649
 30
0.0
 10
14.5175243923
 20
130.4913774665
 30
0.0
  0
SPLINE
  5
2C1
100
AcDbEntity
  8
0
100
AcDbSpline
 62
7
  6
BYLAYER
 70
0
 71
3
 72
9
 73
5
 74
0
 42
0.0000001
 43
0.0000001
 44
0.0000000001
 40
0.0
 40
0.0
 40
0.0
 40
0.0
 40
0.4473314654
 40
1.0
 40
1.0
 40
1.0
 40
1.0
 10
99.6420145159
 20
130.491376528
 30
0.0
 10
99.6109150874
 20
130.5448574089
 30
0.0
 10
99.5644391159
 20
130.6774441212
 30
0.0
 10
99.5491624905
 20
130.8160168639
 30
0.0
 10
99.5491624905
 20
130.8924507659
 30
0.0
  0
SPLINE
  5
2C2
100
AcDbEntity
  8
0
100
AcDbSpline
 62
7
  6
BYLAYER
 70
0
 71
3
 72
11
 73
7
 74
0
 42
0.0000001
 43
0.0000001
 44
0.0000000001
 40
0.0
 40
0.0
 40
0.0
 40
0.0
 40
0.2675092608
 40
0.522043039
 40
0.7649826227
 40
1.0
 40
1.0
 40
1.0
 40
1.0
 10
100.0797692461
 20
128.4071984556
 30
0.0
 10
100.0797692461
 20
128.5990388249
 30
0.0
 10
100.0670202206
 20
128.9736588827
 30
0.0
 10
99.9962283651
 20
129.5187805643
 30
0.0
 10
99.863209111
 20
130.0286533139
 30
0.0
 10
99.7241791542
 20
130.3442219699
 30
0.0
 10
99.6420145159
 20
130.491376528
 30
0.0
  0
SPLINE
  5
2C3
100
AcDbEntity
  8
0
100
AcDbSpline
 62
7
  6
BYLAYER
 70
0
 71
3
 72
9
 73
5
 74
0
 42
0.0000001
 43
0.0000001
 44
0.0000000001
 40
0.0
 40
0.0
 40
0.0
 40
0.0
 40
0.5526682091
 40
1.0
 40
1.0
 40
1.0
 40
1.0
 10
90.1103760017
 20
130.8924507659
 30
0.0
 10
90.1103760017
 20
130.816016831
 30
0.0
 10
90.0950993356
 20
130.677443948
 30
0.0
 10
90.0486233016
 20
130.5448571091
 30
0.0
 10
90.0175238234
 20
130.491376132
 30
0.0
  0
SPLINE
  5
2C4
100
AcDbEntity
  8
0
100
AcDbSpline
 62
7
  6
BYLAYER
 70
0
 71
3
 72
11
 73
7
 74
0
 42
0.0000001
 43
0.0000001
 44
0.0000000001
 40
0.0
 40
0.0
 40
0.0
 40
0.0
 40
0.2350175776
 40
0.4779574128
 40
0.7324909117
 40
1.0
 40
1.0
 40
1.0
 40
1.0
 10
90.0175238234
 20
130.491376132
 30
0.0
 10
89.935359143
 20
130.3442214693
 30
0.0
 10
89.7963292274
 20
130.0286525218
 30
0.0
 10
89.6633097313
 20
129.5187798039
 30
0.0
 10
89.5925183284
 20
128.973658304
 30
0.0
 10
89.5797692461
 20
128.599038655
 30
0.0
 10
89.5797692461
 20
128.4071984455
 30
0.0
  0
SPLINE
  5
2C5
100
AcDbEntity
  8
0
100
AcDbSpline
 62
7
  6
BYLAYER
 70
0
 71
3
 72
9
 73
5
 74
0
 42
0.0000001
 43
0.0000001
 44
0.0000000001
 40
0.0
 40
0.0
 40
0.0
 40
0.0
 40
0.5185305744
 40
1.0
 40
1.0
 40
1.0
 40
1.0
 10
101.9798775661
 20
130.5007541748
 30
0.0
 10
102.0117794842
 20
130.4675045904
 30
0.0
 10
102.0624139654
 20
130.3914145817
 30
0.0
 10
102.0797692461
 20
130.3017081445
 30
0.0
 10
102.0797692461
 20
130.2589226383
 30
0.0
  0
SPLINE
  5
2C6
100
AcDbEntity
  8
0
100
AcDbSpline
 62
7
  6
BYLAYER
 70
0
 71
3
 72
12
 73
8
 74
0
 42
0.0000001
 43
0.0000001
 44
0.0000000001
 40
0.0
 40
0.0
 40
0.0
 40
0.0
 40
0.2685030271
 40
0.5291764248
 40
0.7753149424
 40
0.8908394612
 40
1.0
 40
1.0
 40
1.0
 40
1.0
 10
99.3322530482
 20
120.8924507659
 30
0.0
 10
99.340205676
 20
121.5687793763
 30
0.0
 10
99.4232134482
 20
122.9014621814
 30
0.0
 10
99.686876101
 20
124.8370177875
 30
0.0
 10
99.9257750593
 20
126.3866512122
 30
0.0
 10
100.052413251
 20
127.5661886847
 30
0.0
 10
100.0797692461
 20
128.1322037713
 30
0.0
 10
100.0797692461
 20
128.4071857706
 30
0.0
  0
SPLINE
  5
2C7
100
AcDbEntity
  8
0
100
AcDbSpline
 62
7
  6
BYLAYER
 70
0
 71
3
 72
12
 73
8
 74
0
 42
0.0000001
 43
0.0000001
 44
0.0000000001
 40
0.0
 40
0.0
 40
0.0
 40
0.0
 40
0.1091605317
 40
0.2246850219
 40
0.4708235193
 40
0.7314969379
 40
1.0
 40
1.0
 40
1.0
 40
1.0
 10
89.5797692461
 20
128.4071857842
 30
0.0
 10
89.5797692461
 20
128.1322038025
 30
0.0
 10
89.6071252648
 20
127.5661888068
 30
0.0
 10
89.7337633643
 20
126.3866514653
 30
0.0
 10
89.9726624093
 20
124.8370181192
 30
0.0
 10
90.236324925
 20
122.901462405
 30
0.0
 10
90.3193328151
 20
121.5687794655
 30
0.0
 10
90.3272854439
 20
120.8924507659
 30
0.0
  0
SPLINE
  5
2C8
100
AcDbEntity
  8
0
100
AcDbSpline
 62
7
  6
BYLAYER
 70
0
 71
3
 72
13
 73
9
 74
0
 42
0.0000001
 43
0.0000001
 44
0.0000000001
 40
0.0
 40
0.0
 40
0.0
 40
0.0
 40
0.125152004
 40
0.2503464678
 40
0.4999999801
 40
0.7496535121
 40
0.8748479801
 40
1.0
 40
1.0
 40
1.0
 40
1.0
 10
33.8944339385
 20
120.8924507659
 30
0.0
 10
34.337593256
 20
120.7108420733
 30
0.0
 10
35.1997685812
 20
120.2836952416
 30
0.0
 10
36.7748580305
 20
119.1873863328
 30
0.0
 10
38.4122915589
 20
117.3955003259
 30
0.0
 10
39.4543640979
 20
115.203211635
 30
0.0
 10
39.8757271103
 20
113.3309791444
 30
0.0
 10
39.9461903955
 20
112.3713774792
 30
0.0
 10
39.9472672424
 20
111.8924507659
 30
0.0
  0
SPLINE
  5
2C9
100
AcDbEntity
  8
0
100
AcDbSpline
 62
7
  6
BYLAYER
 70
0
 71
3
 72
13
 73
9
 74
0
 42
0.0000001
 43
0.0000001
 44
0.0000000001
 40
0.0
 40
0.0
 40
0.0
 40
0.0
 40
0.125152004
 40
0.2503464678
 40
0.4999999801
 40
0.7496535121
 40
0.8748479801
 40
1.0
 40
1.0
 40
1.0
 40
1.0
 10
47.4622712498
 20
111.8924507659
 30
0.0
 10
47.4633464164
 20
112.3713774219
 30
0.0
 10
47.533810852
 20
113.3309791469
 30
0.0
 10
47.955175023
 20
115.2032110321
 30
0.0
 10
48.9972466785
 20
117.3954999471
 30
0.0
 10
50.6346796662
 20
119.1873866877
 30
0.0
 10
52.2097701131
 20
120.2836947518
 30
0.0
 10
53.0719458167
 20
120.7108404955
 30
0.0
 10
53.5151045536
 20
120.8924507659
 30
0.0
  0
SPLINE
  5
2CA
100
AcDbEntity
  8
0
100
AcDbSpline
 62
7
  6
BYLAYER
 70
0
 71
3
 72
13
 73
9
 74
0
 42
0.0000001
 43
0.0000001
 44
0.0000000001
 40
0.0
 40
0.0
 40
0.0
 40
0.0
 40
0.125152004
 40
0.2503464678
 40
0.4999999801
 40
0.7496535121
 40
0.8748479801
 40
1.0
 40
1.0
 40
1.0
 40
1.0
 10
60.8444339385
 20
120.8924507659
 30
0.0
 10
61.287593256
 20
120.7108420733
 30
0.0
 10
62.1497685812
 20
120.2836952416
 30
0.0
 10
63.7248580305
 20
119.1873863328
 30
0.0
 10
65.3622915589
 20
117.3955003259
 30
0.0
 10
66.4043640979
 20
115.203211635
 30
0.0
 10
66.8257271103
 20
113.3309791444
 30
0.0
 10
66.8961903955
 20
112.3713774792
 30
0.0
 10
66.8972672424
 20
111.8924507659
 30
0.0
  0
SPLINE
  5
2CB
100
AcDbEntity
  8
0
100
AcDbSpline
 62
7
  6
BYLAYER
 70
0
 71
3
 72
13
 73
9
 74
0
 42
0.0000001
 43
0.0000001
 44
0.0000000001
 40
0.0
 40
0.0
 40
0.0
 40
0.0
 40
0.125152004
 40
0.2503464678
 40
0.4999999801
 40
0.7496535121
 40
0.8748479801
 40
1.0
 40
1.0
 40
1.0
 40
1.0
 10
74.4122712498
 20
111.8924507659
 30
0.0
 10
74.4133464164
 20
112.3713774219
 30
0.0
 10
74.483810852
 20
113.3309791469
 30
0.0
 10
74.905175023
 20
115.2032110321
 30
0.0
 10
75.9472466785
 20
117.3954999471
 30
0.0
 10
77.5846796662
 20
119.1873866877
 30
0.0
 10
79.1597701131
 20
120.2836947518
 30
0.0
 10
80.0219458167
 20
120.7108404955
 30
0.0
 10
80.4651045536
 20
120.8924507659
 30
0.0
  0
SPLINE
  5
2CC
100
AcDbEntity
  8
0
100
AcDbSpline
 62
7
  6
BYLAYER
 70
0
 71
3
 72
13
 73
9
 74
0
 42
0.0000001
 43
0.0000001
 44
0.0000000001
 40
0.0
 40
0.0
 40
0.0
 40
0.0
 40
0.1251759648
 40
0.2503510375
 40
0.5000131633
 40
0.7496744961
 40
0.8748605008
 40
1.0
 40
1.0
 40
1.0
 40
1.0
 10
88.0222965359
 20
120.7957746558
 30
0.0
 10
88.4515321526
 20
120.6073802288
 30
0.0
 10
89.2851341203
 20
120.1698017611
 30
0.0
 10
90.8033764401
 20
119.0648111941
 30
0.0
 10
92.3766467443
 20
117.2873890736
 30
0.0
 10
93.3752977343
 20
115.1337846285
 30
0.0
 10
93.7787086515
 20
113.2999694985
 30
0.0
 10
93.8462135653
 20
112.3610727443
 30
0.0
 10
93.8472672424
 20
111.8924507659
 30
0.0
  0
SPLINE
  5
2CD
100
AcDbEntity
  8
0
100
AcDbSpline
 62
7
  6
BYLAYER
 70
0
 71
3
 72
13
 73
9
 74
0
 42
0.0000001
 43
0.0000001
 44
0.0000000001
 40
0.0
 40
0.0
 40
0.0
 40
0.0
 40
0.125152004
 40
0.2503464678
 40
0.4999999801
 40
0.7496535121
 40
0.8748479801
 40
1.0
 40
1.0
 40
1.0
 40
1.0
 10
20.5122712498
 20
111.8924507659
 30
0.0
 10
20.5133464164
 20
112.3713774219
 30
0.0
 10
20.583810852
 20
113.3309791469
 30
0.0
 10
21.005175023
 20
115.2032110321
 30
0.0
 10
22.0472466785
 20
117.3954999471
 30
0.0
 10
23.6846796662
 20
119.1873866877
 30
0.0
 10
25.2597701131
 20
120.2836947518
 30
0.0
 10
26.1219458167
 20
120.7108404955
 30
0.0
 10
26.5651045536
 20
120.8924507659
 30
0.0
  0
SPLINE
  5
2CE
100
AcDbEntity
  8
0
100
AcDbSpline
 62
7
  6
BYLAYER
 70
0
 71
3
 72
12
 73
8
 74
0
 42
0.0000001
 43
0.0000001
 44
0.0000000001
 40
0.0
 40
0.0
 40
0.0
 40
0.0
 40
0.2685030248
 40
0.5291764294
 40
0.7753149465
 40
0.8908394624
 40
1.0
 40
1.0
 40
1.0
 40
1.0
 10
23.8322530475
 20
120.8924507659
 30
0.0
 10
23.8402056752
 20
121.5687793648
 30
0.0
 10
23.9232134969
 20
122.901462165
 30
0.0
 10
24.1868760192
 20
124.837017781
 30
0.0
 10
24.4257750404
 20
126.3866511918
 30
0.0
 10
24.552413253
 20
127.5661886405
 30
0.0
 10
24.5797692461
 20
128.1322037121
 30
0.0
 10
24.5797692461
 20
128.407185706
 30
0.0
  0
SPLINE
  5
2CF
100
AcDbEntity
  8
0
100
AcDbSpline
 62
7
  6
BYLAYER
 70
0
 71
3
 72
12
 73
8
 74
0
 42
0.0000001
 43
0.0000001
 44
0.0000000001
 40
0.0
 40
0.0
 40
0.0
 40
0.0
 40
0.1091605305
 40
0.2246850178
 40
0.4708235147
 40
0.7314969401
 40
1.0
 40
1.0
 40
1.0
 40
1.0
 10
14.0797692461
 20
128.4071857196
 30
0.0
 10
14.0797692461
 20
128.1322037433
 30
0.0
 10
14.1071252628
 20
127.5661887626
 30
0.0
 10
14.2337633831
 20
126.386651445
 30
0.0
 10
14.4726624911
 20
124.8370181128
 30
0.0
 10
14.7363248763
 20
122.9014623887
 30
0.0
 10
14.8193328159
 20
121.568779454
 30
0.0
 10
14.8272854447
 20
120.8924507659
 30
0.0
  0
SPLINE
  5
2D0
100
AcDbEntity
  8
0
100
AcDbSpline
 62
7
  6
BYLAYER
 70
0
 71
3
 72
9
 73
5
 74
0
 42
0.0000001
 43
0.0000001
 44
0.0000000001
 40
0.0
 40
0.0
 40
0.0
 40
0.0
 40
0.4838578562
 40
1.0
 40
1.0
 40
1.0
 40
1.0
 10
12.0797692461
 20
130.2589226383
 30
0.0
 10
12.0797692461
 20
130.2998782089
 30
0.0
 10
12.0953568043
 20
130.3853383096
 30
0.0
 10
12.1419596661
 20
130.4586720461
 30
0.0
 10
12.1712474077
 20
130.4910894814
 30
0.0
  0
SPLINE
  5
2D1
100
AcDbEntity
  8
0
100
AcDbSpline
 62
7
  6
BYLAYER
 70
0
 71
3
 72
12
 73
8
 74
0
 42
0.0000001
 43
0.0000001
 44
0.0000000001
 40
0.0
 40
0.0
 40
0.0
 40
0.0
 40
0.217834265
 40
0.4644873629
 40
0.7276082851
 40
0.8632149931
 40
1.0
 40
1.0
 40
1.0
 40
1.0
 10
101.9872671778
 20
130.4924507659
 30
0.0
 10
101.9610531849
 20
130.5186844918
 30
0.0
 10
101.9075129755
 20
130.5769510838
 30
0.0
 10
101.822874545
 20
130.6672373547
 30
0.0
 10
101.7499654052
 20
130.7499729965
 30
0.0
 10
101.6970775108
 20
130.823721111
 30
0.0
 10
101.6794525905
 20
130.8691632084
 30
0.0
 10
101.6794525905
 20
130.8924507659
 30
0.0
  0
SPLINE
  5
2D2
100
AcDbEntity
  8
0
100
AcDbSpline
 62
7
  6
BYLAYER
 70
0
 71
3
 72
12
 73
8
 74
0
 42
0.0000001
 43
0.0000001
 44
0.0000000001
 40
0.0
 40
0.0
 40
0.0
 40
0.0
 40
0.2174153553
 40
0.4640443336
 40
0.7273316051
 40
0.8630818081
 40
1.0
 40
1.0
 40
1.0
 40
1.0
 10
12.1712201682
 20
130.491166286
 30
0.0
 10
12.1966641152
 20
130.5182134503
 30
0.0
 10
12.2513768405
 20
130.575589196
 30
0.0
 10
12.3357944666
 20
130.6665793826
 30
0.0
 10
12.4091736977
 20
130.7494331504
 30
0.0
 10
12.4623073023
 20
130.823450871
 30
0.0
 10
12.4800859017
 20
130.8690653992
 30
0.0
 10
12.4800859017
 20
130.8924507659
 30
0.0
  0
ENDSEC
  0
SECTION
  2
OBJECTS
  0
DICTIONARY
  5
C
100
AcDbDictionary
280
0
281
1
  3
ACAD_GROUP
350
D
  3
ACAD_MLINESTYLE
350
17
  3
ACAD_LAYOUT
350
1A
  3
ACAD_PLOTSETTINGS
350
19
  3
ACAD_PLOTSTYLENAME
350
E
  0
DICTIONARY
  5
D
102
{ACAD_REACTORS
330
C
102
}
100
AcDbDictionary
280
0
281
1
  0
ACDBDICTIONARYWDFLT
  5
E
102
{ACAD_REACTORS
330
C
102
}
100
AcDbDictionary
281
1
  3
Normal
350
F
100
AcDbDictionaryWithDefault
340
F
  0
DICTIONARY
  5
17
102
{ACAD_REACTORS
330
C
102
}
100
AcDbDictionary
280
0
281
1
  3
Standard
350
18
  0
DICTIONARY
  5
19
102
{ACAD_REACTORS
330
C
102
}
100
AcDbDictionary
281
1
  0
DICTIONARY
  5
1A
102
{ACAD_REACTORS
330
C
102
}
100
AcDbDictionary
281
1
  3
Model
350
2D3
  3
Layout1
350
2D4
  0
ACDBPLACEHOLDER
  5
F
102
{ACAD_REACTORS
330
E
102
}
  0
MLINESTYLE
  5
18
102
{ACAD_REACTORS
330
17
102
}
100
AcDbMlineStyle
  2
STANDARD
 70
0
  3

 62
256
 51
90.0
 52
90.0
 71
2
 49
0.5
 62
256
  6
BYLAYER
 49
-0.5
 62
256
  6
BYLAYER
  0
LAYOUT
  5
2D3
102
{ACAD_REACTORS
330
1A
102
}
100
AcDbPlotSettings
  1

  2
none_device
  4

  6

 40
0.0
 41
0.0
 42
0.0
 43
0.0
 44
210.0
 45
297.0
 46
0.0
 47
0.0
 48
0.0
 49
0.0
140
0.0
141
0.0
142
1.0
143
1.0
 70
1024
 72
1
 73
0
 74
0
  7

 75
0
147
1.0
148
0.0
149
0.0
100
AcDbLayout
  1
Model
 70
0
 71
0
 10
0.0
 20
0.0
 11
210.0
 21
297.0
 12
0.0
 22
0.0
 32
0.0
 14
0.0
 24
0.0
 34
0.0
 15
0.0
 25
0.0
 35
0.0
146
0.0
 13
0.0
 23
0.0
 33
0.0
 16
1.0
 26
0.0
 36
0.0
 17
0.0
 27
1.0
 37
0.0
 76
0
330
210
345
0
346
0
  0
LAYOUT
  5
2D4
102
{ACAD_REACTORS
330
1A
102
}
100
AcDbPlotSettings
  1

  2
none_device
  4

  6

 40
0.0
 41
0.0
 42
0.0
 43
0.0
 44
210.0
 45
297.0
 46
0.0
 47
0.0
 48
0.0
 49
0.0
140
0.0
141
0.0
142
1.0
143
1.0
 70
0
 72
1
 73
0
 74
0
  7

 75
0
147
1.0
148
0.0
149
0.0
100
AcDbLayout
  1
Layout1
 70
0
 71
1
 10
0.0
 20
0.0
 11
210.0
 21
297.0
 12
0.0
 22
0.0
 32
0.0
 14
0.0
 24
0.0
 34
0.0
 15
0.0
 25
0.0
 35
0.0
146
0.0
 13
0.0
 23
0.0
 33
0.0
 16
1.0
 26
0.0
 36
0.0
 17
0.0
 27
1.0
 37
0.0
 76
0
330
211
345
0
346
0
  0
ENDSEC
  0
EOF
