  0
SECTION
  2
HEADER
  9
$ACADVER
  1
AC1009
  9
$DWGCODEPAGE
  3
ansi_1250
  9
$INSBASE
 10
0.0
 20
0.0
 30
0.0
  9
$EXTMIN
 10
-56.658465
 20
-31.459154
 30
0.0
  9
$EXTMAX
 10
12.91269
 20
31.459154
 30
0.0
  9
$LIMMIN
 10
0.0
 20
0.0
  9
$LIMMAX
 10
0.0
 20
0.0
  9
$ORTHOMODE
 70
     0
  9
$REGENMODE
 70
     1
  9
$FILLMODE
 70
     1
  9
$QTEXTMODE
 70
     0
  9
$MIRRTEXT
 70
     1
  9
$DRAGMODE
 70
     2
  9
$LTSCALE
 40
1.0
  9
$OSMODE
 70
     0
  9
$ATTMODE
 70
     1
  9
$TEXTSIZE
 40
0.2
  9
$TRACEWID
 40
0.05
  9
$TEXTSTYLE
  7
STANDARD
  9
$CLAYER
  8
0
  9
$CELTYPE
  6
CONTINUOUS
  9
$CECOLOR
 62
   256
  9
$DIMSCALE
 40
1.0
  9
$DIMASZ
 40
0.18
  9
$DIMEXO
 40
0.0625
  9
$DIMDLI
 40
0.38
  9
$DIMRND
 40
0.0
  9
$DIMDLE
 40
0.0
  9
$DIMEXE
 40
0.18
  9
$DIMTP
 40
0.0
  9
$DIMTM
 40
0.0
  9
$DIMTXT
 40
0.18
  9
$DIMCEN
 40
0.09
  9
$DIMTSZ
 40
0.0
  9
$DIMTOL
 70
     0
  9
$DIMLIM
 70
     0
  9
$DIMTIH
 70
     1
  9
$DIMTOH
 70
     1
  9
$DIMSE1
 70
     0
  9
$DIMSE2
 70
     0
  9
$DIMTAD
 70
     0
  9
$DIMZIN
 70
     0
  9
$DIMBLK
  1

  9
$DIMASO
 70
     1
  9
$DIMSHO
 70
     1
  9
$DIMPOST
  1

  9
$DIMAPOST
  1

  9
$DIMALT
 70
     0
  9
$DIMALTD
 70
     2
  9
$DIMALTF
 40
25.4
  9
$DIMLFAC
 40
1.0
  9
$DIMTOFL
 70
     0
  9
$DIMTVP
 40
0.0
  9
$DIMTIX
 70
     0
  9
$DIMSOXD
 70
     0
  9
$DIMSAH
 70
     0
  9
$DIMBLK1
  1

  9
$DIMBLK2
  1

  9
$DIMSTYLE
  2
STANDARD
  9
$DIMCLRD
 70
     0
  9
$DIMCLRE
 70
     0
  9
$DIMCLRT
 70
     0
  9
$DIMTFAC
 40
1.0
  9
$DIMGAP
 40
0.09
  9
$LUNITS
 70
     2
  9
$LUPREC
 70
     4
  9
$AXISMODE
 70
     0
  9
$AXISUNIT
 10
0.0
 20
0.0
  9
$SKETCHINC
 40
0.1
  9
$FILLETRAD
 40
0.0
  9
$AUNITS
 70
     0
  9
$AUPREC
 70
     0
  9
$MENU
  1
acad
  9
$ELEVATION
 40
0.0
  9
$PELEVATION
 40
0.0
  9
$THICKNESS
 40
0.0
  9
$LIMCHECK
 70
     0
  9
$BLIPMODE
 70
     1
  9
$CHAMFERA
 40
0.0
  9
$CHAMFERB
 40
0.0
  9
$SKPOLY
 70
     0
  9
$TDCREATE
 40
0.000000000
  9
$TDUPDATE
 40
0.000000000
  9
$TDINDWG
 40
0.0000000000
  9
$TDUSRTIMER
 40
0.0000000000
  9
$USRTIMER
 70
     1
  9
$ANGBASE
 50
0.0
  9
$ANGDIR
 70
     0
  9
$PDMODE
 70
     0
  9
$PDSIZE
 40
0.0
  9
$PLINEWID
 40
0.0
  9
$COORDS
 70
     0
  9
$SPLFRAME
 70
     0
  9
$SPLINETYPE
 70
     6
  9
$SPLINESEGS
 70
     8
  9
$ATTDIA
 70
     0
  9
$ATTREQ
 70
     1
  9
$HANDLING
 70
     1
  9
$HANDSEED
  5
2CD
  9
$SURFTAB1
 70
     6
  9
$SURFTAB2
 70
     6
  9
$SURFTYPE
 70
     6
  9
$SURFU
 70
     6
  9
$SURFV
 70
     6
  9
$UCSNAME
  2

  9
$UCSORG
 10
0.0
 20
0.0
 30
0.0
  9
$UCSXDIR
 10
1.0
 20
0.0
 30
0.0
  9
$UCSYDIR
 10
0.0
 20
1.0
 30
0.0
  9
$PUCSNAME
  2

  9
$PUCSORG
 10
0.0
 20
0.0
 30
0.0
  9
$PUCSXDIR
 10
1.0
 20
0.0
 30
0.0
  9
$PUCSYDIR
 10
0.0
 20
1.0
 30
0.0
  9
$USERI1
 70
     0
  9
$USERI2
 70
     0
  9
$USERI3
 70
     0
  9
$USERI4
 70
     0
  9
$USERI5
 70
     0
  9
$USERR1
 40
0.0
  9
$USERR2
 40
0.0
  9
$USERR3
 40
0.0
  9
$USERR4
 40
0.0
  9
$USERR5
 40
0.0
  9
$WORLDVIEW
 70
     1
  9
$SHADEDGE
 70
     3
  9
$SHADEDIF
 70
    70
  9
$TILEMODE
 70
     1
  9
$MAXACTVP
 70
    16
  9
$PINSBASE
 10
0.0
 20
0.0
 30
0.0
  9
$PLIMCHECK
 70
     0
  9
$PEXTMIN
 10
1.000000E+20
 20
1.000000E+20
 30
1.000000E+20
  9
$PEXTMAX
 10
-1.000000E+20
 20
-1.000000E+20
 30
-1.000000E+20
  9
$PLIMMIN
 10
0.0
 20
0.0
  9
$PLIMMAX
 10
12.0
 20
9.0
  9
$UNITMODE
 70
     0
  9
$VISRETAIN
 70
     0
  9
$PLINEGEN
 70
     1
  9
$PSLTSCALE
 70
     0
  9
$TREEDEPTH
 70
  3020
  0
ENDSEC
  0
SECTION
  2
TABLES
  0
TABLE
  2
VPORT
 70
     1
  0
VPORT
  2
*ACTIVE
 70
     0
 10
0.0
 20
0.0
 11
1.0
 21
1.0
 12
6.591288
 22
4.579184
 13
0.0
 23
0.0
 14
1.0
 24
1.0
 15
0.0
 25
0.0
 16
0.0
 26
0.0
 36
1.0
 17
0.0
 27
0.0
 37
0.0
 40
9.158369
 41
0.688564
 42
50.0
 43
0.0
 44
0.0
 50
0.0
 51
0.0
 71
     0
 72
   100
 73
     1
 74
     1
 75
     0
 76
     0
 77
     0
 78
     0
  0
ENDTAB
  0
TABLE
  2
LTYPE
 70
     5
  0
LTYPE
  2
CONTINUOUS
 70
    64
  3
Solid line
 72
    65
 73
     0
 40
0.0
  0
LTYPE
  2
CENTER
 70
    64
  3
Center ____ _ ____ _ ____ _ ____ _ ____ _ ____
 72
    65
 73
     4
 40
50.8
 49
31.75
 49
-6.35
 49
6.35
 49
-6.35
  0
LTYPE
  2
HIDDEN
 70
    64
  3
Hidden __ __ __ __ __ __ __ __ __ __ __ __ __ __
 72
    65
 73
     2
 40
9.525
 49
6.35
 49
-3.175
  0
LTYPE
  2
CENTER2
 70
    64
  3
Center (.5x) ___ _ ___ _ ___ _ ___ _ ___ _ ___
 72
    65
 73
     4
 40
28.575
 49
19.05
 49
-3.175
 49
3.175
 49
-3.175
  0
LTYPE
  2
HIDDEN2
 70
    64
  3
Hidden (.5x) _ _ _ _ _ _ _ _ _ _ _ _ _ _ _ _ _
 72
    65
 73
     2
 40
4.7625
 49
3.175
 49
-1.5875
  0
ENDTAB
  0
TABLE
  2
LAYER
 70
     1
  0
LAYER
  2
0
 70
     0
 62
     7
  6
CONTINUOUS
  0
ENDTAB
  0
TABLE
  2
STYLE
 70
     1
  0
STYLE
  2
STANDARD
 70
     0
 40
0.0
 41
1.0
 50
0.0
 71
     0
 42
0.0
  3
txt
  4

  0
ENDTAB
  0
TABLE
  2
VIEW
 70
     0
  0
ENDTAB
  0
TABLE
  2
UCS
 70
     0
  0
ENDTAB
  0
TABLE
  2
APPID
 70
     1
  0
APPID
  2
ACAD
 70
     0
  0
ENDTAB
  0
TABLE
  2
DIMSTYLE
 70
     1
  0
DIMSTYLE
  2
STANDARD
 70
     0
  3

  4

  5

  6

  7

 40
1.0
 41
0.18
 42
0.0625
 43
0.38
 44
0.18
 45
0.0
 46
0.0
 47
0.0
 48
0.0
 71
     0
 72
     0
 73
     1
 74
     1
 75
     0
 76
     0
 77
     0
 78
     0
140
0.18
141
0.09
142
0.0
143
25.4
144
1.0
145
0.0
146
1.0
147
0.09
170
     0
171
     2
172
     0
173
     0
174
     0
175
     0
176
     0
177
     0
178
     0
  0
ENDTAB
  0
ENDSEC
  0
SECTION
  2
BLOCKS
  0
ENDSEC
  0
SECTION
  2
ENTITIES
  0
LINE
  8
0
  6
CONTINUOUS
 62
     7
  5
19F
 10
4.251969
 20
-2.956693
 30
0.0
 11
4.251969
 21
-4.847457
 31
0.0
  0
LINE
  8
0
  6
CONTINUOUS
 62
     7
  5
1A0
 10
0.3
 20
5.665354
 30
0.0
 11
4.173228
 21
5.665354
 31
0.0
  0
LINE
  8
0
  6
CONTINUOUS
 62
     7
  5
1A1
 10
0.11811
 20
5.664853
 30
0.0
 11
0.11811
 21
-2.957693
 31
0.0
  0
LINE
  8
0
  6
CONTINUOUS
 62
     7
  5
1A2
 10
0.11811
 20
-2.957693
 30
0.0
 11
4.173228
 21
-2.957693
 31
0.0
  0
LINE
  8
0
  6
CONTINUOUS
 62
     7
  5
1A3
 10
0.787402
 20
2.421654
 30
0.0
 11
0.787402
 21
5.271654
 31
0.0
  0
LINE
  8
0
  6
CONTINUOUS
 62
     7
  5
1A4
 10
0.787402
 20
5.271654
 30
0.0
 11
1.032162
 21
5.271654
 31
0.0
  0
LINE
  8
0
  6
CONTINUOUS
 62
     7
  5
1A5
 10
1.032162
 20
5.271654
 30
0.0
 11
1.032162
 21
2.421654
 31
0.0
  0
LINE
  8
0
  6
CONTINUOUS
 62
     7
  5
1A6
 10
1.032162
 20
2.421654
 30
0.0
 11
0.787402
 21
2.421654
 31
0.0
  0
LINE
  8
0
  6
CONTINUOUS
 62
     7
  5
1A7
 10
1.157402
 20
2.421654
 30
0.0
 11
1.157402
 21
5.271654
 31
0.0
  0
LINE
  8
0
  6
CONTINUOUS
 62
     7
  5
1A8
 10
1.157402
 20
5.271654
 30
0.0
 11
1.402162
 21
5.271654
 31
0.0
  0
LINE
  8
0
  6
CONTINUOUS
 62
     7
  5
1A9
 10
1.402162
 20
5.271654
 30
0.0
 11
1.402162
 21
2.421654
 31
0.0
  0
LINE
  8
0
  6
CONTINUOUS
 62
     7
  5
1AA
 10
1.402162
 20
2.421654
 30
0.0
 11
1.157402
 21
2.421654
 31
0.0
  0
LINE
  8
0
  6
CONTINUOUS
 62
     7
  5
1AB
 10
1.527402
 20
2.421654
 30
0.0
 11
1.527402
 21
5.271654
 31
0.0
  0
LINE
  8
0
  6
CONTINUOUS
 62
     7
  5
1AC
 10
1.527402
 20
5.271654
 30
0.0
 11
1.772162
 21
5.271654
 31
0.0
  0
LINE
  8
0
  6
CONTINUOUS
 62
     7
  5
1AD
 10
1.772162
 20
5.271654
 30
0.0
 11
1.772162
 21
2.421654
 31
0.0
  0
LINE
  8
0
  6
CONTINUOUS
 62
     7
  5
1AE
 10
1.772162
 20
2.421654
 30
0.0
 11
1.527402
 21
2.421654
 31
0.0
  0
LINE
  8
0
  6
CONTINUOUS
 62
     7
  5
1AF
 10
1.897402
 20
2.421654
 30
0.0
 11
1.897402
 21
5.271654
 31
0.0
  0
LINE
  8
0
  6
CONTINUOUS
 62
     7
  5
1B0
 10
1.897402
 20
5.271654
 30
0.0
 11
2.142162
 21
5.271654
 31
0.0
  0
LINE
  8
0
  6
CONTINUOUS
 62
     7
  5
1B1
 10
2.142162
 20
5.271654
 30
0.0
 11
2.142162
 21
2.421654
 31
0.0
  0
LINE
  8
0
  6
CONTINUOUS
 62
     7
  5
1B2
 10
2.142162
 20
2.421654
 30
0.0
 11
1.897402
 21
2.421654
 31
0.0
  0
LINE
  8
0
  6
CONTINUOUS
 62
     7
  5
1B3
 10
2.267402
 20
2.421654
 30
0.0
 11
2.267402
 21
5.271654
 31
0.0
  0
LINE
  8
0
  6
CONTINUOUS
 62
     7
  5
1B4
 10
2.267402
 20
5.271654
 30
0.0
 11
2.512162
 21
5.271654
 31
0.0
  0
LINE
  8
0
  6
CONTINUOUS
 62
     7
  5
1B5
 10
2.512162
 20
5.271654
 30
0.0
 11
2.512162
 21
2.421654
 31
0.0
  0
LINE
  8
0
  6
CONTINUOUS
 62
     7
  5
1B6
 10
2.512162
 20
2.421654
 30
0.0
 11
2.267402
 21
2.421654
 31
0.0
  0
LINE
  8
0
  6
CONTINUOUS
 62
     7
  5
1B7
 10
2.637402
 20
2.421654
 30
0.0
 11
2.637402
 21
5.271654
 31
0.0
  0
LINE
  8
0
  6
CONTINUOUS
 62
     7
  5
1B8
 10
2.637402
 20
5.271654
 30
0.0
 11
2.882162
 21
5.271654
 31
0.0
  0
LINE
  8
0
  6
CONTINUOUS
 62
     7
  5
1B9
 10
2.882162
 20
5.271654
 30
0.0
 11
2.882162
 21
2.421654
 31
0.0
  0
LINE
  8
0
  6
CONTINUOUS
 62
     7
  5
1BA
 10
2.882162
 20
2.421654
 30
0.0
 11
2.637402
 21
2.421654
 31
0.0
  0
LINE
  8
0
  6
CONTINUOUS
 62
     7
  5
1BB
 10
3.007402
 20
2.421654
 30
0.0
 11
3.007402
 21
5.271654
 31
0.0
  0
LINE
  8
0
  6
CONTINUOUS
 62
     7
  5
1BC
 10
3.007402
 20
5.271654
 30
0.0
 11
3.252162
 21
5.271654
 31
0.0
  0
LINE
  8
0
  6
CONTINUOUS
 62
     7
  5
1BD
 10
3.252162
 20
5.271654
 30
0.0
 11
3.252162
 21
2.421654
 31
0.0
  0
LINE
  8
0
  6
CONTINUOUS
 62
     7
  5
1BE
 10
3.252162
 20
2.421654
 30
0.0
 11
3.007402
 21
2.421654
 31
0.0
  0
LINE
  8
0
  6
CONTINUOUS
 62
     7
  5
1BF
 10
0.0
 20
-4.847457
 30
0.0
 11
0.0
 21
5.664853
 31
0.0
  0
LINE
  8
0
  6
CONTINUOUS
 62
     7
  5
1C0
 10
4.251969
 20
-4.847457
 30
0.0
 11
0.0
 21
-4.847457
 31
0.0
  0
LINE
  8
0
  6
CONTINUOUS
 62
     7
  5
1C1
 10
3.223531
 20
2.421654
 30
0.0
 11
3.223531
 21
5.271654
 31
0.0
  0
LINE
  8
0
  6
CONTINUOUS
 62
     7
  5
1C2
 10
2.853531
 20
2.421654
 30
0.0
 11
2.853531
 21
5.271654
 31
0.0
  0
LINE
  8
0
  6
CONTINUOUS
 62
     7
  5
1C3
 10
2.483531
 20
2.421654
 30
0.0
 11
2.483531
 21
5.271654
 31
0.0
  0
LINE
  8
0
  6
CONTINUOUS
 62
     7
  5
1C4
 10
2.113531
 20
2.421654
 30
0.0
 11
2.113531
 21
5.271654
 31
0.0
  0
LINE
  8
0
  6
CONTINUOUS
 62
     7
  5
1C5
 10
1.743531
 20
2.421654
 30
0.0
 11
1.743531
 21
5.271654
 31
0.0
  0
LINE
  8
0
  6
CONTINUOUS
 62
     7
  5
1C6
 10
1.373531
 20
2.421654
 30
0.0
 11
1.373531
 21
5.271654
 31
0.0
  0
LINE
  8
0
  6
CONTINUOUS
 62
     7
  5
1C7
 10
1.003531
 20
2.421654
 30
0.0
 11
1.003531
 21
5.271654
 31
0.0
  0
LINE
  8
0
  6
CONTINUOUS
 62
     7
  5
1C8
 10
0.0
 20
-4.76378
 30
0.0
 11
-0.04748
 21
-4.76378
 31
0.0
  0
LINE
  8
0
  6
CONTINUOUS
 62
     7
  5
1C9
 10
-0.04748
 20
-4.76378
 30
0.0
 11
-0.04748
 21
-5.0
 31
0.0
  0
LINE
  8
0
  6
CONTINUOUS
 62
     7
  5
1CA
 10
-0.04748
 20
-5.0
 30
0.0
 11
-0.15748
 21
-5.0
 31
0.0
  0
LINE
  8
0
  6
CONTINUOUS
 62
     7
  5
1CB
 10
-0.15748
 20
-5.0
 30
0.0
 11
-0.186366
 21
-4.448819
 31
0.0
  0
LINE
  8
0
  6
CONTINUOUS
 62
     7
  5
1CC
 10
-0.186366
 20
-4.448819
 30
0.0
 11
-0.330945
 21
-4.448819
 31
0.0
  0
LINE
  8
0
  6
CONTINUOUS
 62
     7
  5
1CD
 10
-0.330945
 20
-5.393701
 30
0.0
 11
-0.330945
 21
-4.448819
 31
0.0
  0
LINE
  8
0
  6
CONTINUOUS
 62
     7
  5
1CE
 10
-0.330945
 20
-5.393701
 30
0.0
 11
0.004441
 21
-5.393701
 31
0.0
  0
LINE
  8
0
  6
CONTINUOUS
 62
     7
  5
1CF
 10
0.082441
 20
-6.286619
 30
0.0
 11
0.082441
 21
-5.393701
 31
0.0
  0
LINE
  8
0
  6
CONTINUOUS
 62
     7
  5
1D0
 10
-0.04871
 20
-6.51378
 30
0.0
 11
0.082441
 21
-6.286619
 31
0.0
  0
LINE
  8
0
  6
CONTINUOUS
 62
     7
  5
1D1
 10
0.180866
 20
-6.312992
 30
0.0
 11
0.036529
 21
-6.562992
 31
0.0
  0
LINE
  8
0
  6
CONTINUOUS
 62
     7
  5
1D2
 10
0.036529
 20
-6.562992
 30
0.0
 11
-0.04871
 21
-6.51378
 31
0.0
  0
LINE
  8
0
  6
CONTINUOUS
 62
     7
  5
1D3
 10
0.180866
 20
-5.393701
 30
0.0
 11
0.180866
 21
-4.847457
 31
0.0
  0
LINE
  8
0
  6
CONTINUOUS
 62
     7
  5
1D4
 10
0.180866
 20
-5.393701
 30
0.0
 11
0.180866
 21
-6.312992
 31
0.0
  0
LINE
  8
0
  6
CONTINUOUS
 62
     7
  5
1D5
 10
0.004441
 20
-5.393701
 30
0.0
 11
0.180866
 21
-5.393701
 31
0.0
  0
LINE
  8
0
  6
CONTINUOUS
 62
     7
  5
1D6
 10
4.173228
 20
-2.956693
 30
0.0
 11
4.173228
 21
5.783465
 31
0.0
  0
LINE
  8
0
  6
CONTINUOUS
 62
     7
  5
1D7
 10
0.3
 20
5.664853
 30
0.0
 11
0.0
 21
5.664853
 31
0.0
  0
LINE
  8
0
  6
CONTINUOUS
 62
     7
  5
1D8
 10
0.0
 20
5.664853
 30
0.0
 11
0.0
 21
6.669027
 31
0.0
  0
LINE
  8
0
  6
CONTINUOUS
 62
     7
  5
1D9
 10
6.88211
 20
1.786004
 30
0.0
 11
6.225029
 21
1.479602
 31
0.0
  0
LINE
  8
0
  6
CONTINUOUS
 62
     7
  5
1DA
 10
6.98284
 20
1.832976
 30
0.0
 11
6.88211
 21
1.786004
 31
0.0
  0
LINE
  8
0
  6
CONTINUOUS
 62
     7
  5
1DB
 10
7.129981
 20
1.901589
 30
0.0
 11
6.98284
 21
1.832976
 31
0.0
  0
LINE
  8
0
  6
CONTINUOUS
 62
     7
  5
1DC
 10
7.132994
 20
1.902994
 30
0.0
 11
7.129981
 21
1.901589
 31
0.0
  0
LINE
  8
0
  6
CONTINUOUS
 62
     7
  5
1DD
 10
7.446113
 20
1.223642
 30
0.0
 11
7.449126
 21
1.225047
 31
0.0
  0
LINE
  8
0
  6
CONTINUOUS
 62
     7
  5
1DE
 10
7.298972
 20
1.155029
 30
0.0
 11
7.446113
 21
1.223642
 31
0.0
  0
LINE
  8
0
  6
CONTINUOUS
 62
     7
  5
1DF
 10
7.198242
 20
1.108058
 30
0.0
 11
7.298972
 21
1.155029
 31
0.0
  0
LINE
  8
0
  6
CONTINUOUS
 62
     7
  5
1E0
 10
6.252767
 20
0.667176
 30
0.0
 11
7.198242
 21
1.108058
 31
0.0
  0
LINE
  8
0
  6
CONTINUOUS
 62
     7
  5
1E1
 10
6.217273
 20
-1.636037
 30
0.0
 11
6.784602
 21
-1.937692
 31
0.0
  0
LINE
  8
0
  6
CONTINUOUS
 62
     7
  5
1E2
 10
7.135781
 20
-1.277219
 30
0.0
 11
6.249516
 21
-0.805983
 31
0.0
  0
LINE
  8
0
  6
CONTINUOUS
 62
     7
  5
1E3
 10
7.026084
 20
-2.06609
 30
0.0
 11
7.029019
 21
-2.067651
 31
0.0
  0
LINE
  8
0
  6
CONTINUOUS
 62
     7
  5
1E4
 10
6.882736
 20
-1.98987
 30
0.0
 11
7.026084
 21
-2.06609
 31
0.0
  0
LINE
  8
0
  6
CONTINUOUS
 62
     7
  5
1E5
 10
6.784602
 20
-1.937692
 30
0.0
 11
6.882736
 21
-1.98987
 31
0.0
  0
LINE
  8
0
  6
CONTINUOUS
 62
     7
  5
1E6
 10
7.150835
 20
1.911313
 30
0.0
 11
7.132994
 21
1.902994
 31
0.0
  0
LINE
  8
0
  6
CONTINUOUS
 62
     7
  5
1E7
 10
7.10092
 20
2.018357
 30
0.0
 11
7.150835
 21
1.911313
 31
0.0
  0
LINE
  8
0
  6
CONTINUOUS
 62
     7
  5
1E8
 10
7.10092
 20
2.018357
 30
0.0
 11
6.387291
 21
1.685587
 31
0.0
  0
LINE
  8
0
  6
CONTINUOUS
 62
     7
  5
1E9
 10
7.10092
 20
2.018357
 30
0.0
 11
9.277065
 21
3.03311
 31
0.0
  0
LINE
  8
0
  6
CONTINUOUS
 62
     7
  5
1EA
 10
7.466967
 20
1.233366
 30
0.0
 11
7.516882
 21
1.126322
 31
0.0
  0
LINE
  8
0
  6
CONTINUOUS
 62
     7
  5
1EB
 10
7.449126
 20
1.225047
 30
0.0
 11
7.466967
 21
1.233366
 31
0.0
  0
LINE
  8
0
  6
CONTINUOUS
 62
     7
  5
1EC
 10
6.803254
 20
0.793552
 30
0.0
 11
7.516882
 21
1.126322
 31
0.0
  0
LINE
  8
0
  6
CONTINUOUS
 62
     7
  5
1ED
 10
9.693027
 20
2.141075
 30
0.0
 11
7.516882
 21
1.126322
 31
0.0
  0
ARC
  8
0
  6
CONTINUOUS
 62
     7
  5
1EE
 10
9.626473
 20
2.283801
 30
0.0
 40
0.15748
 50
295.0
 51
325.0
  0
LINE
  8
0
  6
CONTINUOUS
 62
     7
  5
1EF
 10
10.018783
 20
2.569518
 30
0.0
 11
9.755474
 21
2.193474
 31
0.0
  0
ARC
  8
0
  6
CONTINUOUS
 62
     7
  5
1F0
 10
10.051033
 20
2.546936
 30
0.0
 40
0.03937
 50
115.0
 51
145.0
  0
LINE
  8
0
  6
CONTINUOUS
 62
     7
  5
1F1
 10
11.943409
 20
3.472806
 30
0.0
 11
10.034394
 21
2.582618
 31
0.0
  0
ARC
  8
0
  6
CONTINUOUS
 62
     7
  5
1F2
 10
12.322139
 20
3.910051
 30
0.0
 40
0.578463
 50
216.781465
 51
229.101777
  0
LINE
  8
0
  6
CONTINUOUS
 62
     7
  5
1F3
 10
9.984479
 20
2.689662
 30
0.0
 11
11.858833
 21
3.563688
 31
0.0
  0
ARC
  8
0
  6
CONTINUOUS
 62
     7
  5
1F4
 10
10.051033
 20
2.546936
 30
0.0
 40
0.15748
 50
115.0
 51
145.0
  0
LINE
  8
0
  6
CONTINUOUS
 62
     7
  5
1F5
 10
9.658723
 20
2.261219
 30
0.0
 11
9.922032
 21
2.637263
 31
0.0
  0
ARC
  8
0
  6
CONTINUOUS
 62
     7
  5
1F6
 10
9.626473
 20
2.283801
 30
0.0
 40
0.03937
 50
295.0
 51
325.0
  0
LINE
  8
0
  6
CONTINUOUS
 62
     7
  5
1F7
 10
7.466967
 20
1.233366
 30
0.0
 11
9.643112
 21
2.248119
 31
0.0
  0
LINE
  8
0
  6
CONTINUOUS
 62
     7
  5
1F8
 10
9.32698
 20
2.926066
 30
0.0
 11
7.150835
 21
1.911313
 31
0.0
  0
ARC
  8
0
  6
CONTINUOUS
 62
     7
  5
1F9
 10
9.343619
 20
2.890385
 30
0.0
 40
0.03937
 50
85.0
 51
115.0
  0
LINE
  8
0
  6
CONTINUOUS
 62
     7
  5
1FA
 10
9.804368
 20
2.889595
 30
0.0
 11
9.34705
 21
2.929605
 31
0.0
  0
ARC
  8
0
  6
CONTINUOUS
 62
     7
  5
1FB
 10
9.818094
 20
3.046476
 30
0.0
 40
0.15748
 50
265.0
 51
295.0
  0
LINE
  8
0
  6
CONTINUOUS
 62
     7
  5
1FC
 10
11.759002
 20
3.777776
 30
0.0
 11
9.884648
 21
2.90375
 31
0.0
  0
ARC
  8
0
  6
CONTINUOUS
 62
     7
  5
1FD
 10
12.322139
 20
3.910051
 30
0.0
 40
0.578463
 50
180.898223
 51
193.218535
  0
LINE
  8
0
  6
CONTINUOUS
 62
     7
  5
1FE
 10
9.834732
 20
3.010794
 30
0.0
 11
11.743747
 21
3.900983
 31
0.0
  0
ARC
  8
0
  6
CONTINUOUS
 62
     7
  5
1FF
 10
9.818094
 20
3.046476
 30
0.0
 40
0.03937
 50
265.0
 51
295.0
  0
LINE
  8
0
  6
CONTINUOUS
 62
     7
  5
200
 10
9.357344
 20
3.047266
 30
0.0
 11
9.814662
 21
3.007256
 31
0.0
  0
ARC
  8
0
  6
CONTINUOUS
 62
     7
  5
201
 10
9.343619
 20
2.890385
 30
0.0
 40
0.15748
 50
85.0
 51
115.0
  0
LINE
  8
0
  6
CONTINUOUS
 62
     7
  5
202
 10
7.132994
 20
1.902994
 30
0.0
 11
7.449126
 21
1.225047
 31
0.0
  0
LINE
  8
0
  6
CONTINUOUS
 62
     7
  5
203
 10
7.233915
 20
-1.329398
 30
0.0
 11
7.135781
 21
-1.277219
 31
0.0
  0
LINE
  8
0
  6
CONTINUOUS
 62
     7
  5
204
 10
7.377264
 20
-1.405617
 30
0.0
 11
7.233915
 21
-1.329398
 31
0.0
  0
LINE
  8
0
  6
CONTINUOUS
 62
     7
  5
205
 10
7.380199
 20
-1.407178
 30
0.0
 11
7.377264
 21
-1.405617
 31
0.0
  0
LINE
  8
0
  6
CONTINUOUS
 62
     7
  5
206
 10
7.39758
 20
-1.41642
 30
0.0
 11
7.380199
 21
-1.407178
 31
0.0
  0
LINE
  8
0
  6
CONTINUOUS
 62
     7
  5
207
 10
7.453029
 20
-1.312135
 30
0.0
 11
7.39758
 21
-1.41642
 31
0.0
  0
LINE
  8
0
  6
CONTINUOUS
 62
     7
  5
208
 10
7.453029
 20
-1.312135
 30
0.0
 11
6.757795
 21
-0.942472
 31
0.0
  0
LINE
  8
0
  6
CONTINUOUS
 62
     7
  5
209
 10
7.453029
 20
-1.312135
 30
0.0
 11
9.573084
 21
-2.439388
 31
0.0
  0
LINE
  8
0
  6
CONTINUOUS
 62
     7
  5
20A
 10
7.0464
 20
-2.076892
 30
0.0
 11
6.990951
 21
-2.181177
 31
0.0
  0
LINE
  8
0
  6
CONTINUOUS
 62
     7
  5
20B
 10
7.029019
 20
-2.067651
 30
0.0
 11
7.0464
 21
-2.076892
 31
0.0
  0
LINE
  8
0
  6
CONTINUOUS
 62
     7
  5
20C
 10
6.295717
 20
-1.811515
 30
0.0
 11
6.990951
 21
-2.181177
 31
0.0
  0
LINE
  8
0
  6
CONTINUOUS
 62
     7
  5
20D
 10
9.111006
 20
-3.30843
 30
0.0
 11
6.990951
 21
-2.181177
 31
0.0
  0
ARC
  8
0
  6
CONTINUOUS
 62
     7
  5
20E
 10
9.184938
 20
-3.169384
 30
0.0
 40
0.15748
 50
242.0
 51
272.0
  0
LINE
  8
0
  6
CONTINUOUS
 62
     7
  5
20F
 10
9.64922
 20
-3.310747
 30
0.0
 11
9.190434
 21
-3.326768
 31
0.0
  0
ARC
  8
0
  6
CONTINUOUS
 62
     7
  5
210
 10
9.650593
 20
-3.350093
 30
0.0
 40
0.03937
 50
62.0
 51
92.0
  0
LINE
  8
0
  6
CONTINUOUS
 62
     7
  5
211
 10
11.528886
 20
-4.30421
 30
0.0
 11
9.669077
 21
-3.315331
 31
0.0
  0
ARC
  8
0
  6
CONTINUOUS
 62
     7
  5
212
 10
12.106011
 20
-4.343536
 30
0.0
 40
0.578463
 50
163.781465
 51
176.101777
  0
LINE
  8
0
  6
CONTINUOUS
 62
     7
  5
213
 10
9.724526
 20
-3.211046
 30
0.0
 11
11.550569
 21
-4.18197
 31
0.0
  0
ARC
  8
0
  6
CONTINUOUS
 62
     7
  5
214
 10
9.650593
 20
-3.350093
 30
0.0
 40
0.15748
 50
62.0
 51
92.0
  0
LINE
  8
0
  6
CONTINUOUS
 62
     7
  5
215
 10
9.186312
 20
-3.20873
 30
0.0
 11
9.645098
 21
-3.192709
 31
0.0
  0
ARC
  8
0
  6
CONTINUOUS
 62
     7
  5
216
 10
9.184938
 20
-3.169384
 30
0.0
 40
0.03937
 50
242.0
 51
272.0
  0
LINE
  8
0
  6
CONTINUOUS
 62
     7
  5
217
 10
7.0464
 20
-2.076892
 30
0.0
 11
9.166455
 21
-3.204145
 31
0.0
  0
LINE
  8
0
  6
CONTINUOUS
 62
     7
  5
218
 10
9.517634
 20
-2.543673
 30
0.0
 11
7.39758
 21
-1.41642
 31
0.0
  0
ARC
  8
0
  6
CONTINUOUS
 62
     7
  5
219
 10
9.499151
 20
-2.578434
 30
0.0
 40
0.03937
 50
32.0
 51
62.0
  0
LINE
  8
0
  6
CONTINUOUS
 62
     7
  5
21A
 10
9.775806
 20
-2.946881
 30
0.0
 11
9.532539
 21
-2.557571
 31
0.0
  0
ARC
  8
0
  6
CONTINUOUS
 62
     7
  5
21B
 10
9.909357
 20
-2.863429
 30
0.0
 40
0.15748
 50
212.0
 51
242.0
  0
LINE
  8
0
  6
CONTINUOUS
 62
     7
  5
21C
 10
11.661468
 20
-3.9734
 30
0.0
 11
9.835425
 21
-3.002476
 31
0.0
  0
ARC
  8
0
  6
CONTINUOUS
 62
     7
  5
21D
 10
12.106011
 20
-4.343536
 30
0.0
 40
0.578463
 50
127.898223
 51
140.218535
  0
LINE
  8
0
  6
CONTINUOUS
 62
     7
  5
21E
 10
9.890874
 20
-2.898191
 30
0.0
 11
11.750684
 21
-3.887069
 31
0.0
  0
ARC
  8
0
  6
CONTINUOUS
 62
     7
  5
21F
 10
9.909357
 20
-2.863429
 30
0.0
 40
0.03937
 50
212.0
 51
242.0
  0
LINE
  8
0
  6
CONTINUOUS
 62
     7
  5
220
 10
9.632702
 20
-2.494983
 30
0.0
 11
9.87597
 21
-2.884292
 31
0.0
  0
ARC
  8
0
  6
CONTINUOUS
 62
     7
  5
221
 10
9.499151
 20
-2.578434
 30
0.0
 40
0.15748
 50
32.0
 51
62.0
  0
LINE
  8
0
  6
CONTINUOUS
 62
     7
  5
222
 10
7.380199
 20
-1.407178
 30
0.0
 11
7.029019
 21
-2.067651
 31
0.0
  0
LINE
  8
0
  6
CONTINUOUS
 62
     7
  5
223
 10
4.427165
 20
-1.874016
 30
0.0
 11
5.866142
 21
-1.874016
 31
0.0
  0
LINE
  8
0
  6
CONTINUOUS
 62
     7
  5
224
 10
5.866142
 20
-2.188976
 30
0.0
 11
4.427165
 21
-2.188976
 31
0.0
  0
LINE
  8
0
  6
CONTINUOUS
 62
     7
  5
225
 10
5.866142
 20
-1.874016
 30
0.0
 11
5.866142
 21
-2.188976
 31
0.0
  0
LINE
  8
0
  6
CONTINUOUS
 62
     7
  5
226
 10
4.427165
 20
-2.188976
 30
0.0
 11
4.427165
 21
-1.874016
 31
0.0
  0
LINE
  8
0
  6
CONTINUOUS
 62
     7
  5
227
 10
5.866142
 20
0.19685
 30
0.0
 11
5.866142
 21
-1.874016
 31
0.0
  0
LINE
  8
0
  6
CONTINUOUS
 62
     7
  5
228
 10
5.866142
 20
0.19685
 30
0.0
 11
5.856142
 21
0.19685
 31
0.0
  0
LINE
  8
0
  6
CONTINUOUS
 62
     7
  5
229
 10
5.856142
 20
0.19685
 30
0.0
 11
5.856142
 21
0.23685
 31
0.0
  0
LINE
  8
0
  6
CONTINUOUS
 62
     7
  5
22A
 10
5.856142
 20
0.23685
 30
0.0
 11
5.866142
 21
0.23685
 31
0.0
  0
LINE
  8
0
  6
CONTINUOUS
 62
     7
  5
22B
 10
5.866142
 20
4.464567
 30
0.0
 11
5.866142
 21
0.23685
 31
0.0
  0
LINE
  8
0
  6
CONTINUOUS
 62
     7
  5
22C
 10
5.866142
 20
4.464567
 30
0.0
 11
5.856142
 21
4.464567
 31
0.0
  0
LINE
  8
0
  6
CONTINUOUS
 62
     7
  5
22D
 10
5.856142
 20
4.464567
 30
0.0
 11
5.856142
 21
4.504567
 31
0.0
  0
LINE
  8
0
  6
CONTINUOUS
 62
     7
  5
22E
 10
5.856142
 20
4.504567
 30
0.0
 11
5.866142
 21
4.504567
 31
0.0
  0
LINE
  8
0
  6
CONTINUOUS
 62
     7
  5
22F
 10
5.866142
 20
4.700787
 30
0.0
 11
5.866142
 21
4.504567
 31
0.0
  0
LINE
  8
0
  6
CONTINUOUS
 62
     7
  5
230
 10
5.866142
 20
4.700787
 30
0.0
 11
4.427165
 21
4.700787
 31
0.0
  0
LINE
  8
0
  6
CONTINUOUS
 62
     7
  5
231
 10
4.427165
 20
4.700787
 30
0.0
 11
4.427165
 21
5.015748
 31
0.0
  0
LINE
  8
0
  6
CONTINUOUS
 62
     7
  5
232
 10
4.427165
 20
5.015748
 30
0.0
 11
5.866142
 21
5.015748
 31
0.0
  0
LINE
  8
0
  6
CONTINUOUS
 62
     7
  5
233
 10
5.866142
 20
5.251969
 30
0.0
 11
5.866142
 21
5.015748
 31
0.0
  0
LINE
  8
0
  6
CONTINUOUS
 62
     7
  5
234
 10
5.866142
 20
5.251969
 30
0.0
 11
5.629921
 21
5.251969
 31
0.0
  0
LINE
  8
0
  6
CONTINUOUS
 62
     7
  5
235
 10
5.629921
 20
5.547244
 30
0.0
 11
5.629921
 21
5.251969
 31
0.0
  0
LINE
  8
0
  6
CONTINUOUS
 62
     7
  5
236
 10
5.629921
 20
5.547244
 30
0.0
 11
4.255906
 21
5.547244
 31
0.0
  0
LINE
  8
0
  6
CONTINUOUS
 62
     7
  5
237
 10
4.255906
 20
5.783465
 30
0.0
 11
4.255906
 21
5.547244
 31
0.0
  0
LINE
  8
0
  6
CONTINUOUS
 62
     7
  5
238
 10
4.255906
 20
5.783465
 30
0.0
 11
4.173228
 21
5.783465
 31
0.0
  0
LINE
  8
0
  6
CONTINUOUS
 62
     7
  5
239
 10
4.255906
 20
-2.956693
 30
0.0
 11
4.173228
 21
-2.956693
 31
0.0
  0
LINE
  8
0
  6
CONTINUOUS
 62
     7
  5
23A
 10
4.255906
 20
-2.720472
 30
0.0
 11
4.255906
 21
-2.956693
 31
0.0
  0
LINE
  8
0
  6
CONTINUOUS
 62
     7
  5
23B
 10
5.629921
 20
-2.720472
 30
0.0
 11
4.255906
 21
-2.720472
 31
0.0
  0
LINE
  8
0
  6
CONTINUOUS
 62
     7
  5
23C
 10
5.629921
 20
-2.425197
 30
0.0
 11
5.629921
 21
-2.720472
 31
0.0
  0
LINE
  8
0
  6
CONTINUOUS
 62
     7
  5
23D
 10
5.866142
 20
-2.425197
 30
0.0
 11
5.629921
 21
-2.425197
 31
0.0
  0
LINE
  8
0
  6
CONTINUOUS
 62
     7
  5
23E
 10
5.866142
 20
-2.188976
 30
0.0
 11
5.866142
 21
-2.425197
 31
0.0
  0
LINE
  8
0
  6
CONTINUOUS
 62
     7
  5
23F
 10
5.866142
 20
5.015748
 30
0.0
 11
5.866142
 21
4.700787
 31
0.0
  0
LINE
  8
0
  6
CONTINUOUS
 62
     7
  5
240
 10
5.866142
 20
0.19685
 30
0.0
 11
5.866142
 21
0.23685
 31
0.0
  0
ARC
  8
0
  6
CONTINUOUS
 62
     7
  5
241
 10
-25.199311
 20
0.0
 30
0.0
 40
31.459154
 50
355.945355
 51
4.054645
  0
LINE
  8
0
  6
CONTINUOUS
 62
     7
  5
242
 10
6.181102
 20
-2.224409
 30
0.0
 11
5.866142
 21
-2.224409
 31
0.0
  0
LINE
  8
0
  6
CONTINUOUS
 62
     7
  5
243
 10
6.181102
 20
2.224409
 30
0.0
 11
5.866142
 21
2.224409
 31
0.0
  0
LINE
  8
0
  6
CONTINUOUS
 62
     7
  5
244
 10
2.253675
 20
7.548024
 30
0.0
 11
2.329895
 21
7.444884
 31
0.0
  0
ARC
  8
0
  6
CONTINUOUS
 62
     7
  5
245
 10
2.330479
 20
7.604781
 30
0.0
 40
0.0955
 50
173.005781
 51
216.46391
  0
LINE
  8
0
  6
CONTINUOUS
 62
     7
  5
246
 10
2.291555
 20
8.071771
 30
0.0
 11
2.23569
 21
7.61641
 31
0.0
  0
ARC
  8
0
  6
CONTINUOUS
 62
     7
  5
247
 10
2.10545
 20
8.094603
 30
0.0
 40
0.1875
 50
353.005781
 51
30.0
  0
LINE
  8
0
  6
CONTINUOUS
 62
     7
  5
248
 10
2.219268
 20
8.272465
 30
0.0
 11
2.26783
 21
8.188353
 31
0.0
  0
LINE
  8
0
  6
CONTINUOUS
 62
     7
  5
249
 10
2.139594
 20
8.226465
 30
0.0
 11
2.219268
 21
8.272465
 31
0.0
  0
LINE
  8
0
  6
CONTINUOUS
 62
     7
  5
24A
 10
2.188155
 20
8.142353
 30
0.0
 11
2.139594
 21
8.226465
 31
0.0
  0
ARC
  8
0
  6
CONTINUOUS
 62
     7
  5
24B
 10
2.10545
 20
8.094603
 30
0.0
 40
0.0955
 50
353.005781
 51
30.0
  0
LINE
  8
0
  6
CONTINUOUS
 62
     7
  5
24C
 10
2.156416
 20
7.725767
 30
0.0
 11
2.200239
 21
8.082974
 31
0.0
  0
ARC
  8
0
  6
CONTINUOUS
 62
     7
  5
24D
 10
2.330479
 20
7.604781
 30
0.0
 40
0.1875
 50
212.799715
 51
216.46391
  0
LINE
  8
0
  6
CONTINUOUS
 62
     7
  5
24E
 10
2.207753
 20
7.455366
 30
0.0
 11
2.179686
 21
7.493347
 31
0.0
  0
LINE
  8
0
  6
CONTINUOUS
 62
     7
  5
24F
 10
2.580314
 20
7.493347
 30
0.0
 11
2.554008
 21
7.457749
 31
0.0
  0
ARC
  8
0
  6
CONTINUOUS
 62
     7
  5
250
 10
2.429521
 20
7.604781
 30
0.0
 40
0.1875
 50
323.53609
 51
325.376685
  0
LINE
  8
0
  6
CONTINUOUS
 62
     7
  5
251
 10
2.559761
 20
8.082974
 30
0.0
 11
2.60231
 21
7.73615
 31
0.0
  0
ARC
  8
0
  6
CONTINUOUS
 62
     7
  5
252
 10
2.65455
 20
8.094603
 30
0.0
 40
0.0955
 50
150.0
 51
186.994219
  0
LINE
  8
0
  6
CONTINUOUS
 62
     7
  5
253
 10
2.620406
 20
8.226465
 30
0.0
 11
2.571845
 21
8.142353
 31
0.0
  0
LINE
  8
0
  6
CONTINUOUS
 62
     7
  5
254
 10
2.540732
 20
8.272465
 30
0.0
 11
2.620406
 21
8.226465
 31
0.0
  0
LINE
  8
0
  6
CONTINUOUS
 62
     7
  5
255
 10
2.49217
 20
8.188353
 30
0.0
 11
2.540732
 21
8.272465
 31
0.0
  0
ARC
  8
0
  6
CONTINUOUS
 62
     7
  5
256
 10
2.65455
 20
8.094603
 30
0.0
 40
0.1875
 50
150.0
 51
186.994219
  0
LINE
  8
0
  6
CONTINUOUS
 62
     7
  5
257
 10
2.52431
 20
7.61641
 30
0.0
 11
2.468445
 21
8.071771
 31
0.0
  0
ARC
  8
0
  6
CONTINUOUS
 62
     7
  5
258
 10
2.429521
 20
7.604781
 30
0.0
 40
0.0955
 50
323.53609
 51
6.994219
  0
LINE
  8
0
  6
CONTINUOUS
 62
     7
  5
259
 10
2.430105
 20
7.444884
 30
0.0
 11
2.506325
 21
7.548024
 31
0.0
  0
LINE
  8
0
  6
CONTINUOUS
 62
     7
  5
25A
 10
0.940675
 20
7.548024
 30
0.0
 11
1.016895
 21
7.444884
 31
0.0
  0
ARC
  8
0
  6
CONTINUOUS
 62
     7
  5
25B
 10
1.017479
 20
7.604781
 30
0.0
 40
0.0955
 50
173.005781
 51
216.46391
  0
LINE
  8
0
  6
CONTINUOUS
 62
     7
  5
25C
 10
0.978555
 20
8.071771
 30
0.0
 11
0.92269
 21
7.61641
 31
0.0
  0
ARC
  8
0
  6
CONTINUOUS
 62
     7
  5
25D
 10
0.79245
 20
8.094603
 30
0.0
 40
0.1875
 50
353.005781
 51
30.0
  0
LINE
  8
0
  6
CONTINUOUS
 62
     7
  5
25E
 10
0.906268
 20
8.272465
 30
0.0
 11
0.95483
 21
8.188353
 31
0.0
  0
LINE
  8
0
  6
CONTINUOUS
 62
     7
  5
25F
 10
0.826594
 20
8.226465
 30
0.0
 11
0.906268
 21
8.272465
 31
0.0
  0
LINE
  8
0
  6
CONTINUOUS
 62
     7
  5
260
 10
0.875155
 20
8.142353
 30
0.0
 11
0.826594
 21
8.226465
 31
0.0
  0
ARC
  8
0
  6
CONTINUOUS
 62
     7
  5
261
 10
0.79245
 20
8.094603
 30
0.0
 40
0.0955
 50
353.005781
 51
30.0
  0
LINE
  8
0
  6
CONTINUOUS
 62
     7
  5
262
 10
0.844053
 20
7.730958
 30
0.0
 11
0.887239
 21
8.082974
 31
0.0
  0
ARC
  8
0
  6
CONTINUOUS
 62
     7
  5
263
 10
1.017479
 20
7.604781
 30
0.0
 40
0.1875
 50
213.691257
 51
216.46391
  0
LINE
  8
0
  6
CONTINUOUS
 62
     7
  5
264
 10
0.893927
 20
7.456484
 30
0.0
 11
0.866686
 21
7.493347
 31
0.0
  0
LINE
  8
0
  6
CONTINUOUS
 62
     7
  5
265
 10
1.267314
 20
7.493347
 30
0.0
 11
1.240073
 21
7.456484
 31
0.0
  0
ARC
  8
0
  6
CONTINUOUS
 62
     7
  5
266
 10
1.116521
 20
7.604781
 30
0.0
 40
0.1875
 50
323.53609
 51
326.308743
  0
LINE
  8
0
  6
CONTINUOUS
 62
     7
  5
267
 10
1.246761
 20
8.082974
 30
0.0
 11
1.289947
 21
7.730958
 31
0.0
  0
ARC
  8
0
  6
CONTINUOUS
 62
     7
  5
268
 10
1.34155
 20
8.094603
 30
0.0
 40
0.0955
 50
150.0
 51
186.994219
  0
LINE
  8
0
  6
CONTINUOUS
 62
     7
  5
269
 10
1.307406
 20
8.226465
 30
0.0
 11
1.258845
 21
8.142353
 31
0.0
  0
LINE
  8
0
  6
CONTINUOUS
 62
     7
  5
26A
 10
1.227732
 20
8.272465
 30
0.0
 11
1.307406
 21
8.226465
 31
0.0
  0
LINE
  8
0
  6
CONTINUOUS
 62
     7
  5
26B
 10
1.17917
 20
8.188353
 30
0.0
 11
1.227732
 21
8.272465
 31
0.0
  0
ARC
  8
0
  6
CONTINUOUS
 62
     7
  5
26C
 10
1.34155
 20
8.094603
 30
0.0
 40
0.1875
 50
150.0
 51
186.994219
  0
LINE
  8
0
  6
CONTINUOUS
 62
     7
  5
26D
 10
1.21131
 20
7.61641
 30
0.0
 11
1.155445
 21
8.071771
 31
0.0
  0
ARC
  8
0
  6
CONTINUOUS
 62
     7
  5
26E
 10
1.116521
 20
7.604781
 30
0.0
 40
0.0955
 50
323.53609
 51
6.994219
  0
LINE
  8
0
  6
CONTINUOUS
 62
     7
  5
26F
 10
1.117105
 20
7.444884
 30
0.0
 11
1.193325
 21
7.548024
 31
0.0
  0
LINE
  8
0
  6
CONTINUOUS
 62
     7
  5
270
 10
3.564675
 20
7.548024
 30
0.0
 11
3.640895
 21
7.444884
 31
0.0
  0
ARC
  8
0
  6
CONTINUOUS
 62
     7
  5
271
 10
3.641479
 20
7.604781
 30
0.0
 40
0.0955
 50
173.005781
 51
216.46391
  0
LINE
  8
0
  6
CONTINUOUS
 62
     7
  5
272
 10
3.602555
 20
8.071771
 30
0.0
 11
3.54669
 21
7.61641
 31
0.0
  0
ARC
  8
0
  6
CONTINUOUS
 62
     7
  5
273
 10
3.41645
 20
8.094603
 30
0.0
 40
0.1875
 50
353.005781
 51
30.0
  0
LINE
  8
0
  6
CONTINUOUS
 62
     7
  5
274
 10
3.530268
 20
8.272465
 30
0.0
 11
3.57883
 21
8.188353
 31
0.0
  0
LINE
  8
0
  6
CONTINUOUS
 62
     7
  5
275
 10
3.450594
 20
8.226465
 30
0.0
 11
3.530268
 21
8.272465
 31
0.0
  0
LINE
  8
0
  6
CONTINUOUS
 62
     7
  5
276
 10
3.499155
 20
8.142353
 30
0.0
 11
3.450594
 21
8.226465
 31
0.0
  0
ARC
  8
0
  6
CONTINUOUS
 62
     7
  5
277
 10
3.41645
 20
8.094603
 30
0.0
 40
0.0955
 50
353.005781
 51
30.0
  0
LINE
  8
0
  6
CONTINUOUS
 62
     7
  5
278
 10
3.468053
 20
7.730958
 30
0.0
 11
3.511239
 21
8.082974
 31
0.0
  0
ARC
  8
0
  6
CONTINUOUS
 62
     7
  5
279
 10
3.641479
 20
7.604781
 30
0.0
 40
0.1875
 50
213.691257
 51
216.46391
  0
LINE
  8
0
  6
CONTINUOUS
 62
     7
  5
27A
 10
3.517927
 20
7.456484
 30
0.0
 11
3.490686
 21
7.493347
 31
0.0
  0
LINE
  8
0
  6
CONTINUOUS
 62
     7
  5
27B
 10
3.891314
 20
7.493347
 30
0.0
 11
3.864073
 21
7.456484
 31
0.0
  0
ARC
  8
0
  6
CONTINUOUS
 62
     7
  5
27C
 10
3.740521
 20
7.604781
 30
0.0
 40
0.1875
 50
323.53609
 51
326.308743
  0
LINE
  8
0
  6
CONTINUOUS
 62
     7
  5
27D
 10
3.870761
 20
8.082974
 30
0.0
 11
3.913947
 21
7.730958
 31
0.0
  0
ARC
  8
0
  6
CONTINUOUS
 62
     7
  5
27E
 10
3.96555
 20
8.094603
 30
0.0
 40
0.0955
 50
150.0
 51
186.994219
  0
LINE
  8
0
  6
CONTINUOUS
 62
     7
  5
27F
 10
3.931406
 20
8.226465
 30
0.0
 11
3.882845
 21
8.142353
 31
0.0
  0
LINE
  8
0
  6
CONTINUOUS
 62
     7
  5
280
 10
3.851732
 20
8.272465
 30
0.0
 11
3.931406
 21
8.226465
 31
0.0
  0
LINE
  8
0
  6
CONTINUOUS
 62
     7
  5
281
 10
3.80317
 20
8.188353
 30
0.0
 11
3.851732
 21
8.272465
 31
0.0
  0
ARC
  8
0
  6
CONTINUOUS
 62
     7
  5
282
 10
3.96555
 20
8.094603
 30
0.0
 40
0.1875
 50
150.0
 51
186.994219
  0
LINE
  8
0
  6
CONTINUOUS
 62
     7
  5
283
 10
3.83531
 20
7.61641
 30
0.0
 11
3.779445
 21
8.071771
 31
0.0
  0
ARC
  8
0
  6
CONTINUOUS
 62
     7
  5
284
 10
3.740521
 20
7.604781
 30
0.0
 40
0.0955
 50
323.53609
 51
6.994219
  0
LINE
  8
0
  6
CONTINUOUS
 62
     7
  5
285
 10
3.741105
 20
7.444884
 30
0.0
 11
3.817325
 21
7.548024
 31
0.0
  0
LINE
  8
0
  6
CONTINUOUS
 62
     7
  5
286
 10
0.16
 20
7.996063
 30
0.0
 11
0.16
 21
6.811027
 31
0.0
  0
LINE
  8
0
  6
CONTINUOUS
 62
     7
  5
287
 10
0.450961
 20
7.996063
 30
0.0
 11
0.16
 21
7.996063
 31
0.0
  0
LINE
  8
0
  6
CONTINUOUS
 62
     7
  5
288
 10
0.387472
 20
7.731613
 30
0.0
 11
0.484293
 21
8.134901
 31
0.0
  0
ARC
  8
0
  6
CONTINUOUS
 62
     7
  5
289
 10
0.494433
 20
7.705934
 30
0.0
 40
0.11
 50
166.5
 51
180.0
  0
LINE
  8
0
  6
CONTINUOUS
 62
     7
  5
28A
 10
0.384433
 20
6.861027
 30
0.0
 11
0.384433
 21
7.705934
 31
0.0
  0
ARC
  8
0
  6
CONTINUOUS
 62
     7
  5
28B
 10
0.334433
 20
6.861027
 30
0.0
 40
0.05
 50
270.0
 51
0.0
  0
LINE
  8
0
  6
CONTINUOUS
 62
     7
  5
28C
 10
3.991499
 20
8.173229
 30
0.0
 11
4.234604
 21
8.173229
 31
0.0
  0
ARC
  8
0
  6
CONTINUOUS
 62
     7
  5
28D
 10
3.991499
 20
8.123229
 30
0.0
 40
0.05
 50
90.0
 51
176.0
  0
LINE
  8
0
  6
CONTINUOUS
 62
     7
  5
28E
 10
3.898821
 20
7.514652
 30
0.0
 11
3.941621
 21
8.126716
 31
0.0
  0
ARC
  8
0
  6
CONTINUOUS
 62
     7
  5
28F
 10
3.824004
 20
7.519884
 30
0.0
 40
0.075
 50
270.0
 51
356.0
  0
LINE
  8
0
  6
CONTINUOUS
 62
     7
  5
290
 10
3.557996
 20
7.444884
 30
0.0
 11
3.824004
 21
7.444884
 31
0.0
  0
ARC
  8
0
  6
CONTINUOUS
 62
     7
  5
291
 10
3.557996
 20
7.519884
 30
0.0
 40
0.075
 50
184.0
 51
270.0
  0
LINE
  8
0
  6
CONTINUOUS
 62
     7
  5
292
 10
3.432671
 20
8.236952
 30
0.0
 11
3.483179
 21
7.514652
 31
0.0
  0
ARC
  8
0
  6
CONTINUOUS
 62
     7
  5
293
 10
3.382793
 20
8.233465
 30
0.0
 40
0.05
 50
4.0
 51
90.0
  0
LINE
  8
0
  6
CONTINUOUS
 62
     7
  5
294
 10
1.375207
 20
8.283465
 30
0.0
 11
1.507793
 21
8.283465
 31
0.0
  0
ARC
  8
0
  6
CONTINUOUS
 62
     7
  5
295
 10
1.375207
 20
8.233465
 30
0.0
 40
0.05
 50
90.0
 51
176.0
  0
LINE
  8
0
  6
CONTINUOUS
 62
     7
  5
296
 10
1.274821
 20
7.514652
 30
0.0
 11
1.325329
 21
8.236952
 31
0.0
  0
ARC
  8
0
  6
CONTINUOUS
 62
     7
  5
297
 10
1.200004
 20
7.519884
 30
0.0
 40
0.075
 50
270.0
 51
356.0
  0
LINE
  8
0
  6
CONTINUOUS
 62
     7
  5
298
 10
0.933996
 20
7.444884
 30
0.0
 11
1.200004
 21
7.444884
 31
0.0
  0
ARC
  8
0
  6
CONTINUOUS
 62
     7
  5
299
 10
0.933996
 20
7.519884
 30
0.0
 40
0.075
 50
184.0
 51
270.0
  0
LINE
  8
0
  6
CONTINUOUS
 62
     7
  5
29A
 10
0.816379
 20
8.126716
 30
0.0
 11
0.859179
 21
7.514652
 31
0.0
  0
ARC
  8
0
  6
CONTINUOUS
 62
     7
  5
29B
 10
0.766501
 20
8.123229
 30
0.0
 40
0.05
 50
4.0
 51
90.0
  0
LINE
  8
0
  6
CONTINUOUS
 62
     7
  5
29C
 10
2.687207
 20
8.283465
 30
0.0
 11
2.819793
 21
8.283465
 31
0.0
  0
ARC
  8
0
  6
CONTINUOUS
 62
     7
  5
29D
 10
2.687207
 20
8.233465
 30
0.0
 40
0.05
 50
90.0
 51
176.0
  0
LINE
  8
0
  6
CONTINUOUS
 62
     7
  5
29E
 10
2.586821
 20
7.514652
 30
0.0
 11
2.637329
 21
8.236952
 31
0.0
  0
ARC
  8
0
  6
CONTINUOUS
 62
     7
  5
29F
 10
2.512004
 20
7.519884
 30
0.0
 40
0.075
 50
270.0
 51
356.0
  0
LINE
  8
0
  6
CONTINUOUS
 62
     7
  5
2A0
 10
2.245996
 20
7.444884
 30
0.0
 11
2.512004
 21
7.444884
 31
0.0
  0
ARC
  8
0
  6
CONTINUOUS
 62
     7
  5
2A1
 10
2.245996
 20
7.519884
 30
0.0
 40
0.075
 50
184.0
 51
270.0
  0
LINE
  8
0
  6
CONTINUOUS
 62
     7
  5
2A2
 10
2.120671
 20
8.236952
 30
0.0
 11
2.171179
 21
7.514652
 31
0.0
  0
ARC
  8
0
  6
CONTINUOUS
 62
     7
  5
2A3
 10
2.070793
 20
8.233465
 30
0.0
 40
0.05
 50
4.0
 51
90.0
  0
LINE
  8
0
  6
CONTINUOUS
 62
     7
  5
2A4
 10
4.1743
 20
6.283465
 30
0.0
 11
4.1743
 21
5.823334
 31
0.0
  0
LINE
  8
0
  6
CONTINUOUS
 62
     7
  5
2A5
 10
4.173228
 20
5.823334
 30
0.0
 11
4.173228
 21
5.783465
 31
0.0
  0
LINE
  8
0
  6
CONTINUOUS
 62
     7
  5
2A6
 10
4.1743
 20
5.823334
 30
0.0
 11
4.173228
 21
5.823334
 31
0.0
  0
LINE
  8
0
  6
CONTINUOUS
 62
     7
  5
2A7
 10
0.3
 20
5.664853
 30
0.0
 11
0.3
 21
6.283465
 31
0.0
  0
LINE
  8
0
  6
CONTINUOUS
 62
     7
  5
2A8
 10
0.3
 20
6.283465
 30
0.0
 11
4.1743
 21
6.283465
 31
0.0
  0
LINE
  8
0
  6
CONTINUOUS
 62
     7
  5
2A9
 10
4.76378
 20
5.823334
 30
0.0
 11
4.1743
 21
5.823334
 31
0.0
  0
LINE
  8
0
  6
CONTINUOUS
 62
     7
  5
2AA
 10
0.532911
 20
8.173229
 30
0.0
 11
0.766501
 21
8.173229
 31
0.0
  0
ARC
  8
0
  6
CONTINUOUS
 62
     7
  5
2AB
 10
1.507793
 20
8.233465
 30
0.0
 40
0.05
 50
4.0
 51
90.0
  0
LINE
  8
0
  6
CONTINUOUS
 62
     7
  5
2AC
 10
1.557671
 20
8.236952
 30
0.0
 11
1.608179
 21
7.514652
 31
0.0
  0
ARC
  8
0
  6
CONTINUOUS
 62
     7
  5
2AD
 10
1.682996
 20
7.519884
 30
0.0
 40
0.075
 50
184.0
 51
270.0
  0
LINE
  8
0
  6
CONTINUOUS
 62
     7
  5
2AE
 10
1.682996
 20
7.444884
 30
0.0
 11
1.763004
 21
7.444884
 31
0.0
  0
ARC
  8
0
  6
CONTINUOUS
 62
     7
  5
2AF
 10
1.763004
 20
7.519884
 30
0.0
 40
0.075
 50
270.0
 51
356.0
  0
LINE
  8
0
  6
CONTINUOUS
 62
     7
  5
2B0
 10
1.837821
 20
7.514652
 30
0.0
 11
1.888329
 21
8.236952
 31
0.0
  0
ARC
  8
0
  6
CONTINUOUS
 62
     7
  5
2B1
 10
1.938207
 20
8.233465
 30
0.0
 40
0.05
 50
90.0
 51
176.0
  0
LINE
  8
0
  6
CONTINUOUS
 62
     7
  5
2B2
 10
1.938207
 20
8.283465
 30
0.0
 11
2.070793
 21
8.283465
 31
0.0
  0
ARC
  8
0
  6
CONTINUOUS
 62
     7
  5
2B3
 10
2.819793
 20
8.233465
 30
0.0
 40
0.05
 50
4.0
 51
90.0
  0
LINE
  8
0
  6
CONTINUOUS
 62
     7
  5
2B4
 10
2.869671
 20
8.236952
 30
0.0
 11
2.920179
 21
7.514652
 31
0.0
  0
ARC
  8
0
  6
CONTINUOUS
 62
     7
  5
2B5
 10
2.994996
 20
7.519884
 30
0.0
 40
0.075
 50
184.0
 51
270.0
  0
LINE
  8
0
  6
CONTINUOUS
 62
     7
  5
2B6
 10
2.994996
 20
7.444884
 30
0.0
 11
3.075004
 21
7.444884
 31
0.0
  0
ARC
  8
0
  6
CONTINUOUS
 62
     7
  5
2B7
 10
3.075004
 20
7.519884
 30
0.0
 40
0.075
 50
270.0
 51
356.0
  0
LINE
  8
0
  6
CONTINUOUS
 62
     7
  5
2B8
 10
3.149821
 20
7.514652
 30
0.0
 11
3.200329
 21
8.236952
 31
0.0
  0
ARC
  8
0
  6
CONTINUOUS
 62
     7
  5
2B9
 10
3.250207
 20
8.233465
 30
0.0
 40
0.05
 50
90.0
 51
176.0
  0
LINE
  8
0
  6
CONTINUOUS
 62
     7
  5
2BA
 10
3.250207
 20
8.283465
 30
0.0
 11
3.382793
 21
8.283465
 31
0.0
  0
ARC
  8
0
  6
CONTINUOUS
 62
     7
  5
2BB
 10
4.234604
 20
8.123229
 30
0.0
 40
0.05
 50
15.329292
 51
90.0
  0
LINE
  8
0
  6
CONTINUOUS
 62
     7
  5
2BC
 10
4.282825
 20
8.136447
 30
0.0
 11
4.701051
 21
6.610735
 31
0.0
  0
LINE
  8
0
  6
CONTINUOUS
 62
     7
  5
2BD
 10
4.701051
 20
6.610735
 30
0.0
 11
4.76378
 21
6.610735
 31
0.0
  0
LINE
  8
0
  6
CONTINUOUS
 62
     7
  5
2BE
 10
4.76378
 20
6.610735
 30
0.0
 11
4.76378
 21
5.823334
 31
0.0
  0
ARC
  8
0
  6
CONTINUOUS
 62
     7
  5
2BF
 10
0.142
 20
6.669027
 30
0.0
 40
0.142
 50
90.0
 51
180.0
  0
LINE
  8
0
  6
CONTINUOUS
 62
     7
  5
2C0
 10
0.142
 20
6.811027
 30
0.0
 11
0.334433
 21
6.811027
 31
0.0
  0
ARC
  8
0
  6
CONTINUOUS
 62
     7
  5
2C1
 10
0.532911
 20
8.123229
 30
0.0
 40
0.05
 50
90.0
 51
166.5
  0
LINE
  8
0
  6
CONTINUOUS
 62
     7
  5
2C2
 10
6.387291
 20
1.685587
 30
0.0
 11
6.437207
 21
1.578543
 31
0.0
  0
LINE
  8
0
  6
CONTINUOUS
 62
     7
  5
2C3
 10
6.753339
 20
0.900596
 30
0.0
 11
6.803254
 21
0.793552
 31
0.0
  0
ARC
  8
0
  6
CONTINUOUS
 62
     7
  5
2C4
 10
12.322139
 20
3.910051
 30
0.0
 40
0.590551
 50
193.463041
 51
216.536959
  0
ARC
  8
0
  6
CONTINUOUS
 62
     7
  5
2C5
 10
12.322139
 20
3.910051
 30
0.0
 40
0.590551
 50
228.578178
 51
181.421822
  0
LINE
  8
0
  6
CONTINUOUS
 62
     7
  5
2C6
 10
6.757795
 20
-0.942472
 30
0.0
 11
6.702345
 21
-1.046757
 31
0.0
  0
LINE
  8
0
  6
CONTINUOUS
 62
     7
  5
2C7
 10
6.351166
 20
-1.70723
 30
0.0
 11
6.295717
 21
-1.811515
 31
0.0
  0
ARC
  8
0
  6
CONTINUOUS
 62
     7
  5
2C8
 10
12.106011
 20
-4.343536
 30
0.0
 40
0.590551
 50
140.463041
 51
163.536959
  0
ARC
  8
0
  6
CONTINUOUS
 62
     7
  5
2C9
 10
12.106011
 20
-4.343536
 30
0.0
 40
0.590551
 50
175.578178
 51
128.421822
  0
LINE
  8
0
  6
CONTINUOUS
 62
     3
  5
2CA
 10
0.072599
 20
-5.858268
 30
0.0
 11
0.190709
 21
-5.858268
 31
0.0
  0
ENDSEC
  0
EOF
