999
DXF file: C:\Users\sesa63760\Dev\_Creo\CAD\MCADID0000676_3D-CAD\drw0001_5.dxf
999
Pro/ENGINEER 2019471 by Parametric Technology Corporation
  0
SECTION
  2
HEADER
  9
$ACADVER
  1
AC1024
  9
$DWGCODEPAGE
  3
ANSI_1252
  9
$EXTMAX
 10
297.8999801941
 20
421.3156862745
 30
0.0
  9
$EXTMIN
 10
0.0
 20
0.0
 30
0.0
  9
$LIMMIN
 10
0.0
 20
0.0
  9
$LIMMAX
 10
297.8999801941
 20
421.3156862745
  9
$VIEWCTR
 10
148.949990097
 20
210.6578431373
  9
$VIEWSIZE
 40
421.3156862745
  9
$CLAYER
  8
0
  9
$LTSCALE
 40
27.4635410312
  9
$CELTYPE
  6
BYLAYER
  9
$DIMSCALE
 40
1.0
  9
$DIMASZ
 40
3.5464283356
  9
$DIMEXO
 40
1.0
  9
$DIMDLI
 40
18.974810167
  9
$DIMEXE
 40
1.0
  9
$DIMCEN
 40
4.4940339869
  9
$DIMLFAC
 40
1.0
  9
$DIMBLK
  1
_FILLED
  9
$DIMALT
 70
0
  9
$DIMALTF
 40
0.0393700787
  9
$DIMTXT
 40
4.9649996699
  9
$DIMTOL
 70
1
  9
$DIMLIM
 70
0
  9
$DIMTFAC
 40
1.0
  9
$DIMTP
 40
0.01
  9
$DIMTM
 40
0.01
  9
$DIMGAP
 40
0.625
  9
$DIMDSEP
 70
46
  9
$AUNITS
 70
0
  9
$PDMODE
 70
3
  9
$PDSIZE
 40
0.3125
  9
$HANDSEED
  5
43D
  9
$TILEMODE
 70
1
  9
$MEASUREMENT
 70
1
  9
$INSUNITS
 70
4
  0
ENDSEC
  0
SECTION
  2
CLASSES
  0
CLASS
  1
ACDBDICTIONARYWDFLT
  2
AcDbDictionaryWithDefault
  3
AutoCAD 2000
 90
0
 91
1
280
0
281
0
  0
CLASS
  1
ACDBPLACEHOLDER
  2
AcDbPlaceHolder
  3
AutoCAD 2000
 90
0
 91
1
280
0
281
0
  0
CLASS
  1
LAYOUT
  2
AcDbLayout
  3
AutoCAD 2000
 90
0
 91
0
280
0
281
0
  0
ENDSEC
  0
SECTION
  2
TABLES
  0
TABLE
  2
VPORT
  5
8
100
AcDbSymbolTable
 70
2
  0
VPORT
  5
1F4
100
AcDbSymbolTableRecord
100
AcDbViewportTableRecord
  2
*ACTIVE
 70
0
 10
0.0
 20
0.0
 11
1.0
 21
1.0
 12
148.949990097
 22
210.6578431373
 13
0.0
 23
0.0
 14
1.0
 24
1.0
 15
0.0
 25
0.0
 16
0.0
 26
0.0
 36
1.0
 17
0.0
 27
0.0
 37
0.0
 40
421.3156862745
 41
0.7070707071
 42
50.0
 43
0.0
 44
0.0
 50
0.0
 51
0.0
 71
0
 72
100
 73
1
 74
1
 75
0
 76
0
 77
0
 78
0
  0
ENDTAB
  0
TABLE
  2
LTYPE
  5
5
100
AcDbSymbolTable
 70
6
  0
LTYPE
  5
14
100
AcDbSymbolTableRecord
100
AcDbLinetypeTableRecord
  2
BYBLOCK
 70
0
  3

 72
65
 73
0
 40
0.0
  0
LTYPE
  5
15
100
AcDbSymbolTableRecord
100
AcDbLinetypeTableRecord
  2
BYLAYER
 70
0
  3

 72
65
 73
0
 40
0.0
  0
LTYPE
  5
16
100
AcDbSymbolTableRecord
100
AcDbLinetypeTableRecord
  2
CONTINUOUS
 70
64
  3
Solid line
 72
65
 73
0
 40
0.0
  0
LTYPE
  5
1F5
100
AcDbSymbolTableRecord
100
AcDbLinetypeTableRecord
  2
CENTER
 70
64
  3
____ _ ____ _ ____ _ ____ _ ____ _ ____ _ ____
 72
65
 73
4
 40
0.6
 49
0.375
 74
0
 49
-0.075
 74
0
 49
0.075
 74
0
 49
-0.075
 74
0
  0
LTYPE
  5
1F6
100
AcDbSymbolTableRecord
100
AcDbLinetypeTableRecord
  2
HIDDEN
 70
64
  3
- - - - - - - - - - - - - - - - - - - -
 72
65
 73
2
 40
0.2
 49
0.1
 74
0
 49
-0.1
 74
0
  0
LTYPE
  5
1F7
100
AcDbSymbolTableRecord
100
AcDbLinetypeTableRecord
  2
PHANTOM
 70
64
  3
_____ _ _ _____ _ _ _____ _ _ _____
 72
65
 73
6
 40
0.8
 49
0.45
 74
0
 49
-0.05
 74
0
 49
0.1
 74
0
 49
-0.05
 74
0
 49
0.1
 74
0
 49
-0.05
 74
0
  0
LTYPE
  5
1F8
100
AcDbSymbolTableRecord
100
AcDbLinetypeTableRecord
  2
DOT
 70
64
  3
. . . . . . . . . . . . . . . . . . . .
 72
65
 73
2
 40
0.2
 49
0.1
 74
0
 49
-0.1
 74
0
  0
LTYPE
  5
1F9
100
AcDbSymbolTableRecord
100
AcDbLinetypeTableRecord
  2
DASHED
 70
64
  3
- - - - - - - - - - - - - - - - - - - -
 72
65
 73
2
 40
0.2
 49
0.1
 74
0
 49
-0.1
 74
0
  0
ENDTAB
  0
TABLE
  2
LAYER
  5
2
100
AcDbSymbolTable
 70
36
  0
LAYER
  5
10
100
AcDbSymbolTableRecord
100
AcDbLayerTableRecord
  2
0
 70
0
 62
7
  6
CONTINUOUS
370
-3
390
F
  0
LAYER
  5
1FA
100
AcDbSymbolTableRecord
100
AcDbLayerTableRecord
  2
DEFAULT_1
 70
0
 62
7
  6
CENTER
370
-3
390
F
  0
LAYER
  5
1FB
100
AcDbSymbolTableRecord
100
AcDbLayerTableRecord
  2
DEFAULT_2
 70
0
 62
8
  6
HIDDEN
370
-3
390
F
  0
LAYER
  5
1FC
100
AcDbSymbolTableRecord
100
AcDbLayerTableRecord
  2
DEFAULT_3
 70
0
 62
7
  6
PHANTOM
370
-3
390
F
  0
LAYER
  5
1FD
100
AcDbSymbolTableRecord
100
AcDbLayerTableRecord
  2
00_COMPONENTS
 70
0
 62
7
  6
CONTINUOUS
370
-3
390
F
  0
LAYER
  5
1FE
100
AcDbSymbolTableRecord
100
AcDbLayerTableRecord
  2
01_1_DEFAULT_DATUMS
 70
0
 62
7
  6
CONTINUOUS
370
-3
390
F
  0
LAYER
  5
1FF
100
AcDbSymbolTableRecord
100
AcDbLayerTableRecord
  2
01_PLANES
 70
0
 62
7
  6
CONTINUOUS
370
-3
390
F
  0
LAYER
  5
200
100
AcDbSymbolTableRecord
100
AcDbLayerTableRecord
  2
02_COORD_SYS
 70
0
 62
7
  6
CONTINUOUS
370
-3
390
F
  0
LAYER
  5
201
100
AcDbSymbolTableRecord
100
AcDbLayerTableRecord
  2
03_AXES
 70
0
 62
7
  6
CONTINUOUS
370
-3
390
F
  0
LAYER
  5
202
100
AcDbSymbolTableRecord
100
AcDbLayerTableRecord
  2
04_POINTS
 70
0
 62
7
  6
CONTINUOUS
370
-3
390
F
  0
LAYER
  5
203
100
AcDbSymbolTableRecord
100
AcDbLayerTableRecord
  2
05_CURVES
 70
0
 62
7
  6
CONTINUOUS
370
-3
390
F
  0
LAYER
  5
204
100
AcDbSymbolTableRecord
100
AcDbLayerTableRecord
  2
06_SURFS
 70
0
 62
7
  6
CONTINUOUS
370
-3
390
F
  0
LAYER
  5
205
100
AcDbSymbolTableRecord
100
AcDbLayerTableRecord
  2
07_COSMETICS
 70
0
 62
7
  6
CONTINUOUS
370
-3
390
F
  0
LAYER
  5
206
100
AcDbSymbolTableRecord
100
AcDbLayerTableRecord
  2
10_NOTES
 70
0
 62
7
  6
CONTINUOUS
370
-3
390
F
  0
LAYER
  5
207
100
AcDbSymbolTableRecord
100
AcDbLayerTableRecord
  2
11_NOTES_PUB
 70
0
 62
7
  6
CONTINUOUS
370
-3
390
F
  0
LAYER
  5
208
100
AcDbSymbolTableRecord
100
AcDbLayerTableRecord
  2
13_REF_GTOL
 70
0
 62
7
  6
CONTINUOUS
370
-3
390
F
  0
LAYER
  5
209
100
AcDbSymbolTableRecord
100
AcDbLayerTableRecord
  2
16_MISC
 70
0
 62
7
  6
CONTINUOUS
370
-3
390
F
  0
LAYER
  5
20A
100
AcDbSymbolTableRecord
100
AcDbLayerTableRecord
  2
17_NO_PRINT
 70
0
 62
7
  6
CONTINUOUS
370
-3
390
F
  0
LAYER
  5
20B
100
AcDbSymbolTableRecord
100
AcDbLayerTableRecord
  2
18_DATUM_CAMS_JOINTS
 70
0
 62
7
  6
CONTINUOUS
370
-3
390
F
  0
LAYER
  5
20C
100
AcDbSymbolTableRecord
100
AcDbLayerTableRecord
  2
19_DATUM_FUNCTIONAL
 70
0
 62
7
  6
CONTINUOUS
370
-3
390
F
  0
LAYER
  5
20D
100
AcDbSymbolTableRecord
100
AcDbLayerTableRecord
  2
20_DATUM_KINEMATIC_SCHEME
 70
0
 62
7
  6
CONTINUOUS
370
-3
390
F
  0
LAYER
  5
20E
100
AcDbSymbolTableRecord
100
AcDbLayerTableRecord
  2
_1
 70
0
 62
7
  6
CONTINUOUS
370
-3
390
F
  0
ENDTAB
  0
TABLE
  2
STYLE
  5
3
100
AcDbSymbolTable
 70
1
  0
STYLE
  5
11
100
AcDbSymbolTableRecord
100
AcDbTextStyleTableRecord
  2
STANDARD
 70
0
 40
0.0
 41
0.8
 50
0.0
 71
0
 42
0.2
  3
txt
  4

  0
STYLE
  5
20F
100
AcDbSymbolTableRecord
100
AcDbTextStyleTableRecord
  2
TEXTSTYLE_1
 70
0
 40
0.0
 41
0.8
 50
0.0
 71
0
 42
0.2
  3
gdt
  4

  0
ENDTAB
  0
TABLE
  2
VIEW
  5
6
100
AcDbSymbolTable
 70
0
  0
ENDTAB
  0
TABLE
  2
UCS
  5
7
100
AcDbSymbolTable
 70
0
  0
ENDTAB
  0
TABLE
  2
APPID
  5
9
100
AcDbSymbolTable
 70
1
  0
APPID
  5
210
100
AcDbSymbolTableRecord
100
AcDbRegAppTableRecord
  2
ACAD
 70
0
  0
ENDTAB
  0
TABLE
  2
BLOCK_RECORD
  5
1
100
AcDbSymbolTable
 70
0
  0
BLOCK_RECORD
  5
211
100
AcDbSymbolTableRecord
100
AcDbBlockTableRecord
  2
*Model_Space
  0
BLOCK_RECORD
  5
212
100
AcDbSymbolTableRecord
100
AcDbBlockTableRecord
  2
*Paper_Space
  0
BLOCK_RECORD
  5
213
100
AcDbSymbolTableRecord
100
AcDbBlockTableRecord
  2
_FILLED
  0
ENDTAB
  0
TABLE
  2
DIMSTYLE
  5
A
100
AcDbSymbolTable
 70
1
100
AcDbDimStyleTable
 71
0
  0
DIMSTYLE
105
214
100
AcDbSymbolTableRecord
100
AcDbDimStyleTableRecord
  2
STANDARD
 70
0
  3

  4

 40
1.0
 41
3.5464283356
 42
1.0
 43
0.38
 44
1.0
 45
0.0
 46
0.0
 47
0.01
 48
0.01
140
4.9649996699
141
0.09
142
0.0
143
25.4
144
1.0
145
0.0
146
1.0
147
0.625
 71
1
 72
0
 73
0
 74
0
 75
0
 76
0
 77
1
 78
8
 79
2
170
0
171
1
172
0
173
0
174
0
175
0
176
0
177
0
178
0
270
2
179
2
271
2
272
2
273
2
274
2
275
0
280
0
281
0
282
0
283
1
284
8
285
0
286
0
287
3
288
0
340
11
278
46
341
213
342
213
343
213
344
213
  0
ENDTAB
  0
ENDSEC
  0
SECTION
  2
BLOCKS
  0
BLOCK
  5
20
100
AcDbEntity
  8
0
100
AcDbBlockBegin
  2
*Model_Space
 70
0
 10
0.0
 20
0.0
 30
0.0
  3
*Model_Space
  1

  0
ENDBLK
  5
21
100
AcDbEntity
  8
0
100
AcDbBlockEnd
  0
BLOCK
  5
1C
100
AcDbEntity
  8
0
100
AcDbBlockBegin
  2
*Paper_Space
 70
0
 10
0.0
 20
0.0
 30
0.0
  3
*Paper_Space
  1

  0
ENDBLK
  5
1D
100
AcDbEntity
  8
0
100
AcDbBlockEnd
  0
BLOCK
  5
215
100
AcDbEntity
  8
0
100
AcDbBlockBegin
  2
_FILLED
 70
64
 10
0.0
 20
0.0
  3
_FILLED
  1

  0
SOLID
  5
216
100
AcDbEntity
  8
0
  6
BYBLOCK
 62
0
100
AcDbTrace
 10
0.0
 20
0.0
 11
-1.0
 21
0.25
 12
-1.0
 22
-0.25
 13
-1.0
 23
-0.25
  0
ENDBLK
  5
217
100
AcDbEntity
  8
0
  6
BYBLOCK
 62
0
100
AcDbBlockEnd
  0
ENDSEC
  0
SECTION
  2
ENTITIES
  0
LINE
  5
218
100
AcDbEntity
  8
0
100
AcDbLine
 62
7
  6
CONTINUOUS
 10
239.1618915426
 20
86.2853146942
 11
239.4992729295
 21
86.3207749069
  0
LINE
  5
219
100
AcDbEntity
  8
0
100
AcDbLine
 62
7
  6
CONTINUOUS
 10
34.7254802931
 20
75.8235294118
 11
38.7254802931
 21
75.8235294118
  0
LINE
  5
21A
100
AcDbEntity
  8
0
100
AcDbLine
 62
7
  6
CONTINUOUS
 10
145.4361584118
 20
75.8235294118
 11
234.7254802931
 21
75.8235294118
  0
LINE
  5
21B
100
AcDbEntity
  8
0
100
AcDbLine
 62
7
  6
CONTINUOUS
 10
232.2254802931
 20
78.3235294118
 11
215.3504802931
 21
78.3235294118
  0
LINE
  5
21C
100
AcDbEntity
  8
0
100
AcDbLine
 62
7
  6
CONTINUOUS
 10
212.8504802931
 20
78.3235294118
 11
195.9754802931
 21
78.3235294118
  0
LINE
  5
21D
100
AcDbEntity
  8
0
100
AcDbLine
 62
7
  6
CONTINUOUS
 10
235.8254802931
 20
80.8235294118
 11
234.7254802931
 21
80.8235294118
  0
LINE
  5
21E
100
AcDbEntity
  8
0
100
AcDbLine
 62
7
  6
CONTINUOUS
 10
34.7254802931
 20
75.8235294118
 11
34.7254802931
 21
345.8224899116
  0
LINE
  5
21F
100
AcDbEntity
  8
0
100
AcDbLine
 62
7
  6
CONTINUOUS
 10
190.8254802931
 20
87.6735294118
 11
193.4754802931
 21
88.1407959106
  0
LINE
  5
220
100
AcDbEntity
  8
0
100
AcDbLine
 62
7
  6
CONTINUOUS
 10
235.8254802931
 20
81.0735294118
 11
238.0254802931
 21
81.0735294118
  0
LINE
  5
221
100
AcDbEntity
  8
0
100
AcDbLine
 62
7
  6
CONTINUOUS
 10
238.2527216291
 20
81.0999185048
 11
238.0254802931
 21
81.0999185048
  0
LINE
  5
222
100
AcDbEntity
  8
0
100
AcDbLine
 62
7
  6
CONTINUOUS
 10
193.2254802931
 20
82.9654883426
 11
193.4754802931
 21
82.9654883426
  0
LINE
  5
223
100
AcDbEntity
  8
0
100
AcDbLine
 62
7
  6
CONTINUOUS
 10
38.7254802931
 20
83.3235294118
 11
34.7254802931
 21
83.3235294118
  0
LINE
  5
224
100
AcDbEntity
  8
0
100
AcDbLine
 62
7
  6
CONTINUOUS
 10
69.7254802931
 20
87.8235294118
 11
71.7254802931
 21
87.8235294118
  0
LINE
  5
225
100
AcDbEntity
  8
0
100
AcDbLine
 62
7
  6
CONTINUOUS
 10
107.0754802931
 20
87.8235294118
 11
108.8754802931
 21
87.8235294118
  0
LINE
  5
226
100
AcDbEntity
  8
0
100
AcDbLine
 62
7
  6
CONTINUOUS
 10
34.7254802931
 20
88.3235294118
 11
38.7254802931
 21
88.3235294118
  0
LINE
  5
227
100
AcDbEntity
  8
0
100
AcDbLine
 62
7
  6
CONTINUOUS
 10
238.2527216291
 20
90.5471403187
 11
238.0254802931
 21
90.5471403187
  0
LINE
  5
228
100
AcDbEntity
  8
0
100
AcDbLine
 62
7
  6
CONTINUOUS
 10
235.8254802931
 20
90.5735294118
 11
238.0254802931
 21
90.5735294118
  0
LINE
  5
229
100
AcDbEntity
  8
0
100
AcDbLine
 62
7
  6
CONTINUOUS
 10
235.8254802931
 20
90.8235294118
 11
234.7254802931
 21
90.8235294118
  0
LINE
  5
22A
100
AcDbEntity
  8
0
100
AcDbLine
 62
7
  6
CONTINUOUS
 10
193.4754802931
 20
90.880630803
 11
193.2254802931
 21
90.880630803
  0
LINE
  5
22B
100
AcDbEntity
  8
0
100
AcDbLine
 62
7
  6
CONTINUOUS
 10
46.8653756876
 20
95.8235294118
 11
69.7254802931
 21
93.8235294118
  0
LINE
  5
22C
100
AcDbEntity
  8
0
100
AcDbLine
 62
7
  6
CONTINUOUS
 10
190.8254802931
 20
83.9735294118
 11
193.4754802931
 21
83.5062629129
  0
LINE
  5
22D
100
AcDbEntity
  8
0
100
AcDbLine
 62
7
  6
CONTINUOUS
 10
38.7254802931
 20
95.8235294118
 11
38.7254802931
 21
75.8235294118
  0
LINE
  5
22E
100
AcDbEntity
  8
0
100
AcDbLine
 62
7
  6
CONTINUOUS
 10
38.7254802931
 20
325.8235294118
 11
38.7254802931
 21
345.8224899116
  0
LINE
  5
22F
100
AcDbEntity
  8
0
100
AcDbLine
 62
7
  6
CONTINUOUS
 10
44.7254802931
 20
321.8235294118
 11
44.7254802931
 21
325.8235294118
  0
LINE
  5
230
100
AcDbEntity
  8
0
100
AcDbLine
 62
7
  6
CONTINUOUS
 10
45.4754802931
 20
321.8235294118
 11
45.4754802931
 21
325.8235294118
  0
LINE
  5
231
100
AcDbEntity
  8
0
100
AcDbLine
 62
7
  6
CONTINUOUS
 10
45.9754802931
 20
325.8235294118
 11
45.9754802931
 21
321.8235294118
  0
LINE
  5
232
100
AcDbEntity
  8
0
100
AcDbLine
 62
7
  6
CONTINUOUS
 10
46.7254802931
 20
321.8235294118
 11
46.7254802931
 21
325.8235294118
  0
LINE
  5
233
100
AcDbEntity
  8
0
100
AcDbLine
 62
7
  6
CONTINUOUS
 10
259.2618915426
 20
104.7853146942
 11
259.5992729295
 21
104.8207749069
  0
LINE
  5
234
100
AcDbEntity
  8
0
100
AcDbLine
 62
7
  6
CONTINUOUS
 10
71.7254802931
 20
93.8235294118
 11
94.5855848987
 21
95.8235294118
  0
LINE
  5
235
100
AcDbEntity
  8
0
100
AcDbLine
 62
7
  6
CONTINUOUS
 10
34.7254802931
 20
95.8235294118
 11
251.7250313788
 21
95.8235294118
  0
LINE
  5
236
100
AcDbEntity
  8
0
100
AcDbLine
 62
7
  6
CONTINUOUS
 10
253.7254802931
 20
98.8235294118
 11
251.7250313788
 21
98.8235294118
  0
LINE
  5
237
100
AcDbEntity
  8
0
100
AcDbLine
 62
7
  6
CONTINUOUS
 10
254.8254802931
 20
99.3235294118
 11
253.7254802931
 21
99.3235294118
  0
LINE
  5
238
100
AcDbEntity
  8
0
100
AcDbLine
 62
7
  6
CONTINUOUS
 10
255.9254802931
 20
99.5735294118
 11
258.1254802931
 21
99.5735294118
  0
LINE
  5
239
100
AcDbEntity
  8
0
100
AcDbLine
 62
7
  6
CONTINUOUS
 10
258.3527216291
 20
99.5999185048
 11
258.1254802931
 21
99.5999185048
  0
LINE
  5
23A
100
AcDbEntity
  8
0
100
AcDbLine
 62
7
  6
CONTINUOUS
 10
255.9254802931
 20
100.0735294118
 11
254.8254802931
 21
100.0735294118
  0
LINE
  5
23B
100
AcDbEntity
  8
0
100
AcDbLine
 62
7
  6
CONTINUOUS
 10
251.7250313788
 20
104.3235294118
 11
253.7254802931
 21
104.3235294118
  0
LINE
  5
23C
100
AcDbEntity
  8
0
100
AcDbLine
 62
7
  6
CONTINUOUS
 10
239.1618915426
 20
85.3617441293
 11
239.4992729295
 21
85.3262839167
  0
LINE
  5
23D
100
AcDbEntity
  8
0
100
AcDbLine
 62
7
  6
CONTINUOUS
 10
104.7254802931
 20
95.8235294118
 11
107.0754802931
 21
93.4735294118
  0
LINE
  5
23E
100
AcDbEntity
  8
0
100
AcDbLine
 62
7
  6
CONTINUOUS
 10
108.8754802931
 20
91.6735294118
 11
110.0808193525
 21
90.4681903524
  0
LINE
  5
23F
100
AcDbEntity
  8
0
100
AcDbLine
 62
7
  6
CONTINUOUS
 10
48.7254802931
 20
321.8235294118
 11
48.7254802931
 21
325.8235294118
  0
LINE
  5
240
100
AcDbEntity
  8
0
100
AcDbLine
 62
7
  6
CONTINUOUS
 10
49.4754802931
 20
321.8235294118
 11
49.4754802931
 21
325.8235294118
  0
LINE
  5
241
100
AcDbEntity
  8
0
100
AcDbLine
 62
7
  6
CONTINUOUS
 10
49.9754802931
 20
325.8235294118
 11
49.9754802931
 21
321.8235294118
  0
LINE
  5
242
100
AcDbEntity
  8
0
100
AcDbLine
 62
7
  6
CONTINUOUS
 10
50.7254802931
 20
321.8235294118
 11
50.7254802931
 21
325.8235294118
  0
LINE
  5
243
100
AcDbEntity
  8
0
100
AcDbLine
 62
7
  6
CONTINUOUS
 10
52.7254802931
 20
321.8235294118
 11
52.7254802931
 21
325.8235294118
  0
LINE
  5
244
100
AcDbEntity
  8
0
100
AcDbLine
 62
7
  6
CONTINUOUS
 10
53.4754802931
 20
321.8235294118
 11
53.4754802931
 21
325.8235294118
  0
LINE
  5
245
100
AcDbEntity
  8
0
100
AcDbLine
 62
7
  6
CONTINUOUS
 10
53.9754802931
 20
325.8235294118
 11
53.9754802931
 21
321.8235294118
  0
LINE
  5
246
100
AcDbEntity
  8
0
100
AcDbLine
 62
7
  6
CONTINUOUS
 10
54.7254802931
 20
321.8235294118
 11
54.7254802931
 21
325.8235294118
  0
LINE
  5
247
100
AcDbEntity
  8
0
100
AcDbLine
 62
7
  6
CONTINUOUS
 10
56.7254802931
 20
321.8235294118
 11
56.7254802931
 21
325.8235294118
  0
LINE
  5
248
100
AcDbEntity
  8
0
100
AcDbLine
 62
7
  6
CONTINUOUS
 10
57.4754802931
 20
321.8235294118
 11
57.4754802931
 21
325.8235294118
  0
LINE
  5
249
100
AcDbEntity
  8
0
100
AcDbLine
 62
7
  6
CONTINUOUS
 10
57.9754802931
 20
325.8235294118
 11
57.9754802931
 21
321.8235294118
  0
LINE
  5
24A
100
AcDbEntity
  8
0
100
AcDbLine
 62
7
  6
CONTINUOUS
 10
58.7254802931
 20
321.8235294118
 11
58.7254802931
 21
325.8235294118
  0
LINE
  5
24B
100
AcDbEntity
  8
0
100
AcDbLine
 62
7
  6
CONTINUOUS
 10
251.2526151586
 20
105.8235294118
 11
251.7250313788
 21
105.8235294118
  0
LINE
  5
24C
100
AcDbEntity
  8
0
100
AcDbLine
 62
7
  6
CONTINUOUS
 10
270.4254802931
 20
106.9435294118
 11
251.7254802931
 21
106.9435294118
  0
LINE
  5
24D
100
AcDbEntity
  8
0
100
AcDbLine
 62
7
  6
CONTINUOUS
 10
267.0460709007
 20
107.9935294118
 11
261.7254802931
 21
107.9935294118
  0
LINE
  5
24E
100
AcDbEntity
  8
0
100
AcDbLine
 62
7
  6
CONTINUOUS
 10
251.2526151586
 20
109.7435294118
 11
259.2254802931
 21
109.7435294118
  0
LINE
  5
24F
100
AcDbEntity
  8
0
100
AcDbLine
 62
7
  6
CONTINUOUS
 10
253.7254802931
 20
109.8235294118
 11
251.7078805384
 21
109.8235294118
  0
LINE
  5
250
100
AcDbEntity
  8
0
100
AcDbLine
 62
7
  6
CONTINUOUS
 10
271.4254802931
 20
111.3935294118
 11
251.2526151586
 21
111.3935294118
  0
LINE
  5
251
100
AcDbEntity
  8
0
100
AcDbLine
 62
7
  6
CONTINUOUS
 10
259.2618915426
 20
103.8617441293
 11
259.5992729295
 21
103.8262839167
  0
LINE
  5
252
100
AcDbEntity
  8
0
100
AcDbLine
 62
7
  6
CONTINUOUS
 10
60.7254802931
 20
321.8235294118
 11
60.7254802931
 21
325.8235294118
  0
LINE
  5
253
100
AcDbEntity
  8
0
100
AcDbLine
 62
7
  6
CONTINUOUS
 10
61.4754802931
 20
321.8235294118
 11
61.4754802931
 21
325.8235294118
  0
LINE
  5
254
100
AcDbEntity
  8
0
100
AcDbLine
 62
7
  6
CONTINUOUS
 10
61.9754802931
 20
325.8235294118
 11
61.9754802931
 21
321.8235294118
  0
LINE
  5
255
100
AcDbEntity
  8
0
100
AcDbLine
 62
7
  6
CONTINUOUS
 10
62.7254802931
 20
321.8235294118
 11
62.7254802931
 21
325.8235294118
  0
LINE
  5
256
100
AcDbEntity
  8
0
100
AcDbLine
 62
7
  6
CONTINUOUS
 10
64.7254802931
 20
321.8235294118
 11
64.7254802931
 21
325.8235294118
  0
LINE
  5
257
100
AcDbEntity
  8
0
100
AcDbLine
 62
7
  6
CONTINUOUS
 10
65.4754802931
 20
321.8235294118
 11
65.4754802931
 21
325.8235294118
  0
LINE
  5
258
100
AcDbEntity
  8
0
100
AcDbLine
 62
7
  6
CONTINUOUS
 10
65.9754802931
 20
325.8235294118
 11
65.9754802931
 21
321.8235294118
  0
LINE
  5
259
100
AcDbEntity
  8
0
100
AcDbLine
 62
7
  6
CONTINUOUS
 10
66.7254802931
 20
321.8235294118
 11
66.7254802931
 21
325.8235294118
  0
LINE
  5
25A
100
AcDbEntity
  8
0
100
AcDbLine
 62
7
  6
CONTINUOUS
 10
68.7254802931
 20
321.8235294118
 11
68.7254802931
 21
325.8235294118
  0
LINE
  5
25B
100
AcDbEntity
  8
0
100
AcDbLine
 62
7
  6
CONTINUOUS
 10
69.4754802931
 20
323.8235294118
 11
69.4754802931
 21
325.8235294118
  0
LINE
  5
25C
100
AcDbEntity
  8
0
100
AcDbLine
 62
7
  6
CONTINUOUS
 10
69.7254802931
 20
95.8235294118
 11
69.7254802931
 21
87.8235294118
  0
LINE
  5
25D
100
AcDbEntity
  8
0
100
AcDbLine
 62
7
  6
CONTINUOUS
 10
69.9754802931
 20
325.8235294118
 11
69.9754802931
 21
323.8235294118
  0
LINE
  5
25E
100
AcDbEntity
  8
0
100
AcDbLine
 62
7
  6
CONTINUOUS
 10
70.7254802931
 20
321.8235294118
 11
70.7254802931
 21
325.8235294118
  0
LINE
  5
25F
100
AcDbEntity
  8
0
100
AcDbLine
 62
7
  6
CONTINUOUS
 10
251.7254802931
 20
146.3435294118
 11
251.2526151586
 21
146.2489563849
  0
LINE
  5
260
100
AcDbEntity
  8
_1
100
AcDbLine
 62
7
  6
CONTINUOUS
 10
262.3754802931
 20
143.4835294118
 11
253.3581422
 21
141.8935294118
  0
LINE
  5
261
100
AcDbEntity
  8
0
100
AcDbLine
 62
7
  6
CONTINUOUS
 10
251.7254802931
 20
106.9435294118
 11
251.2526151586
 21
107.0381024387
  0
LINE
  5
262
100
AcDbEntity
  8
0
100
AcDbLine
 62
7
  6
CONTINUOUS
 10
71.7254802931
 20
95.8235294118
 11
71.7254802931
 21
87.8235294118
  0
LINE
  5
263
100
AcDbEntity
  8
0
100
AcDbLine
 62
7
  6
CONTINUOUS
 10
72.7254802931
 20
321.8235294118
 11
72.7254802931
 21
325.8235294118
  0
LINE
  5
264
100
AcDbEntity
  8
0
100
AcDbLine
 62
7
  6
CONTINUOUS
 10
73.4754802931
 20
323.8235294118
 11
73.4754802931
 21
325.8235294118
  0
LINE
  5
265
100
AcDbEntity
  8
0
100
AcDbLine
 62
7
  6
CONTINUOUS
 10
73.9754802931
 20
325.8235294118
 11
73.9754802931
 21
323.8235294118
  0
LINE
  5
266
100
AcDbEntity
  8
0
100
AcDbLine
 62
7
  6
CONTINUOUS
 10
74.7254802931
 20
321.8235294118
 11
74.7254802931
 21
325.8235294118
  0
LINE
  5
267
100
AcDbEntity
  8
0
100
AcDbLine
 62
7
  6
CONTINUOUS
 10
76.7254802931
 20
321.8235294118
 11
76.7254802931
 21
325.8235294118
  0
LINE
  5
268
100
AcDbEntity
  8
0
100
AcDbLine
 62
7
  6
CONTINUOUS
 10
77.4754802931
 20
321.8235294118
 11
77.4754802931
 21
325.8235294118
  0
LINE
  5
269
100
AcDbEntity
  8
0
100
AcDbLine
 62
7
  6
CONTINUOUS
 10
77.9754802931
 20
325.8235294118
 11
77.9754802931
 21
321.8235294118
  0
LINE
  5
26A
100
AcDbEntity
  8
0
100
AcDbLine
 62
7
  6
CONTINUOUS
 10
78.7254802931
 20
321.8235294118
 11
78.7254802931
 21
325.8235294118
  0
LINE
  5
26B
100
AcDbEntity
  8
0
100
AcDbLine
 62
7
  6
CONTINUOUS
 10
80.7254802931
 20
321.8235294118
 11
80.7254802931
 21
325.8235294118
  0
LINE
  5
26C
100
AcDbEntity
  8
0
100
AcDbLine
 62
7
  6
CONTINUOUS
 10
81.4754802931
 20
321.8235294118
 11
81.4754802931
 21
325.8235294118
  0
LINE
  5
26D
100
AcDbEntity
  8
0
100
AcDbLine
 62
7
  6
CONTINUOUS
 10
81.9754802931
 20
325.8235294118
 11
81.9754802931
 21
321.8235294118
  0
LINE
  5
26E
100
AcDbEntity
  8
0
100
AcDbLine
 62
7
  6
CONTINUOUS
 10
82.7254802931
 20
321.8235294118
 11
82.7254802931
 21
325.8235294118
  0
LINE
  5
26F
100
AcDbEntity
  8
0
100
AcDbLine
 62
7
  6
CONTINUOUS
 10
84.7254802931
 20
321.8235294118
 11
84.7254802931
 21
325.8235294118
  0
LINE
  5
270
100
AcDbEntity
  8
0
100
AcDbLine
 62
7
  6
CONTINUOUS
 10
85.4754802931
 20
321.8235294118
 11
85.4754802931
 21
325.8235294118
  0
LINE
  5
271
100
AcDbEntity
  8
0
100
AcDbLine
 62
7
  6
CONTINUOUS
 10
85.9754802931
 20
325.8235294118
 11
85.9754802931
 21
321.8235294118
  0
LINE
  5
272
100
AcDbEntity
  8
0
100
AcDbLine
 62
7
  6
CONTINUOUS
 10
86.7254802931
 20
321.8235294118
 11
86.7254802931
 21
325.8235294118
  0
LINE
  5
273
100
AcDbEntity
  8
0
100
AcDbLine
 62
7
  6
CONTINUOUS
 10
88.7254802931
 20
321.8235294118
 11
88.7254802931
 21
325.8235294118
  0
LINE
  5
274
100
AcDbEntity
  8
0
100
AcDbLine
 62
7
  6
CONTINUOUS
 10
89.4754802931
 20
321.8235294118
 11
89.4754802931
 21
325.8235294118
  0
LINE
  5
275
100
AcDbEntity
  8
0
100
AcDbLine
 62
7
  6
CONTINUOUS
 10
89.9754802931
 20
325.8235294118
 11
89.9754802931
 21
321.8235294118
  0
LINE
  5
276
100
AcDbEntity
  8
0
100
AcDbLine
 62
7
  6
CONTINUOUS
 10
90.7254802931
 20
321.8235294118
 11
90.7254802931
 21
325.8235294118
  0
LINE
  5
277
100
AcDbEntity
  8
0
100
AcDbLine
 62
7
  6
CONTINUOUS
 10
92.7254802931
 20
321.8235294118
 11
92.7254802931
 21
325.8235294118
  0
LINE
  5
278
100
AcDbEntity
  8
0
100
AcDbLine
 62
7
  6
CONTINUOUS
 10
93.4754802931
 20
321.8235294118
 11
93.4754802931
 21
325.8235294118
  0
LINE
  5
279
100
AcDbEntity
  8
0
100
AcDbLine
 62
7
  6
CONTINUOUS
 10
93.9754802931
 20
325.8235294118
 11
93.9754802931
 21
321.8235294118
  0
LINE
  5
27A
100
AcDbEntity
  8
0
100
AcDbLine
 62
7
  6
CONTINUOUS
 10
94.7254802931
 20
321.8235294118
 11
94.7254802931
 21
325.8235294118
  0
LINE
  5
27B
100
AcDbEntity
  8
_1
100
AcDbLine
 62
7
  6
CONTINUOUS
 10
155.5554802931
 20
336.8235294118
 11
153.8054802931
 21
334.3235294118
  0
LINE
  5
27C
100
AcDbEntity
  8
0
100
AcDbLine
 62
7
  6
CONTINUOUS
 10
271.4254802931
 20
141.8935294118
 11
251.2526151586
 21
141.8935294118
  0
LINE
  5
27D
100
AcDbEntity
  8
0
100
AcDbLine
 62
7
  6
CONTINUOUS
 10
251.2526151586
 20
143.5435294118
 11
259.2254802931
 21
143.5435294118
  0
LINE
  5
27E
100
AcDbEntity
  8
0
100
AcDbLine
 62
7
  6
CONTINUOUS
 10
267.0460709007
 20
145.2935294118
 11
261.7254802931
 21
145.2935294118
  0
LINE
  5
27F
100
AcDbEntity
  8
0
100
AcDbLine
 62
7
  6
CONTINUOUS
 10
251.7254802931
 20
146.3435294118
 11
270.4254802931
 21
146.3435294118
  0
LINE
  5
280
100
AcDbEntity
  8
0
100
AcDbLine
 62
7
  6
CONTINUOUS
 10
251.7250313788
 20
147.8235294118
 11
251.2526151586
 21
147.8235294118
  0
LINE
  5
281
100
AcDbEntity
  8
0
100
AcDbLine
 62
7
  6
CONTINUOUS
 10
96.7254802931
 20
321.8235294118
 11
96.7254802931
 21
325.8235294118
  0
LINE
  5
282
100
AcDbEntity
  8
0
100
AcDbLine
 62
7
  6
CONTINUOUS
 10
97.4754802931
 20
321.8235294118
 11
97.4754802931
 21
325.8235294118
  0
LINE
  5
283
100
AcDbEntity
  8
0
100
AcDbLine
 62
7
  6
CONTINUOUS
 10
97.9754802931
 20
325.8235294118
 11
97.9754802931
 21
321.8235294118
  0
LINE
  5
284
100
AcDbEntity
  8
0
100
AcDbLine
 62
7
  6
CONTINUOUS
 10
98.7254802931
 20
321.8235294118
 11
98.7254802931
 21
325.8235294118
  0
LINE
  5
285
100
AcDbEntity
  8
_1
100
AcDbLine
 62
7
  6
CONTINUOUS
 10
155.5554802931
 20
345.5235294118
 11
152.1554802931
 21
338.232205882
  0
LINE
  5
286
100
AcDbEntity
  8
_1
100
AcDbLine
 62
7
  6
CONTINUOUS
 10
152.1554802931
 20
335.9804736155
 11
155.0789033464
 21
342.2497745847
  0
LINE
  5
287
100
AcDbEntity
  8
0
100
AcDbLine
 62
7
  6
CONTINUOUS
 10
251.5061444889
 20
154.3735294118
 11
251.7218813505
 21
154.3735294118
  0
LINE
  5
288
100
AcDbEntity
  8
0
100
AcDbLine
 62
7
  6
CONTINUOUS
 10
251.725024236
 20
155.3735294118
 11
251.4532131355
 21
155.3735294118
  0
LINE
  5
289
100
AcDbEntity
  8
0
100
AcDbLine
 62
7
  6
CONTINUOUS
 10
107.0754802931
 20
95.8235294118
 11
107.0754802931
 21
87.8235294118
  0
LINE
  5
28A
100
AcDbEntity
  8
0
100
AcDbLine
 62
7
  6
CONTINUOUS
 10
108.8754802931
 20
87.8235294118
 11
108.8754802931
 21
95.8235294118
  0
LINE
  5
28B
100
AcDbEntity
  8
0
100
AcDbLine
 62
7
  6
CONTINUOUS
 10
109.2254802931
 20
343.2780592031
 11
109.2254802931
 21
325.8235294118
  0
LINE
  5
28C
100
AcDbEntity
  8
_1
100
AcDbLine
 62
7
  6
CONTINUOUS
 10
117.2054802931
 20
326.8235294118
 11
117.2054802931
 21
345.5235294118
  0
LINE
  5
28D
100
AcDbEntity
  8
_1
100
AcDbLine
 62
7
  6
CONTINUOUS
 10
118.2554802931
 20
342.1441200193
 11
118.2554802931
 21
336.8235294118
  0
LINE
  5
28E
100
AcDbEntity
  8
0
100
AcDbLine
 62
7
  6
CONTINUOUS
 10
251.4532131355
 20
172.2735294118
 11
251.725024236
 21
172.2735294118
  0
LINE
  5
28F
100
AcDbEntity
  8
0
100
AcDbLine
 62
7
  6
CONTINUOUS
 10
251.7218813505
 20
173.2735294118
 11
251.5061444889
 21
173.2735294118
  0
LINE
  5
290
100
AcDbEntity
  8
0
100
AcDbLine
 62
7
  6
CONTINUOUS
 10
260.8824244969
 20
111.3935294118
 11
267.1517254661
 21
108.4701063585
  0
LINE
  5
291
100
AcDbEntity
  8
0
100
AcDbLine
 62
7
  6
CONTINUOUS
 10
270.4254802931
 20
107.9935294118
 11
263.1341567634
 21
111.3935294118
  0
LINE
  5
292
100
AcDbEntity
  8
_1
100
AcDbLine
 62
7
  6
CONTINUOUS
 10
120.0054802931
 20
325.8235294118
 11
120.0054802931
 21
334.3235294118
  0
LINE
  5
293
100
AcDbEntity
  8
_1
100
AcDbLine
 62
7
  6
CONTINUOUS
 10
121.6554802931
 20
346.5235294118
 11
121.6554802931
 21
325.8235294118
  0
LINE
  5
294
100
AcDbEntity
  8
_1
100
AcDbLine
 62
7
  6
CONTINUOUS
 10
260.7147685113
 20
318.6566332489
 11
256.3212001251
 21
315.5802235453
  0
LINE
  5
295
100
AcDbEntity
  8
_1
100
AcDbLine
 62
7
  6
CONTINUOUS
 10
257.3672682025
 20
315.5802235453
 11
261.5279802931
 21
318.4935855154
  0
LINE
  5
296
100
AcDbEntity
  8
0
100
AcDbLine
 62
7
  6
CONTINUOUS
 10
251.1954658405
 20
178.7235294118
 11
251.6299004077
 21
178.7235294118
  0
LINE
  5
297
100
AcDbEntity
  8
_1
100
AcDbLine
 62
7
  6
CONTINUOUS
 10
156.6054802931
 20
326.8235294118
 11
156.4054802931
 21
325.8235294118
  0
LINE
  5
298
100
AcDbEntity
  8
_1
100
AcDbLine
 62
7
  6
CONTINUOUS
 10
232.389597244
 20
344.6215294118
 11
228.1454802931
 21
338.560302248
  0
LINE
  5
299
100
AcDbEntity
  8
_1
100
AcDbLine
 62
7
  6
CONTINUOUS
 10
228.1454802931
 20
337.3398894911
 11
232.1845771596
 21
343.1083176299
  0
LINE
  5
29A
100
AcDbEntity
  8
0
100
AcDbLine
 62
7
  6
CONTINUOUS
 10
261.7254802931
 20
107.9935294118
 11
259.2254802931
 21
109.7435294118
  0
LINE
  5
29B
100
AcDbEntity
  8
_1
100
AcDbLine
 62
7
  6
CONTINUOUS
 10
117.2054802931
 20
326.8235294118
 11
117.4054802931
 21
325.8235294118
  0
LINE
  5
29C
100
AcDbEntity
  8
_1
100
AcDbLine
 62
7
  6
CONTINUOUS
 10
152.1554802931
 20
346.5235294118
 11
152.1554802931
 21
325.8235294118
  0
LINE
  5
29D
100
AcDbEntity
  8
_1
100
AcDbLine
 62
7
  6
CONTINUOUS
 10
153.8054802931
 20
325.8235294118
 11
153.8054802931
 21
334.3235294118
  0
LINE
  5
29E
100
AcDbEntity
  8
_1
100
AcDbLine
 62
7
  6
CONTINUOUS
 10
155.5554802931
 20
342.1441200193
 11
155.5554802931
 21
336.8235294118
  0
LINE
  5
29F
100
AcDbEntity
  8
_1
100
AcDbLine
 62
7
  6
CONTINUOUS
 10
156.6054802931
 20
345.5235294118
 11
156.6054802931
 21
326.8235294118
  0
LINE
  5
2A0
100
AcDbEntity
  8
0
100
AcDbLine
 62
7
  6
CONTINUOUS
 10
158.5554802931
 20
326.2990656103
 11
158.5554802931
 21
325.8235294118
  0
LINE
  5
2A1
100
AcDbEntity
  8
0
100
AcDbLine
 62
7
  6
CONTINUOUS
 10
160.7254802931
 20
321.8235294118
 11
160.7254802931
 21
326.7247377211
  0
LINE
  5
2A2
100
AcDbEntity
  8
0
100
AcDbLine
 62
7
  6
CONTINUOUS
 10
161.4754802931
 20
322.8235294118
 11
161.4754802931
 21
326.8541579154
  0
LINE
  5
2A3
100
AcDbEntity
  8
0
100
AcDbLine
 62
7
  6
CONTINUOUS
 10
161.9754802931
 20
326.9256779488
 11
161.9754802931
 21
322.8235294118
  0
LINE
  5
2A4
100
AcDbEntity
  8
0
100
AcDbLine
 62
7
  6
CONTINUOUS
 10
162.7254802931
 20
321.8235294118
 11
162.7254802931
 21
327.0136593441
  0
LINE
  5
2A5
100
AcDbEntity
  8
0
100
AcDbLine
 62
7
  6
CONTINUOUS
 10
164.7254802931
 20
321.8235294118
 11
164.7254802931
 21
327.1937245956
  0
LINE
  5
2A6
100
AcDbEntity
  8
0
100
AcDbLine
 62
7
  6
CONTINUOUS
 10
165.4754802931
 20
322.8235294118
 11
165.4754802931
 21
327.2363164429
  0
LINE
  5
2A7
100
AcDbEntity
  8
0
100
AcDbLine
 62
7
  6
CONTINUOUS
 10
165.9754802931
 20
327.2585279744
 11
165.9754802931
 21
322.8235294118
  0
LINE
  5
2A8
100
AcDbEntity
  8
0
100
AcDbLine
 62
7
  6
CONTINUOUS
 10
166.7254802931
 20
321.8235294118
 11
166.7254802931
 21
327.288828293
  0
LINE
  5
2A9
100
AcDbEntity
  8
0
100
AcDbLine
 62
7
  6
CONTINUOUS
 10
168.7254802931
 20
321.8235294118
 11
168.7254802931
 21
327.3752224769
  0
LINE
  5
2AA
100
AcDbEntity
  8
0
100
AcDbLine
 62
7
  6
CONTINUOUS
 10
169.4754802931
 20
322.8235294118
 11
169.4754802931
 21
327.4096947855
  0
LINE
  5
2AB
100
AcDbEntity
  8
0
100
AcDbLine
 62
7
  6
CONTINUOUS
 10
169.9754802931
 20
327.4306724386
 11
169.9754802931
 21
322.8235294118
  0
LINE
  5
2AC
100
AcDbEntity
  8
0
100
AcDbLine
 62
7
  6
CONTINUOUS
 10
170.7254802931
 20
321.8235294118
 11
170.7254802931
 21
327.4591456754
  0
LINE
  5
2AD
100
AcDbEntity
  8
0
100
AcDbLine
 62
7
  6
CONTINUOUS
 10
172.7254802931
 20
321.8235294118
 11
172.7254802931
 21
327.5405911752
  0
LINE
  5
2AE
100
AcDbEntity
  8
0
100
AcDbLine
 62
7
  6
CONTINUOUS
 10
173.4754802931
 20
322.8235294118
 11
173.4754802931
 21
327.5731781225
  0
LINE
  5
2AF
100
AcDbEntity
  8
0
100
AcDbLine
 62
7
  6
CONTINUOUS
 10
173.9754802931
 20
327.5929152017
 11
173.9754802931
 21
322.8235294118
  0
LINE
  5
2B0
100
AcDbEntity
  8
0
100
AcDbLine
 62
7
  6
CONTINUOUS
 10
174.7254802931
 20
321.8235294118
 11
174.7254802931
 21
327.6195526764
  0
LINE
  5
2B1
100
AcDbEntity
  8
0
100
AcDbLine
 62
7
  6
CONTINUOUS
 10
176.7254802931
 20
321.8235294118
 11
176.7254802931
 21
327.6960242963
  0
LINE
  5
2B2
100
AcDbEntity
  8
0
100
AcDbLine
 62
7
  6
CONTINUOUS
 10
177.4754802931
 20
322.8235294118
 11
177.4754802931
 21
327.7267158142
  0
LINE
  5
2B3
100
AcDbEntity
  8
0
100
AcDbLine
 62
7
  6
CONTINUOUS
 10
177.9754802931
 20
327.7452064631
 11
177.9754802931
 21
322.8235294118
  0
LINE
  5
2B4
100
AcDbEntity
  8
_1
100
AcDbLine
 62
7
  6
CONTINUOUS
 10
118.7320572399
 20
342.2497745847
 11
121.6554802931
 21
335.9804736155
  0
LINE
  5
2B5
100
AcDbEntity
  8
_1
100
AcDbLine
 62
7
  6
CONTINUOUS
 10
121.6554802931
 20
338.232205882
 11
118.2554802931
 21
345.5235294118
  0
LINE
  5
2B6
100
AcDbEntity
  8
0
100
AcDbLine
 62
7
  6
CONTINUOUS
 10
178.7254802931
 20
321.8235294118
 11
178.7254802931
 21
327.7700005732
  0
LINE
  5
2B7
100
AcDbEntity
  8
0
100
AcDbLine
 62
7
  6
CONTINUOUS
 10
180.7254802931
 20
321.8235294118
 11
180.7254802931
 21
327.8414764694
  0
LINE
  5
2B8
100
AcDbEntity
  8
0
100
AcDbLine
 62
7
  6
CONTINUOUS
 10
181.4754802931
 20
322.8235294118
 11
181.4754802931
 21
327.870263998
  0
LINE
  5
2B9
100
AcDbEntity
  8
0
100
AcDbLine
 62
7
  6
CONTINUOUS
 10
181.9754802931
 20
327.8875032173
 11
181.9754802931
 21
322.8235294118
  0
LINE
  5
2BA
100
AcDbEntity
  8
0
100
AcDbLine
 62
7
  6
CONTINUOUS
 10
182.7254802931
 20
321.8235294118
 11
182.7254802931
 21
327.9104473739
  0
LINE
  5
2BB
100
AcDbEntity
  8
0
100
AcDbLine
 62
7
  6
CONTINUOUS
 10
184.7254802931
 20
321.8235294118
 11
184.7254802931
 21
327.9769091041
  0
LINE
  5
2BC
100
AcDbEntity
  8
0
100
AcDbLine
 62
7
  6
CONTINUOUS
 10
185.4754802931
 20
322.8235294118
 11
185.4754802931
 21
328.0037857227
  0
LINE
  5
2BD
100
AcDbEntity
  8
0
100
AcDbLine
 62
7
  6
CONTINUOUS
 10
185.9754802931
 20
328.0197693852
 11
185.9754802931
 21
322.8235294118
  0
LINE
  5
2BE
100
AcDbEntity
  8
0
100
AcDbLine
 62
7
  6
CONTINUOUS
 10
186.7254802931
 20
321.8235294118
 11
186.7254802931
 21
328.0408579074
  0
LINE
  5
2BF
100
AcDbEntity
  8
0
100
AcDbLine
 62
7
  6
CONTINUOUS
 10
188.7254802931
 20
321.8235294118
 11
188.7254802931
 21
328.1022904619
  0
LINE
  5
2C0
100
AcDbEntity
  8
0
100
AcDbLine
 62
7
  6
CONTINUOUS
 10
189.4754802931
 20
322.8235294118
 11
189.4754802931
 21
328.1272510614
  0
LINE
  5
2C1
100
AcDbEntity
  8
0
100
AcDbLine
 62
7
  6
CONTINUOUS
 10
189.9754802931
 20
328.141975925
 11
189.9754802931
 21
322.8235294118
  0
LINE
  5
2C2
100
AcDbEntity
  8
0
100
AcDbLine
 62
7
  6
CONTINUOUS
 10
252.2686165924
 20
241.9029405556
 11
251.6947967999
 21
241.8895342499
  0
LINE
  5
2C3
100
AcDbEntity
  8
0
100
AcDbLine
 62
7
  6
CONTINUOUS
 10
252.2719063949
 20
238.7740159386
 11
251.707265608
 21
238.7640939425
  0
LINE
  5
2C4
100
AcDbEntity
  8
0
100
AcDbLine
 62
7
  6
CONTINUOUS
 10
252.3462966383
 20
249.5922205806
 11
251.9896524737
 21
249.5859953335
  0
LINE
  5
2C5
100
AcDbEntity
  8
0
100
AcDbLine
 62
7
  6
CONTINUOUS
 10
251.7072656387
 20
249.7091509186
 11
252.2719063979
 21
249.717943681
  0
LINE
  5
2C6
100
AcDbEntity
  8
0
100
AcDbLine
 62
7
  6
CONTINUOUS
 10
252.2719062949
 20
242.0850038856
 11
251.707265637
 21
242.0842055453
  0
LINE
  5
2C7
100
AcDbEntity
  8
0
100
AcDbLine
 62
7
  6
CONTINUOUS
 10
252.4038884507
 20
243.270723789
 11
252.3381248099
 21
243.2718794109
  0
LINE
  5
2C8
100
AcDbEntity
  8
0
100
AcDbLine
 62
7
  6
CONTINUOUS
 10
252.406632282
 20
243.3967052897
 11
252.3433353727
 21
243.398113503
  0
LINE
  5
2C9
100
AcDbEntity
  8
0
100
AcDbLine
 62
7
  6
CONTINUOUS
 10
252.406632282
 20
243.3967052897
 11
252.3433355257
 21
243.3981203616
  0
LINE
  5
2CA
100
AcDbEntity
  8
0
100
AcDbLine
 62
7
  6
CONTINUOUS
 10
252.4058347394
 20
245.2958326384
 11
252.2141808395
 21
245.3003108447
  0
LINE
  5
2CB
100
AcDbEntity
  8
0
100
AcDbLine
 62
7
  6
CONTINUOUS
 10
252.4038884507
 20
245.2632027838
 11
252.2068714486
 21
245.2678207972
  0
LINE
  5
2CC
100
AcDbEntity
  8
0
100
AcDbLine
 62
7
  6
CONTINUOUS
 10
190.7254802931
 20
321.8235294118
 11
190.7254802931
 21
328.1612038759
  0
LINE
  5
2CD
100
AcDbEntity
  8
0
100
AcDbLine
 62
7
  6
CONTINUOUS
 10
190.8254802931
 20
83.9735802948
 11
190.8254802931
 21
87.6734785287
  0
LINE
  5
2CE
100
AcDbEntity
  8
0
100
AcDbLine
 62
7
  6
CONTINUOUS
 10
192.7254802931
 20
321.8235294118
 11
192.7254802931
 21
328.2175956872
  0
LINE
  5
2CF
100
AcDbEntity
  8
0
100
AcDbLine
 62
7
  6
CONTINUOUS
 10
193.2254802931
 20
82.9654883426
 11
193.2254802931
 21
83.5503446581
  0
LINE
  5
2D0
100
AcDbEntity
  8
0
100
AcDbLine
 62
7
  6
CONTINUOUS
 10
193.2254802931
 20
88.0967141655
 11
193.2254802931
 21
90.880630803
  0
LINE
  5
2D1
100
AcDbEntity
  8
0
100
AcDbLine
 62
7
  6
CONTINUOUS
 10
193.4754802931
 20
95.8235294118
 11
193.4754802931
 21
75.8235294118
  0
LINE
  5
2D2
100
AcDbEntity
  8
0
100
AcDbLine
 62
7
  6
CONTINUOUS
 10
193.4754802931
 20
322.8235294118
 11
193.4754802931
 21
328.2406372041
  0
LINE
  5
2D3
100
AcDbEntity
  8
0
100
AcDbLine
 62
7
  6
CONTINUOUS
 10
193.9754802931
 20
328.2541009217
 11
193.9754802931
 21
322.8235294118
  0
LINE
  5
2D4
100
AcDbEntity
  8
0
100
AcDbLine
 62
7
  6
CONTINUOUS
 10
194.7254802931
 20
321.8235294118
 11
194.7254802931
 21
328.2714638603
  0
LINE
  5
2D5
100
AcDbEntity
  8
0
100
AcDbLine
 62
7
  6
CONTINUOUS
 10
195.9754802931
 20
78.3235294118
 11
195.9754802931
 21
95.8235294118
  0
LINE
  5
2D6
100
AcDbEntity
  8
0
100
AcDbLine
 62
7
  6
CONTINUOUS
 10
196.7254802931
 20
321.8235294118
 11
196.7254802931
 21
328.3228067833
  0
LINE
  5
2D7
100
AcDbEntity
  8
0
100
AcDbLine
 62
7
  6
CONTINUOUS
 10
197.4754802931
 20
322.8235294118
 11
197.4754802931
 21
328.3439285281
  0
LINE
  5
2D8
100
AcDbEntity
  8
0
100
AcDbLine
 62
7
  6
CONTINUOUS
 10
197.9754802931
 20
328.3561296549
 11
197.9754802931
 21
322.8235294118
  0
LINE
  5
2D9
100
AcDbEntity
  8
0
100
AcDbLine
 62
7
  6
CONTINUOUS
 10
198.7254802931
 20
321.8235294118
 11
198.7254802931
 21
328.3716232625
  0
LINE
  5
2DA
100
AcDbEntity
  8
0
100
AcDbLine
 62
7
  6
CONTINUOUS
 10
251.7250313788
 20
328.8231487681
 11
251.0197735988
 21
327.1626553664
  0
LWPOLYLINE
  5
2DB
100
AcDbEntity
  8
0
100
AcDbPolyline
 62
7
  6
CONTINUOUS
 90
3
 70
0
 10
251.6459502312
 20
328.6387772389
 10
251.4096019974
 20
328.0850484287
 10
251.0197735988
 20
327.1626553664
  0
LINE
  5
2DC
100
AcDbEntity
  8
0
100
AcDbLine
 62
7
  6
CONTINUOUS
 10
252.4058346796
 20
254.3512261837
 11
252.2141808395
 21
254.3467479788
  0
LINE
  5
2DD
100
AcDbEntity
  8
0
100
AcDbLine
 62
7
  6
CONTINUOUS
 10
252.40388845
 20
254.3838560613
 11
252.2068714417
 21
254.3792380747
  0
LINE
  5
2DE
100
AcDbEntity
  8
0
100
AcDbLine
 62
7
  6
CONTINUOUS
 10
252.4066322786
 20
256.2503536704
 11
252.3433355226
 21
256.2489385613
  0
LINE
  5
2DF
100
AcDbEntity
  8
0
100
AcDbLine
 62
7
  6
CONTINUOUS
 10
252.40388845
 20
256.3763350691
 11
252.3381248093
 21
256.3751794424
  0
LINE
  5
2E0
100
AcDbEntity
  8
0
100
AcDbLine
 62
7
  6
CONTINUOUS
 10
252.2672258136
 20
249.8235293942
 11
252.0745882152
 21
249.8235120549
  0
LINE
  5
2E1
100
AcDbEntity
  8
0
100
AcDbLine
 62
7
  6
CONTINUOUS
 10
251.7072656398
 20
257.5628532626
 11
252.2719063979
 21
257.5620548736
  0
LINE
  5
2E2
100
AcDbEntity
  8
0
100
AcDbLine
 62
7
  6
CONTINUOUS
 10
252.2719063949
 20
249.9291151334
 11
251.707265637
 21
249.9379079036
  0
LINE
  5
2E3
100
AcDbEntity
  8
0
100
AcDbLine
 62
7
  6
CONTINUOUS
 10
252.3462966383
 20
250.0548382429
 11
251.9896524737
 21
250.06106349
  0
LINE
  5
2E4
100
AcDbEntity
  8
0
100
AcDbLine
 62
7
  6
CONTINUOUS
 10
252.2686164893
 20
257.7441182703
 11
251.6947967999
 21
257.7575245736
  0
LINE
  5
2E5
100
AcDbEntity
  8
_1
100
AcDbLine
 62
7
  6
CONTINUOUS
 10
120.0054802931
 20
334.3235294118
 11
118.2554802931
 21
336.8235294118
  0
LINE
  5
2E6
100
AcDbEntity
  8
0
100
AcDbLine
 62
7
  6
CONTINUOUS
 10
203.0654802931
 20
327.7038972374
 11
203.0654802931
 21
328.3147575227
  0
LINE
  5
2E7
100
AcDbEntity
  8
0
100
AcDbLine
 62
7
  6
CONTINUOUS
 10
206.4654802931
 20
327.565851387
 11
206.4654802931
 21
328.4794638629
  0
LINE
  5
2E8
100
AcDbEntity
  8
0
100
AcDbLine
 62
7
  6
CONTINUOUS
 10
206.9654802931
 20
327.5722792496
 11
206.9654802931
 21
329.3215294118
  0
LINE
  5
2E9
100
AcDbEntity
  8
_1
100
AcDbLine
 62
7
  6
CONTINUOUS
 10
207.3454802931
 20
345.3215294118
 11
207.3454802931
 21
329.3215294118
  0
LINE
  5
2EA
100
AcDbEntity
  8
0
100
AcDbLine
 62
7
  6
CONTINUOUS
 10
212.8504802931
 20
95.8235294118
 11
212.8504802931
 21
78.3235294118
  0
LINE
  5
2EB
100
AcDbEntity
  8
_1
100
AcDbLine
 62
7
  6
CONTINUOUS
 10
233.0865570582
 20
342.7347053229
 11
230.4773579177
 21
327.9372016737
  0
LINE
  5
2EC
100
AcDbEntity
  8
_1
100
AcDbLine
 62
7
  6
CONTINUOUS
 10
232.2030913664
 20
327.9344125852
 11
235.1454802931
 21
344.6215294118
  0
LINE
  5
2ED
100
AcDbEntity
  8
0
100
AcDbLine
 62
7
  6
CONTINUOUS
 10
250.9891980734
 20
269.8235294118
 11
251.7250313788
 21
269.8235294118
  0
LINE
  5
2EE
100
AcDbEntity
  8
0
100
AcDbLine
 62
7
  6
CONTINUOUS
 10
252.2719063938
 20
260.8730429206
 11
251.7072655948
 21
260.8829649814
  0
LINE
  5
2EF
100
AcDbEntity
  8
0
100
AcDbLine
 62
7
  6
CONTINUOUS
 10
215.3504802931
 20
78.3235294118
 11
215.3504802931
 21
95.8235294118
  0
LINE
  5
2F0
100
AcDbEntity
  8
0
100
AcDbLine
 62
7
  6
CONTINUOUS
 10
251.7250313788
 20
279.8235294118
 11
250.9891980734
 21
279.8235294118
  0
LINE
  5
2F1
100
AcDbEntity
  8
0
100
AcDbLine
 62
7
  6
CONTINUOUS
 10
250.925341308
 20
282.3235294118
 11
251.4097473674
 21
282.3235294118
  0
LINE
  5
2F2
100
AcDbEntity
  8
0
100
AcDbLine
 62
7
  6
CONTINUOUS
 10
251.5642432279
 20
282.3235294118
 11
251.7186026893
 21
282.3235294118
  0
LINE
  5
2F3
100
AcDbEntity
  8
_1
100
AcDbLine
 62
7
  6
CONTINUOUS
 10
200.3454802931
 20
344.6215294118
 11
203.327294727
 21
327.7108194237
  0
LINE
  5
2F4
100
AcDbEntity
  8
_1
100
AcDbLine
 62
7
  6
CONTINUOUS
 10
205.0494564339
 20
327.7338648658
 11
202.404403528
 21
342.7347053229
  0
LINE
  5
2F5
100
AcDbEntity
  8
_1
100
AcDbLine
 62
7
  6
CONTINUOUS
 10
228.1454802931
 20
345.3215294118
 11
228.1454802931
 21
329.3215294118
  0
LINE
  5
2F6
100
AcDbEntity
  8
0
100
AcDbLine
 62
7
  6
CONTINUOUS
 10
228.4854802931
 20
329.3215294118
 11
228.4854802931
 21
327.732715547
  0
LINE
  5
2F7
100
AcDbEntity
  8
0
100
AcDbLine
 62
7
  6
CONTINUOUS
 10
228.9854802931
 20
328.733332516
 11
228.9854802931
 21
327.7335303571
  0
LINE
  5
2F8
100
AcDbEntity
  8
0
100
AcDbLine
 62
7
  6
CONTINUOUS
 10
232.2254802931
 20
95.8235294118
 11
232.2254802931
 21
78.3235294118
  0
LINE
  5
2F9
100
AcDbEntity
  8
0
100
AcDbLine
 62
7
  6
CONTINUOUS
 10
232.3854802931
 20
328.62014631
 11
232.3854802931
 21
327.9338775373
  0
LINE
  5
2FA
100
AcDbEntity
  8
0
100
AcDbLine
 62
7
  6
CONTINUOUS
 10
234.7254802931
 20
95.8235294118
 11
234.7254802931
 21
75.8235294118
  0
LINE
  5
2FB
100
AcDbEntity
  8
0
100
AcDbLine
 62
7
  6
CONTINUOUS
 10
235.8254802931
 20
90.8228612798
 11
235.8254802931
 21
80.8241975438
  0
LINE
  5
2FC
100
AcDbEntity
  8
0
100
AcDbLine
 62
7
  6
CONTINUOUS
 10
236.7254802931
 20
325.8235294118
 11
236.7254802936
 21
328.8235294118
  0
LINE
  5
2FD
100
AcDbEntity
  8
0
100
AcDbLine
 62
7
  6
CONTINUOUS
 10
238.0254802931
 20
90.573526548
 11
238.0254802931
 21
90.5471403187
  0
LINE
  5
2FE
100
AcDbEntity
  8
0
100
AcDbLine
 62
7
  6
CONTINUOUS
 10
238.0254802931
 20
81.0999185048
 11
238.0254802931
 21
81.0735322756
  0
LINE
  5
2FF
100
AcDbEntity
  8
0
100
AcDbLine
 62
7
  6
CONTINUOUS
 10
238.2527216291
 20
90.5471403187
 11
238.2527216291
 21
81.0999185048
  0
LINE
  5
300
100
AcDbEntity
  8
0
100
AcDbLine
 62
7
  6
CONTINUOUS
 10
251.7186026893
 20
285.3235294118
 11
251.5642432279
 21
285.3235294118
  0
LINE
  5
301
100
AcDbEntity
  8
0
100
AcDbLine
 62
7
  6
CONTINUOUS
 10
251.4097473674
 20
285.3235294118
 11
250.925341308
 21
285.3235294118
  0
LINE
  5
302
100
AcDbEntity
  8
0
100
AcDbLine
 62
7
  6
CONTINUOUS
 10
251.6697083484
 20
289.3235294118
 11
251.7250313788
 21
289.3235294118
  0
LINE
  5
303
100
AcDbEntity
  8
_1
100
AcDbLine
 62
7
  6
CONTINUOUS
 10
262.2279802931
 20
293.8802235453
 11
251.6697083484
 21
293.8802235453
  0
LINE
  5
304
100
AcDbEntity
  8
0
100
AcDbLine
 62
7
  6
CONTINUOUS
 10
248.7254802931
 20
325.8235294118
 11
248.7254802931
 21
95.8235294118
  0
LINE
  5
305
100
AcDbEntity
  8
0
100
AcDbLine
 62
7
  6
CONTINUOUS
 10
249.8750490229
 20
95.8235294118
 11
249.8750490229
 21
326.0406021797
  0
LINE
  5
306
100
AcDbEntity
  8
0
100
AcDbLine
 62
7
  6
CONTINUOUS
 10
251.6912756235
 20
261.0381729641
 11
251.7054749536
 21
261.2788159168
  0
LINE
  5
307
100
AcDbEntity
  8
0
100
AcDbLine
 62
7
  6
CONTINUOUS
 10
251.6967522579
 20
261.1447898534
 11
251.7250313662
 21
261.5735296007
  0
LINE
  5
308
100
AcDbEntity
  8
0
100
AcDbLine
 62
7
  6
CONTINUOUS
 10
252.2686188392
 20
257.7441182154
 11
252.2672258128
 21
257.7263555479
  0
LINE
  5
309
100
AcDbEntity
  8
_1
100
AcDbLine
 62
7
  6
CONTINUOUS
 10
251.6697083484
 20
318.0296029288
 11
260.3411562043
 21
319.5586131476
  0
LINE
  5
30A
100
AcDbEntity
  8
_1
100
AcDbLine
 62
7
  6
CONTINUOUS
 10
261.5279802931
 20
320.5802235453
 11
251.6697083484
 21
318.8419442183
  0
LINE
  5
30B
100
AcDbEntity
  8
_1
100
AcDbLine
 62
7
  6
CONTINUOUS
 10
251.6697083484
 20
290.6185028723
 11
261.5279802931
 21
288.8802235453
  0
LINE
  5
30C
100
AcDbEntity
  8
_1
100
AcDbLine
 62
7
  6
CONTINUOUS
 10
260.3411562043
 20
289.901833943
 11
251.6697083484
 21
291.4308441618
  0
LINE
  5
30D
100
AcDbEntity
  8
0
100
AcDbLine
 62
7
  6
CONTINUOUS
 10
252.2672258126
 20
241.9207032606
 11
252.2686187993
 21
241.9029406072
  0
LINE
  5
30E
100
AcDbEntity
  8
0
100
AcDbLine
 62
7
  6
CONTINUOUS
 10
251.7250313142
 20
238.0735313378
 11
251.6967142792
 21
238.5028612967
  0
LINE
  5
30F
100
AcDbEntity
  8
0
100
AcDbLine
 62
7
  6
CONTINUOUS
 10
251.7053786797
 20
238.3698995857
 11
251.6912799593
 21
238.6088860457
  0
LINE
  5
310
100
AcDbEntity
  8
0
100
AcDbLine
 62
7
  6
CONTINUOUS
 10
252.2719063938
 20
260.8730429206
 11
252.2672258133
 21
260.9998132828
  0
LINE
  5
311
100
AcDbEntity
  8
0
100
AcDbLine
 62
7
  6
CONTINUOUS
 10
252.40388845
 20
256.3763350691
 11
252.4066322861
 21
256.2503533371
  0
LINE
  5
312
100
AcDbEntity
  8
0
100
AcDbLine
 62
7
  6
CONTINUOUS
 10
251.6854802931
 20
260.9399566825
 11
251.687333518
 21
257.7444608178
  0
LINE
  5
313
100
AcDbEntity
  8
0
100
AcDbLine
 62
7
  6
CONTINUOUS
 10
250.925341308
 20
282.3235294118
 11
250.925341308
 21
285.3235294118
  0
LINE
  5
314
100
AcDbEntity
  8
0
100
AcDbLine
 62
7
  6
CONTINUOUS
 10
250.9891980734
 20
269.8235294118
 11
250.9891980734
 21
279.8235294118
  0
LINE
  5
315
100
AcDbEntity
  8
0
100
AcDbLine
 62
7
  6
CONTINUOUS
 10
251.0197735988
 20
95.8235294118
 11
251.0197735988
 21
269.8235294118
  0
LINE
  5
316
100
AcDbEntity
  8
0
100
AcDbLine
 62
7
  6
CONTINUOUS
 10
251.0197735988
 20
279.8235294118
 11
251.0197735988
 21
282.3235294118
  0
LINE
  5
317
100
AcDbEntity
  8
0
100
AcDbLine
 62
7
  6
CONTINUOUS
 10
251.0197735988
 20
285.3235294118
 11
251.0197735988
 21
327.1628583256
  0
LINE
  5
318
100
AcDbEntity
  8
0
100
AcDbLine
 62
7
  6
CONTINUOUS
 10
251.2526151586
 20
105.8235294118
 11
251.2526151586
 21
147.8235294118
  0
LINE
  5
319
100
AcDbEntity
  8
0
100
AcDbLine
 62
7
  6
CONTINUOUS
 10
251.3858548028
 20
253.7111358439
 11
251.3858548028
 21
245.9364667029
  0
LINE
  5
31A
100
AcDbEntity
  8
0
100
AcDbLine
 62
7
  6
CONTINUOUS
 10
251.4097473674
 20
285.3235294118
 11
251.4097473674
 21
282.3235294118
  0
LINE
  5
31B
100
AcDbEntity
  8
0
100
AcDbLine
 62
7
  6
CONTINUOUS
 10
251.4532131355
 20
155.3735294118
 11
251.4532131355
 21
172.2735294118
  0
LINE
  5
31C
100
AcDbEntity
  8
0
100
AcDbLine
 62
7
  6
CONTINUOUS
 10
251.5642432279
 20
282.3235294118
 11
251.5642432279
 21
285.3235294118
  0
LINE
  5
31D
100
AcDbEntity
  8
0
100
AcDbLine
 62
7
  6
CONTINUOUS
 10
251.6697083484
 20
289.3235294118
 11
251.6697083484
 21
320.3235294118
  0
LINE
  5
31E
100
AcDbEntity
  8
0
100
AcDbLine
 62
7
  6
CONTINUOUS
 10
251.6854802931
 20
250.06106349
 11
251.687333518
 21
241.9025980058
  0
LINE
  5
31F
100
AcDbEntity
  8
0
100
AcDbLine
 62
7
  6
CONTINUOUS
 10
251.7078805384
 20
147.8235294118
 11
251.7078805384
 21
146.3435294118
  0
LINE
  5
320
100
AcDbEntity
  8
0
100
AcDbLine
 62
7
  6
CONTINUOUS
 10
251.7078805384
 20
143.5435294118
 11
251.7078805384
 21
141.8935294118
  0
LINE
  5
321
100
AcDbEntity
  8
0
100
AcDbLine
 62
7
  6
CONTINUOUS
 10
251.7078805384
 20
111.3935294118
 11
251.7078805384
 21
109.7435294118
  0
LINE
  5
322
100
AcDbEntity
  8
0
100
AcDbLine
 62
7
  6
CONTINUOUS
 10
251.7078805384
 20
106.9435294118
 11
251.7078805384
 21
105.8235294118
  0
LINE
  5
323
100
AcDbEntity
  8
0
100
AcDbLine
 62
7
  6
CONTINUOUS
 10
251.7186026893
 20
285.3235294118
 11
251.7186026893
 21
282.3235294118
  0
LINE
  5
324
100
AcDbEntity
  8
0
100
AcDbLine
 62
7
  6
CONTINUOUS
 10
251.725024236
 20
172.2735294118
 11
251.725024236
 21
155.3735294118
  0
LINE
  5
325
100
AcDbEntity
  8
0
100
AcDbLine
 62
7
  6
CONTINUOUS
 10
251.7250313788
 20
328.8231487684
 11
251.7250313788
 21
320.3235294118
  0
LINE
  5
326
100
AcDbEntity
  8
0
100
AcDbLine
 62
7
  6
CONTINUOUS
 10
251.7250313788
 20
289.3235294118
 11
251.7250313788
 21
285.3235294118
  0
LINE
  5
327
100
AcDbEntity
  8
0
100
AcDbLine
 62
7
  6
CONTINUOUS
 10
251.7250313788
 20
282.3235294118
 11
251.7250313788
 21
279.8235294118
  0
LINE
  5
328
100
AcDbEntity
  8
0
100
AcDbLine
 62
7
  6
CONTINUOUS
 10
251.7250313788
 20
269.8235294118
 11
251.7250313662
 21
261.573529035
  0
LINE
  5
329
100
AcDbEntity
  8
0
100
AcDbLine
 62
7
  6
CONTINUOUS
 10
251.7250313788
 20
238.0735293939
 11
251.7250313788
 21
173.2735294118
  0
LINE
  5
32A
100
AcDbEntity
  8
0
100
AcDbLine
 62
7
  6
CONTINUOUS
 10
251.7250313788
 20
154.3735294118
 11
251.7250313788
 21
147.8235294118
  0
LINE
  5
32B
100
AcDbEntity
  8
0
100
AcDbLine
 62
7
  6
CONTINUOUS
 10
251.7250313788
 20
105.8235294118
 11
251.7250313788
 21
95.8235294118
  0
LINE
  5
32C
100
AcDbEntity
  8
0
100
AcDbLine
 62
7
  6
CONTINUOUS
 10
252.2416349016
 20
254.3512262479
 11
252.2416349016
 21
250.0548382429
  0
LINE
  5
32D
100
AcDbEntity
  8
0
100
AcDbLine
 62
7
  6
CONTINUOUS
 10
252.2416349016
 20
249.5922205869
 11
252.2416349016
 21
245.2958326384
  0
LINE
  5
32E
100
AcDbEntity
  8
0
100
AcDbLine
 62
7
  6
CONTINUOUS
 10
253.0254802931
 20
146.3435294118
 11
253.0254802931
 21
143.5435294118
  0
LINE
  5
32F
100
AcDbEntity
  8
0
100
AcDbLine
 62
7
  6
CONTINUOUS
 10
253.0254802931
 20
106.9435294118
 11
253.0254802931
 21
109.7435294118
  0
LINE
  5
330
100
AcDbEntity
  8
0
100
AcDbLine
 62
7
  6
CONTINUOUS
 10
253.7254802931
 20
109.8235294118
 11
253.7254802931
 21
109.7435294118
  0
LINE
  5
331
100
AcDbEntity
  8
0
100
AcDbLine
 62
7
  6
CONTINUOUS
 10
253.7254802931
 20
98.8235294118
 11
253.7254802931
 21
106.9435294118
  0
LINE
  5
332
100
AcDbEntity
  8
0
100
AcDbLine
 62
7
  6
CONTINUOUS
 10
254.8254802931
 20
106.9435294118
 11
254.8254802931
 21
99.3241975438
  0
LINE
  5
333
100
AcDbEntity
  8
0
100
AcDbLine
 62
7
  6
CONTINUOUS
 10
255.9254802931
 20
99.5746300282
 11
255.9254802931
 21
106.9435294118
  0
LINE
  5
334
100
AcDbEntity
  8
0
100
AcDbLine
 62
7
  6
CONTINUOUS
 10
256.1254802931
 20
146.3435294118
 11
256.1254802931
 21
143.5435294118
  0
LINE
  5
335
100
AcDbEntity
  8
0
100
AcDbLine
 62
7
  6
CONTINUOUS
 10
256.1254802931
 20
106.9435294118
 11
256.1254802931
 21
109.7435294118
  0
LINE
  5
336
100
AcDbEntity
  8
0
100
AcDbLine
 62
7
  6
CONTINUOUS
 10
258.1254802931
 20
99.5999185048
 11
258.1254802931
 21
99.5735322756
  0
LINE
  5
337
100
AcDbEntity
  8
0
100
AcDbLine
 62
7
  6
CONTINUOUS
 10
258.3527216291
 20
106.9435294118
 11
258.3527216291
 21
99.5999185048
  0
LINE
  5
338
100
AcDbEntity
  8
_1
100
AcDbLine
 62
7
  6
CONTINUOUS
 10
261.5279802931
 20
320.5802235453
 11
261.5279802931
 21
318.4935855154
  0
LINE
  5
339
100
AcDbEntity
  8
_1
100
AcDbLine
 62
7
  6
CONTINUOUS
 10
261.5279802931
 20
290.9668615751
 11
261.5279802931
 21
288.8802235453
  0
LINE
  5
33A
100
AcDbEntity
  8
_1
100
AcDbLine
 62
7
  6
CONTINUOUS
 10
262.2279802931
 20
315.5802235453
 11
262.2279802931
 21
293.8802235453
  0
LINE
  5
33B
100
AcDbEntity
  8
_1
100
AcDbLine
 62
7
  6
CONTINUOUS
 10
262.3754802931
 20
142.5897527636
 11
262.3754802931
 21
143.4835294118
  0
LINE
  5
33C
100
AcDbEntity
  8
0
100
AcDbLine
 62
7
  6
CONTINUOUS
 10
251.687333518
 20
257.7444608178
 11
251.6854802931
 21
250.06106349
  0
LINE
  5
33D
100
AcDbEntity
  8
0
100
AcDbLine
 62
7
  6
CONTINUOUS
 10
251.687333518
 20
241.9025980058
 11
251.6854802931
 21
238.7071957962
  0
LINE
  5
33E
100
AcDbEntity
  8
0
100
AcDbLine
 62
7
  6
CONTINUOUS
 10
252.4038884507
 20
243.270723789
 11
252.406632282
 21
243.3967052897
  0
LINE
  5
33F
100
AcDbEntity
  8
0
100
AcDbLine
 62
7
  6
CONTINUOUS
 10
252.2719063949
 20
238.7740159386
 11
252.2672258127
 21
238.6472455253
  0
LINE
  5
340
100
AcDbEntity
  8
0
100
AcDbLine
 62
7
  6
CONTINUOUS
 10
267.1517254661
 20
144.816952465
 11
260.8824244969
 21
141.8935294118
  0
LINE
  5
341
100
AcDbEntity
  8
0
100
AcDbLine
 62
7
  6
CONTINUOUS
 10
263.1341567634
 20
141.8935294118
 11
270.4254802931
 21
145.2935294118
  0
LINE
  5
342
100
AcDbEntity
  8
_1
100
AcDbLine
 62
7
  6
CONTINUOUS
 10
262.2279802931
 20
315.5802235453
 11
251.6697083484
 21
315.5802235453
  0
LINE
  5
343
100
AcDbEntity
  8
0
100
AcDbLine
 62
7
  6
CONTINUOUS
 10
251.7250313788
 20
320.3235294118
 11
251.6697083484
 21
320.3235294118
  0
LINE
  5
344
100
AcDbEntity
  8
0
100
AcDbLine
 62
7
  6
CONTINUOUS
 10
270.4254802931
 20
107.9935294118
 11
270.4254802931
 21
106.9435294118
  0
LINE
  5
345
100
AcDbEntity
  8
0
100
AcDbLine
 62
7
  6
CONTINUOUS
 10
270.4254802931
 20
145.2935294118
 11
270.4254802931
 21
146.3435294118
  0
LINE
  5
346
100
AcDbEntity
  8
0
100
AcDbLine
 62
7
  6
CONTINUOUS
 10
271.4254802931
 20
141.8935294118
 11
271.4254802931
 21
111.3935294118
  0
LINE
  5
347
100
AcDbEntity
  8
0
100
AcDbLine
 62
7
  6
CONTINUOUS
 10
259.2254802931
 20
143.5435294118
 11
261.7254802931
 21
145.2935294118
  0
LWPOLYLINE
  5
348
100
AcDbEntity
  8
0
100
AcDbPolyline
 62
7
  6
CONTINUOUS
 90
3
 70
0
 10
161.4766127772
 20
326.8543271477
 10
159.3553608583
 20
326.4737596746
 10
158.5554802931
 20
326.2972588373
  0
LINE
  5
349
100
AcDbEntity
  8
0
100
AcDbLine
 62
7
  6
CONTINUOUS
 10
161.9755311209
 20
326.9256851851
 11
161.9754802931
 21
326.9256779488
  0
LINE
  5
34A
100
AcDbEntity
  8
0
100
AcDbLine
 62
7
  6
CONTINUOUS
 10
165.3627379036
 20
327.2312868375
 11
162.7252898083
 21
327.0159928692
  0
LINE
  5
34B
100
AcDbEntity
  8
0
100
AcDbLine
 62
7
  6
CONTINUOUS
 10
166.7253900802
 20
327.2909170053
 11
165.362711506
 21
327.2312867988
  0
LINE
  5
34C
100
AcDbEntity
  8
0
100
AcDbLine
 62
7
  6
CONTINUOUS
 10
169.9758133282
 20
327.4306871268
 11
166.7253900802
 21
327.2909170053
  0
LINE
  5
34D
100
AcDbEntity
  8
0
100
AcDbLine
 62
7
  6
CONTINUOUS
 10
173.9754802931
 20
327.5929152017
 11
169.975813362
 21
327.430686361
  0
LINE
  5
34E
100
AcDbEntity
  8
0
100
AcDbLine
 62
7
  6
CONTINUOUS
 10
177.9758117068
 20
327.7452193486
 11
173.9748701356
 21
327.592891211
  0
LINE
  5
34F
100
AcDbEntity
  8
0
100
AcDbLine
 62
7
  6
CONTINUOUS
 10
181.9754802931
 20
327.8875032173
 11
177.9758117333
 21
327.7452186684
  0
LINE
  5
350
100
AcDbEntity
  8
0
100
AcDbLine
 62
7
  6
CONTINUOUS
 10
185.9754802931
 20
328.0197693852
 11
181.9754118027
 21
327.8875008666
  0
LINE
  5
351
100
AcDbEntity
  8
0
100
AcDbLine
 62
7
  6
CONTINUOUS
 10
189.9754802931
 20
328.141975925
 11
185.9751646516
 21
328.0197593445
  0
LINE
  5
352
100
AcDbEntity
  8
0
100
AcDbLine
 62
7
  6
CONTINUOUS
 10
193.9754802931
 20
328.2541009217
 11
189.975019322
 21
328.1419624221
  0
LINE
  5
353
100
AcDbEntity
  8
0
100
AcDbLine
 62
7
  6
CONTINUOUS
 10
197.9754802931
 20
328.3561296549
 11
193.9749957243
 21
328.2540879499
  0
LINE
  5
354
100
AcDbEntity
  8
0
100
AcDbLine
 62
7
  6
CONTINUOUS
 10
206.9654802931
 20
328.5244379894
 11
204.9168200579
 21
328.4860831337
  0
LINE
  5
355
100
AcDbEntity
  8
0
100
AcDbLine
 62
7
  6
CONTINUOUS
 10
203.1962746476
 20
328.4538712178
 11
197.9751655183
 21
328.3561220234
  0
LINE
  5
356
100
AcDbEntity
  8
0
100
AcDbLine
 62
7
  6
CONTINUOUS
 10
206.9654582461
 20
327.5737005346
 11
206.4654802931
 21
327.565851387
  0
LINE
  5
357
100
AcDbEntity
  8
0
100
AcDbLine
 62
7
  6
CONTINUOUS
 10
206.9654802931
 20
327.5722792496
 11
206.4654802931
 21
327.565851387
  0
LINE
  5
358
100
AcDbEntity
  8
0
100
AcDbLine
 62
7
  6
CONTINUOUS
 10
236.725480311
 20
328.8235294118
 11
232.3845440321
 21
328.8010648884
  0
LINE
  5
359
100
AcDbEntity
  8
0
100
AcDbLine
 62
7
  6
CONTINUOUS
 10
230.6280775356
 20
328.7919751022
 11
228.4854802931
 21
328.7808870736
  0
LINE
  5
35A
100
AcDbEntity
  8
0
100
AcDbLine
 62
7
  6
CONTINUOUS
 10
228.9854802931
 20
327.7335303571
 11
228.4854802931
 21
327.732715547
  0
LINE
  5
35B
100
AcDbEntity
  8
0
100
AcDbLine
 62
7
  6
CONTINUOUS
 10
232.3239913377
 20
328.6200703944
 11
232.3854802931
 21
328.62014631
  0
LINE
  5
35C
100
AcDbEntity
  8
0
100
AcDbLine
 62
7
  6
CONTINUOUS
 10
198.7254802931
 20
321.8235294118
 11
196.7254802931
 21
321.8235294118
  0
LINE
  5
35D
100
AcDbEntity
  8
0
100
AcDbLine
 62
7
  6
CONTINUOUS
 10
194.7254802931
 20
321.8235294118
 11
192.7254802931
 21
321.8235294118
  0
LINE
  5
35E
100
AcDbEntity
  8
0
100
AcDbLine
 62
7
  6
CONTINUOUS
 10
190.7254802931
 20
321.8235294118
 11
188.7254802931
 21
321.8235294118
  0
LINE
  5
35F
100
AcDbEntity
  8
0
100
AcDbLine
 62
7
  6
CONTINUOUS
 10
186.7254802931
 20
321.8235294118
 11
184.7254802931
 21
321.8235294118
  0
LINE
  5
360
100
AcDbEntity
  8
0
100
AcDbLine
 62
7
  6
CONTINUOUS
 10
182.7254802931
 20
321.8235294118
 11
180.7254802931
 21
321.8235294118
  0
LINE
  5
361
100
AcDbEntity
  8
0
100
AcDbLine
 62
7
  6
CONTINUOUS
 10
178.7254802931
 20
321.8235294118
 11
176.7254802931
 21
321.8235294118
  0
LINE
  5
362
100
AcDbEntity
  8
0
100
AcDbLine
 62
7
  6
CONTINUOUS
 10
174.7254802931
 20
321.8235294118
 11
172.7254802931
 21
321.8235294118
  0
LINE
  5
363
100
AcDbEntity
  8
0
100
AcDbLine
 62
7
  6
CONTINUOUS
 10
170.7254802931
 20
321.8235294118
 11
168.7254802931
 21
321.8235294118
  0
LINE
  5
364
100
AcDbEntity
  8
0
100
AcDbLine
 62
7
  6
CONTINUOUS
 10
166.7254802931
 20
321.8235294118
 11
164.7254802931
 21
321.8235294118
  0
LINE
  5
365
100
AcDbEntity
  8
0
100
AcDbLine
 62
7
  6
CONTINUOUS
 10
162.7254802931
 20
321.8235294118
 11
160.7254802931
 21
321.8235294118
  0
LINE
  5
366
100
AcDbEntity
  8
0
100
AcDbLine
 62
7
  6
CONTINUOUS
 10
98.7254802931
 20
321.8235294118
 11
96.7254802931
 21
321.8235294118
  0
LINE
  5
367
100
AcDbEntity
  8
0
100
AcDbLine
 62
7
  6
CONTINUOUS
 10
94.7254802931
 20
321.8235294118
 11
92.7254802931
 21
321.8235294118
  0
LINE
  5
368
100
AcDbEntity
  8
0
100
AcDbLine
 62
7
  6
CONTINUOUS
 10
90.7254802931
 20
321.8235294118
 11
88.7254802931
 21
321.8235294118
  0
LINE
  5
369
100
AcDbEntity
  8
0
100
AcDbLine
 62
7
  6
CONTINUOUS
 10
86.7254802931
 20
321.8235294118
 11
84.7254802931
 21
321.8235294118
  0
LINE
  5
36A
100
AcDbEntity
  8
0
100
AcDbLine
 62
7
  6
CONTINUOUS
 10
82.7254802931
 20
321.8235294118
 11
80.7254802931
 21
321.8235294118
  0
LINE
  5
36B
100
AcDbEntity
  8
0
100
AcDbLine
 62
7
  6
CONTINUOUS
 10
78.7254802931
 20
321.8235294118
 11
76.7254802931
 21
321.8235294118
  0
LINE
  5
36C
100
AcDbEntity
  8
0
100
AcDbLine
 62
7
  6
CONTINUOUS
 10
74.7254802931
 20
321.8235294118
 11
72.7254802931
 21
321.8235294118
  0
LINE
  5
36D
100
AcDbEntity
  8
0
100
AcDbLine
 62
7
  6
CONTINUOUS
 10
70.7254802931
 20
321.8235294118
 11
68.7254802931
 21
321.8235294118
  0
LINE
  5
36E
100
AcDbEntity
  8
0
100
AcDbLine
 62
7
  6
CONTINUOUS
 10
66.7254802931
 20
321.8235294118
 11
64.7254802931
 21
321.8235294118
  0
LINE
  5
36F
100
AcDbEntity
  8
0
100
AcDbLine
 62
7
  6
CONTINUOUS
 10
62.7254802931
 20
321.8235294118
 11
60.7254802931
 21
321.8235294118
  0
LINE
  5
370
100
AcDbEntity
  8
0
100
AcDbLine
 62
7
  6
CONTINUOUS
 10
58.7254802931
 20
321.8235294118
 11
56.7254802931
 21
321.8235294118
  0
LINE
  5
371
100
AcDbEntity
  8
0
100
AcDbLine
 62
7
  6
CONTINUOUS
 10
54.7254802931
 20
321.8235294118
 11
52.7254802931
 21
321.8235294118
  0
LINE
  5
372
100
AcDbEntity
  8
0
100
AcDbLine
 62
7
  6
CONTINUOUS
 10
50.7254802931
 20
321.8235294118
 11
48.7254802931
 21
321.8235294118
  0
LINE
  5
373
100
AcDbEntity
  8
0
100
AcDbLine
 62
7
  6
CONTINUOUS
 10
46.7254802931
 20
321.8235294118
 11
44.7254802931
 21
321.8235294118
  0
LINE
  5
374
100
AcDbEntity
  8
0
100
AcDbLine
 62
7
  6
CONTINUOUS
 10
160.7254802931
 20
322.8235294118
 11
162.7254802931
 21
322.8235294118
  0
LINE
  5
375
100
AcDbEntity
  8
0
100
AcDbLine
 62
7
  6
CONTINUOUS
 10
164.7254802931
 20
322.8235294118
 11
166.7254802931
 21
322.8235294118
  0
LINE
  5
376
100
AcDbEntity
  8
0
100
AcDbLine
 62
7
  6
CONTINUOUS
 10
168.7254802931
 20
322.8235294118
 11
170.7254802931
 21
322.8235294118
  0
LINE
  5
377
100
AcDbEntity
  8
0
100
AcDbLine
 62
7
  6
CONTINUOUS
 10
172.7254802931
 20
322.8235294118
 11
174.7254802931
 21
322.8235294118
  0
LINE
  5
378
100
AcDbEntity
  8
0
100
AcDbLine
 62
7
  6
CONTINUOUS
 10
176.7254802931
 20
322.8235294118
 11
178.7254802931
 21
322.8235294118
  0
LINE
  5
379
100
AcDbEntity
  8
0
100
AcDbLine
 62
7
  6
CONTINUOUS
 10
180.7254802931
 20
322.8235294118
 11
182.7254802931
 21
322.8235294118
  0
LINE
  5
37A
100
AcDbEntity
  8
0
100
AcDbLine
 62
7
  6
CONTINUOUS
 10
184.7254802931
 20
322.8235294118
 11
186.7254802931
 21
322.8235294118
  0
LINE
  5
37B
100
AcDbEntity
  8
0
100
AcDbLine
 62
7
  6
CONTINUOUS
 10
188.7254802931
 20
322.8235294118
 11
190.7254802931
 21
322.8235294118
  0
LINE
  5
37C
100
AcDbEntity
  8
0
100
AcDbLine
 62
7
  6
CONTINUOUS
 10
192.7254802931
 20
322.8235294118
 11
194.7254802931
 21
322.8235294118
  0
LINE
  5
37D
100
AcDbEntity
  8
0
100
AcDbLine
 62
7
  6
CONTINUOUS
 10
196.7254802931
 20
322.8235294118
 11
198.7254802931
 21
322.8235294118
  0
LINE
  5
37E
100
AcDbEntity
  8
0
100
AcDbLine
 62
7
  6
CONTINUOUS
 10
68.7254802931
 20
323.8235294118
 11
70.7254802931
 21
323.8235294118
  0
LINE
  5
37F
100
AcDbEntity
  8
0
100
AcDbLine
 62
7
  6
CONTINUOUS
 10
72.7254802931
 20
323.8235294118
 11
74.7254802931
 21
323.8235294118
  0
LINE
  5
380
100
AcDbEntity
  8
0
100
AcDbLine
 62
7
  6
CONTINUOUS
 10
34.7254802931
 20
325.8235294118
 11
160.7254802931
 21
325.8235294118
  0
LINE
  5
381
100
AcDbEntity
  8
0
100
AcDbLine
 62
7
  6
CONTINUOUS
 10
162.7254802931
 20
325.8235294118
 11
164.7254802931
 21
325.8235294118
  0
LINE
  5
382
100
AcDbEntity
  8
0
100
AcDbLine
 62
7
  6
CONTINUOUS
 10
166.7254802931
 20
325.8235294118
 11
168.7254802931
 21
325.8235294118
  0
LINE
  5
383
100
AcDbEntity
  8
0
100
AcDbLine
 62
7
  6
CONTINUOUS
 10
170.7254802931
 20
325.8235294118
 11
172.7254802931
 21
325.8235294118
  0
LINE
  5
384
100
AcDbEntity
  8
0
100
AcDbLine
 62
7
  6
CONTINUOUS
 10
174.7254802931
 20
325.8235294118
 11
176.7254802931
 21
325.8235294118
  0
LINE
  5
385
100
AcDbEntity
  8
0
100
AcDbLine
 62
7
  6
CONTINUOUS
 10
178.7254802931
 20
325.8235294118
 11
180.7254802931
 21
325.8235294118
  0
LINE
  5
386
100
AcDbEntity
  8
0
100
AcDbLine
 62
7
  6
CONTINUOUS
 10
182.7254802931
 20
325.8235294118
 11
184.7254802931
 21
325.8235294118
  0
LINE
  5
387
100
AcDbEntity
  8
0
100
AcDbLine
 62
7
  6
CONTINUOUS
 10
186.7254802931
 20
325.8235294118
 11
188.7254802931
 21
325.8235294118
  0
LINE
  5
388
100
AcDbEntity
  8
0
100
AcDbLine
 62
7
  6
CONTINUOUS
 10
190.7254802931
 20
325.8235294118
 11
192.7254802931
 21
325.8235294118
  0
LINE
  5
389
100
AcDbEntity
  8
0
100
AcDbLine
 62
7
  6
CONTINUOUS
 10
194.7254802931
 20
325.8235294118
 11
196.7254802931
 21
325.8235294118
  0
LINE
  5
38A
100
AcDbEntity
  8
0
100
AcDbLine
 62
7
  6
CONTINUOUS
 10
198.7254802931
 20
325.8235294118
 11
248.7254802931
 21
325.8235294118
  0
LINE
  5
38B
100
AcDbEntity
  8
_1
100
AcDbLine
 62
7
  6
CONTINUOUS
 10
156.6054802931
 20
328.1235294118
 11
153.8054802931
 21
328.1235294118
  0
LINE
  5
38C
100
AcDbEntity
  8
_1
100
AcDbLine
 62
7
  6
CONTINUOUS
 10
117.2054802931
 20
328.1235294118
 11
120.0054802931
 21
328.1235294118
  0
LINE
  5
38D
100
AcDbEntity
  8
0
100
AcDbLine
 62
7
  6
CONTINUOUS
 10
38.7254802931
 20
328.3235294118
 11
34.7254802931
 21
328.3235294118
  0
LINE
  5
38E
100
AcDbEntity
  8
0
100
AcDbLine
 62
7
  6
CONTINUOUS
 10
236.7254802936
 20
328.8235294118
 11
251.7243048085
 21
328.8235294118
  0
LINE
  5
38F
100
AcDbEntity
  8
_1
100
AcDbLine
 62
7
  6
CONTINUOUS
 10
207.3454802931
 20
329.3215294118
 11
228.1454802931
 21
329.3215294118
  0
LINE
  5
390
100
AcDbEntity
  8
0
100
AcDbLine
 62
7
  6
CONTINUOUS
 10
206.9654802931
 20
329.3215294118
 11
207.3454802931
 21
329.3215294118
  0
LINE
  5
391
100
AcDbEntity
  8
0
100
AcDbLine
 62
7
  6
CONTINUOUS
 10
228.1454802931
 20
329.3215294118
 11
228.4854802931
 21
329.3215294118
  0
LINE
  5
392
100
AcDbEntity
  8
_1
100
AcDbLine
 62
7
  6
CONTINUOUS
 10
156.6054802931
 20
331.2235294118
 11
153.8054802931
 21
331.2235294118
  0
LINE
  5
393
100
AcDbEntity
  8
_1
100
AcDbLine
 62
7
  6
CONTINUOUS
 10
117.2054802931
 20
331.2235294118
 11
120.0054802931
 21
331.2235294118
  0
LINE
  5
394
100
AcDbEntity
  8
0
100
AcDbLine
 62
7
  6
CONTINUOUS
 10
166.725480293
 20
327.2221129559
 11
168.725488352
 21
327.204688834
  0
LINE
  5
395
100
AcDbEntity
  8
0
100
AcDbLine
 62
7
  6
CONTINUOUS
 10
170.7254802931
 20
327.1829906337
 11
172.7254741852
 21
327.1574213643
  0
LINE
  5
396
100
AcDbEntity
  8
0
100
AcDbLine
 62
7
  6
CONTINUOUS
 10
174.7254802931
 20
327.1283195478
 11
176.7254837234
 21
327.0959877855
  0
LINE
  5
397
100
AcDbEntity
  8
0
100
AcDbLine
 62
7
  6
CONTINUOUS
 10
178.7254802931
 20
327.0607073151
 11
180.7254715387
 21
327.0227435681
  0
LINE
  5
398
100
AcDbEntity
  8
0
100
AcDbLine
 62
7
  6
CONTINUOUS
 10
182.7254802931
 20
326.9823522943
 11
184.7254785138
 21
326.9397825224
  0
LINE
  5
399
100
AcDbEntity
  8
0
100
AcDbLine
 62
7
  6
CONTINUOUS
 10
186.7254802931
 20
326.8952772394
 11
188.725470586
 21
326.8490755383
  0
LINE
  5
39A
100
AcDbEntity
  8
0
100
AcDbLine
 62
7
  6
CONTINUOUS
 10
190.7254802931
 20
326.8014121167
 11
192.7254723647
 21
326.7525206271
  0
LINE
  5
39B
100
AcDbEntity
  8
0
100
AcDbLine
 62
7
  6
CONTINUOUS
 10
194.7254802931
 20
326.7026308205
 11
196.725480434
 21
326.651972107
  0
LINE
  5
39C
100
AcDbEntity
  8
_1
100
AcDbLine
 62
7
  6
CONTINUOUS
 10
203.3063834267
 20
343.1083176299
 11
207.3454802931
 21
337.3398894911
  0
LINE
  5
39D
100
AcDbEntity
  8
_1
100
AcDbLine
 62
7
  6
CONTINUOUS
 10
207.3454802931
 20
338.560302248
 11
203.1013633423
 21
344.6215294118
  0
LINE
  5
39E
100
AcDbEntity
  8
0
100
AcDbLine
 62
7
  6
CONTINUOUS
 10
34.7254802931
 20
333.3235294118
 11
38.7254802931
 21
333.3235294118
  0
LINE
  5
39F
100
AcDbEntity
  8
0
100
AcDbLine
 62
7
  6
CONTINUOUS
 10
34.7254802931
 20
342.3235294118
 11
38.7254802931
 21
342.3235294118
  0
LINE
  5
3A0
100
AcDbEntity
  8
0
100
AcDbLine
 62
7
  6
CONTINUOUS
 10
34.7254802931
 20
343.5444763271
 11
38.7254802931
 21
343.5444763271
  0
LINE
  5
3A1
100
AcDbEntity
  8
_1
100
AcDbLine
 62
7
  6
CONTINUOUS
 10
235.1454802931
 20
344.6215294118
 11
232.389597244
 21
344.6215294118
  0
LINE
  5
3A2
100
AcDbEntity
  8
_1
100
AcDbLine
 62
7
  6
CONTINUOUS
 10
203.1013633423
 20
344.6215294118
 11
200.3454802931
 21
344.6215294118
  0
LINE
  5
3A3
100
AcDbEntity
  8
_1
100
AcDbLine
 62
7
  6
CONTINUOUS
 10
256.3212001251
 20
293.8802235453
 11
260.7147685113
 21
290.8038138417
  0
LINE
  5
3A4
100
AcDbEntity
  8
_1
100
AcDbLine
 62
7
  6
CONTINUOUS
 10
261.5279802931
 20
290.9668615751
 11
257.3672682025
 21
293.8802235453
  0
LINE
  5
3A5
100
AcDbEntity
  8
_1
100
AcDbLine
 62
7
  6
CONTINUOUS
 10
207.3454802931
 20
345.3215294118
 11
228.1454802931
 21
345.3215294118
  0
LINE
  5
3A6
100
AcDbEntity
  8
_1
100
AcDbLine
 62
7
  6
CONTINUOUS
 10
118.2554802931
 20
345.5235294118
 11
117.2054802931
 21
345.5235294118
  0
LINE
  5
3A7
100
AcDbEntity
  8
_1
100
AcDbLine
 62
7
  6
CONTINUOUS
 10
155.5554802931
 20
345.5235294118
 11
156.6054802931
 21
345.5235294118
  0
LINE
  5
3A8
100
AcDbEntity
  8
0
100
AcDbLine
 62
7
  6
CONTINUOUS
 10
34.7254802931
 20
345.8235294118
 11
38.7254802931
 21
345.8235294118
  0
LINE
  5
3A9
100
AcDbEntity
  8
_1
100
AcDbLine
 62
7
  6
CONTINUOUS
 10
121.6554802931
 20
346.5235294118
 11
152.1554802931
 21
346.5235294118
  0
ARC
  5
3AA
100
AcDbEntity
  8
0
100
AcDbCircle
 62
7
  6
CONTINUOUS
 10
-67.525976838
 20
155.1686760137
 40
319.251066798
100
AcDbArc
 50
359.9099350258
 51
0.0367649075
  0
ARC
  5
3AB
100
AcDbEntity
  8
0
100
AcDbCircle
 62
7
  6
CONTINUOUS
 10
-61.2534562764
 20
242.8533422789
 40
313.8701949313
100
AcDbArc
 50
2.2802478173
 51
2.686001825
  0
ARC
  5
3AC
100
AcDbEntity
  8
0
100
AcDbCircle
 62
7
  6
CONTINUOUS
 10
-53.0624926867
 20
249.9842154442
 40
305.5402044477
100
AcDbArc
 50
358.1773997288
 51
358.3194253688
  0
ARC
  5
3AD
100
AcDbEntity
  8
0
100
AcDbCircle
 62
7
  6
CONTINUOUS
 10
-52.0902631631
 20
249.6865373204
 40
304.5676989621
100
AcDbArc
 50
1.5360965348
 51
1.6814830991
  0
ARC
  5
3AE
100
AcDbEntity
  8
0
100
AcDbCircle
 62
7
  6
CONTINUOUS
 10
-51.6978252591
 20
249.9504301648
 40
304.1751315699
100
AcDbArc
 50
358.3182478295
 51
358.4638221428
  0
ARC
  5
3AF
100
AcDbEntity
  8
0
100
AcDbCircle
 62
7
  6
CONTINUOUS
 10
-49.9118221418
 20
249.7568061309
 40
302.3881358243
100
AcDbArc
 50
1.6802863277
 51
1.9684715546
  0
ARC
  5
3B0
100
AcDbEntity
  8
0
100
AcDbCircle
 62
7
  6
CONTINUOUS
 10
-47.6713111292
 20
249.8379829533
 40
300.1470504361
100
AcDbArc
 50
358.4803422879
 51
358.6077707174
  0
ARC
  5
3B1
100
AcDbEntity
  8
0
100
AcDbCircle
 62
7
  6
CONTINUOUS
 10
-47.6308878869
 20
249.814663473
 40
300.1059511506
100
AcDbArc
 50
357.8916603106
 51
358.0309946429
  0
ARC
  5
3B2
100
AcDbEntity
  8
0
100
AcDbCircle
 62
7
  6
CONTINUOUS
 10
-47.629064166
 20
249.8162648288
 40
300.1041835319
100
AcDbArc
 50
358.0306771299
 51
358.1563510274
  0
ARC
  5
3B3
100
AcDbEntity
  8
0
100
AcDbCircle
 62
7
  6
CONTINUOUS
 10
-47.5648044342
 20
249.8116682108
 40
300.0405121983
100
AcDbArc
 50
1.3922286608
 51
1.5353760097
  0
ARC
  5
3B4
100
AcDbEntity
  8
0
100
AcDbCircle
 62
7
  6
CONTINUOUS
 10
-47.5413258626
 20
249.836641947
 40
300.0170709655
100
AcDbArc
 50
358.6074236033
 51
358.7459732373
  0
ARC
  5
3B5
100
AcDbEntity
  8
0
100
AcDbCircle
 62
7
  6
CONTINUOUS
 10
-47.522837019
 20
249.836241279
 40
299.9978319396
100
AcDbArc
 50
1.9689819292
 51
2.1083648638
  0
ARC
  5
3B6
100
AcDbEntity
  8
0
100
AcDbCircle
 62
7
  6
CONTINUOUS
 10
-47.5018238292
 20
249.8113297154
 40
299.9775584156
100
AcDbArc
 50
1.2540175799
 51
1.3925855656
  0
ARC
  5
3B7
100
AcDbEntity
  8
0
100
AcDbCircle
 62
7
  6
CONTINUOUS
 10
-39.7471006028
 20
255.8610881881
 40
292.3437717623
100
AcDbArc
 50
357.2990568736
 51
357.7346882975
  0
ARC
  5
3B8
100
AcDbEntity
  8
0
100
AcDbCircle
 62
7
  6
CONTINUOUS
 10
30.4278769399
 20
246.5867022255
 40
222.1129326348
100
AcDbArc
 50
2.048092436
 51
2.2589279714
  0
ARC
  5
3B9
100
AcDbEntity
  8
0
100
AcDbCircle
 62
7
  6
CONTINUOUS
 10
38.3014408396
 20
252.764282813
 40
214.2338178195
100
AcDbArc
 50
357.7371949049
 51
357.9557845773
  0
ARC
  5
3BA
100
AcDbEntity
  8
0
100
AcDbCircle
 62
7
  6
CONTINUOUS
 10
178.0365171446
 20
138.1836933988
 40
189.4185822213
100
AcDbArc
 50
92.278559124
 51
92.4389571993
  0
ARC
  5
3BB
100
AcDbEntity
  8
0
100
AcDbCircle
 62
7
  6
CONTINUOUS
 10
174.4389181369
 20
139.4796624504
 40
187.9694978384
100
AcDbArc
 50
92.4188910852
 51
92.5806488303
  0
ARC
  5
3BC
100
AcDbEntity
  8
0
100
AcDbCircle
 62
7
  6
CONTINUOUS
 10
145.4361584118
 20
125.8235294118
 40
50.0
100
AcDbArc
 50
225.0
 51
270.0
  0
CIRCLE
  5
3BD
100
AcDbEntity
  8
0
100
AcDbCircle
 62
7
  6
CONTINUOUS
 10
165.4754802931
 20
83.8235294118
 40
4.0
  0
CIRCLE
  5
3BE
100
AcDbEntity
  8
0
100
AcDbCircle
 62
7
  6
CONTINUOUS
 10
133.4754802931
 20
85.5626032061
 40
4.0
  0
CIRCLE
  5
3BF
100
AcDbEntity
  8
0
100
AcDbCircle
 62
7
  6
CONTINUOUS
 10
149.4754802931
 20
83.8235294118
 40
4.0
  0
ARC
  5
3C0
100
AcDbEntity
  8
0
100
AcDbCircle
 62
7
  6
CONTINUOUS
 10
171.5834725166
 20
249.9229139455
 40
80.8971660283
100
AcDbArc
 50
353.6841882828
 51
354.2200006969
  0
ARC
  5
3C1
100
AcDbEntity
  8
0
100
AcDbCircle
 62
7
  6
CONTINUOUS
 10
171.7385731163
 20
249.7396308969
 40
80.7413418281
100
AcDbArc
 50
6.3169940162
 51
7.9328686586
  0
ARC
  5
3C2
100
AcDbEntity
  8
0
100
AcDbCircle
 62
7
  6
CONTINUOUS
 10
172.0122109327
 20
249.8731558366
 40
80.4655923545
100
AcDbArc
 50
352.0644103451
 51
353.6858225995
  0
ARC
  5
3C3
100
AcDbEntity
  8
0
100
AcDbCircle
 62
7
  6
CONTINUOUS
 10
172.6199328372
 20
249.8339265341
 40
79.854921828
100
AcDbArc
 50
5.7765240722
 51
6.3193302985
  0
ARC
  5
3C4
100
AcDbEntity
  8
0
100
AcDbCircle
 62
7
  6
CONTINUOUS
 10
127.7254802931
 20
277.3235294118
 40
68.5
100
AcDbArc
 50
95.1428828873
 51
97.6491257983
  0
ARC
  5
3C5
100
AcDbEntity
  8
0
100
AcDbCircle
 62
7
  6
CONTINUOUS
 10
127.7254802931
 20
277.3235294118
 40
68.5
100
AcDbArc
 50
98.9068461754
 51
105.668610387
  0
ARC
  5
3C6
100
AcDbEntity
  8
0
100
AcDbCircle
 62
7
  6
CONTINUOUS
 10
167.0460742777
 20
289.7447956577
 40
37.5243041395
100
AcDbArc
 50
103.0775224505
 51
103.2465958993
  0
ARC
  5
3C7
100
AcDbEntity
  8
0
100
AcDbCircle
 62
7
  6
CONTINUOUS
 10
167.0421109863
 20
289.7623223963
 40
37.5063355787
100
AcDbArc
 50
103.2468376957
 51
105.956695876
  0
ARC
  5
3C8
100
AcDbEntity
  8
0
100
AcDbCircle
 62
7
  6
CONTINUOUS
 10
167.0354747588
 20
289.7674737638
 40
37.5011418552
100
AcDbArc
 50
97.7545186741
 51
98.5262204729
  0
ARC
  5
3C9
100
AcDbEntity
  8
0
100
AcDbCircle
 62
7
  6
CONTINUOUS
 10
117.7254802931
 20
335.9771737998
 40
4.0
100
AcDbArc
 50
47.109186443
 51
82.2908605705
  0
ARC
  5
3CA
100
AcDbEntity
  8
0
100
AcDbCircle
 62
7
  6
CONTINUOUS
 10
117.7254802931
 20
335.9771737998
 40
4.0
100
AcDbArc
 50
306.7556693585
 51
356.6158947815
  0
ARC
  5
3CB
100
AcDbEntity
  8
0
100
AcDbCircle
 62
7
  6
CONTINUOUS
 10
117.7254802931
 20
335.9771737998
 40
4.0
100
AcDbArc
 50
97.5689265613
 51
262.4376725997
  0
ARC
  5
3CC
100
AcDbEntity
  8
_1
100
AcDbCircle
 62
7
  6
CONTINUOUS
 10
155.3054802931
 20
342.1441200193
 40
0.25
100
AcDbArc
 50
0.0
 51
155.0000000001
  0
ARC
  5
3CD
100
AcDbEntity
  8
_1
100
AcDbCircle
 62
7
  6
CONTINUOUS
 10
118.5054802931
 20
342.1441200193
 40
0.25
100
AcDbArc
 50
24.9999999997
 51
180.0000000001
  0
ARC
  5
3CE
100
AcDbEntity
  8
0
100
AcDbCircle
 62
7
  6
CONTINUOUS
 10
228.0382961845
 20
-1025.8619234385
 40
1353.8027805959
100
AcDbArc
 50
89.8160177141
 51
89.9599131742
  0
ARC
  5
3CF
100
AcDbEntity
  8
0
100
AcDbCircle
 62
7
  6
CONTINUOUS
 10
227.7092834337
 20
-1013.6050955586
 40
1341.3392074242
100
AcDbArc
 50
89.9668444476
 51
90.8861151668
  0
ARC
  5
3D0
100
AcDbEntity
  8
0
100
AcDbCircle
 62
7
  6
CONTINUOUS
 10
230.3147758283
 20
-319.9794580901
 40
648.5981695694
100
AcDbArc
 50
89.9750218463
 51
90.1174272158
  0
ARC
  5
3D1
100
AcDbEntity
  8
0
100
AcDbCircle
 62
7
  6
CONTINUOUS
 10
229.4319478117
 20
214.9222751454
 40
113.8119330873
100
AcDbArc
 50
90.2247635149
 51
90.4764817567
  0
ARC
  5
3D2
100
AcDbEntity
  8
0
100
AcDbCircle
 62
7
  6
CONTINUOUS
 10
193.1774263676
 20
246.5791318235
 40
59.5426241999
100
AcDbArc
 50
7.6403020903
 51
8.4779300287
  0
ARC
  5
3D3
100
AcDbEntity
  8
0
100
AcDbCircle
 62
7
  6
CONTINUOUS
 10
195.0629145773
 20
252.8009548246
 40
57.6383816283
100
AcDbArc
 50
351.5082330566
 51
352.3735348019
  0
ARC
  5
3D4
100
AcDbEntity
  8
0
100
AcDbCircle
 62
7
  6
CONTINUOUS
 10
200.5490910433
 20
247.5871447185
 40
52.1023877366
100
AcDbArc
 50
7.4904247657
 51
7.6194359504
  0
ARC
  5
3D5
100
AcDbEntity
  8
0
100
AcDbCircle
 62
7
  6
CONTINUOUS
 10
200.549093532
 20
252.0599137764
 40
52.1023852268
100
AcDbArc
 50
352.3805640181
 51
352.5095752896
  0
ARC
  5
3D6
100
AcDbEntity
  8
0
100
AcDbCircle
 62
7
  6
CONTINUOUS
 10
208.4478696228
 20
178.7224920011
 40
43.1820312322
100
AcDbArc
 50
359.5881519405
 51
0.0013764812
  0
ARC
  5
3D7
100
AcDbEntity
  8
0
100
AcDbCircle
 62
7
  6
CONTINUOUS
 10
208.4478744718
 20
178.7245668338
 40
43.1820263832
100
AcDbArc
 50
359.9986235036
 51
0.4118502192
  0
ARC
  5
3D8
100
AcDbEntity
  8
0
100
AcDbCircle
 62
7
  6
CONTINUOUS
 10
202.6445487784
 20
348.375747659
 40
20.0654057669
100
AcDbArc
 50
271.2020374178
 51
271.6434652292
  0
ARC
  5
3D9
100
AcDbEntity
  8
0
100
AcDbCircle
 62
7
  6
CONTINUOUS
 10
230.0254802931
 20
85.8235294118
 40
9.4868329805
100
AcDbArc
 50
330.1380247262
 51
356.995506363
  0
ARC
  5
3DA
100
AcDbEntity
  8
0
100
AcDbCircle
 62
7
  6
CONTINUOUS
 10
230.0254802931
 20
85.8235294118
 40
9.4868329805
100
AcDbArc
 50
3.004493637
 51
29.8619752738
  0
ARC
  5
3DB
100
AcDbEntity
  8
0
100
AcDbCircle
 62
7
  6
CONTINUOUS
 10
250.1254802931
 20
104.3235294118
 40
9.4868329805
100
AcDbArc
 50
330.1380247262
 51
356.995506363
  0
ARC
  5
3DC
100
AcDbEntity
  8
0
100
AcDbCircle
 62
7
  6
CONTINUOUS
 10
250.1254802931
 20
104.3235294118
 40
9.4868329805
100
AcDbArc
 50
3.004493637
 51
16.0819574744
  0
ARC
  5
3DD
100
AcDbEntity
  8
0
100
AcDbCircle
 62
7
  6
CONTINUOUS
 10
229.7548096228
 20
85.8235626203
 40
9.4184110425
100
AcDbArc
 50
357.18945533
 51
2.81054467
  0
ARC
  5
3DE
100
AcDbEntity
  8
0
100
AcDbCircle
 62
7
  6
CONTINUOUS
 10
249.8548096229
 20
104.3235626203
 40
9.4184110424
100
AcDbArc
 50
357.18945533
 51
2.81054467
  0
ARC
  5
3DF
100
AcDbEntity
  8
0
100
AcDbCircle
 62
7
  6
CONTINUOUS
 10
247.9519146972
 20
249.8510790009
 40
4.454802778
100
AcDbArc
 50
358.9789393613
 51
359.6456631985
  0
ARC
  5
3E0
100
AcDbEntity
  8
_1
100
AcDbCircle
 62
7
  6
CONTINUOUS
 10
260.4279802931
 20
319.0662092711
 40
0.5
100
AcDbArc
 50
305.0000000002
 51
99.9999999997
  0
ARC
  5
3E1
100
AcDbEntity
  8
_1
100
AcDbCircle
 62
7
  6
CONTINUOUS
 10
260.4279802931
 20
290.3942378195
 40
0.5
100
AcDbArc
 50
259.9999999993
 51
54.9999999994
  0
ARC
  5
3E2
100
AcDbEntity
  8
_1
100
AcDbCircle
 62
7
  6
CONTINUOUS
 10
232.5941531817
 20
342.8215294118
 40
0.5
100
AcDbArc
 50
349.9999999996
 51
144.9999999998
  0
ARC
  5
3E3
100
AcDbEntity
  8
_1
100
AcDbCircle
 62
7
  6
CONTINUOUS
 10
202.8968074046
 20
342.8215294118
 40
0.5
100
AcDbArc
 50
35.0000000002
 51
190.0000000004
  0
ARC
  5
3E4
100
AcDbEntity
  8
0
100
AcDbCircle
 62
7
  6
CONTINUOUS
 10
267.0460709007
 20
145.0435294118
 40
0.25
100
AcDbArc
 50
294.9999999999
 51
89.9999999998
  0
ARC
  5
3E5
100
AcDbEntity
  8
0
100
AcDbCircle
 62
7
  6
CONTINUOUS
 10
267.0460709007
 20
108.2435294118
 40
0.25
100
AcDbArc
 50
269.9999999999
 51
65.0000000003
  0
ARC
  5
3E6
100
AcDbEntity
  8
0
100
AcDbCircle
 62
7
  6
CONTINUOUS
 10
427.6597252685
 20
249.7600481467
 40
176.3308827587
100
AcDbArc
 50
176.2981430893
 51
177.3832165008
  0
ARC
  5
3E7
100
AcDbEntity
  8
0
100
AcDbCircle
 62
7
  6
CONTINUOUS
 10
426.7663423307
 20
249.8388147147
 40
175.4362519721
100
AcDbArc
 50
182.6142122374
 51
183.7047936144
  0
ARC
  5
3E8
100
AcDbEntity
  8
0
100
AcDbCircle
 62
7
  6
CONTINUOUS
 10
426.4134312262
 20
249.8300785339
 40
175.0833098379
100
AcDbArc
 50
180.0021431915
 51
182.6166238842
  0
ARC
  5
3E9
100
AcDbEntity
  8
0
100
AcDbCircle
 62
7
  6
CONTINUOUS
 10
426.1552500749
 20
249.8224265023
 40
174.8251285675
100
AcDbArc
 50
177.3811273979
 51
179.9996385414
  0
SPLINE
  5
3EA
100
AcDbEntity
  8
0
100
AcDbSpline
 62
7
  6
CONTINUOUS
 70
0
 71
3
 72
14
 73
10
 74
0
 42
0.0000001
 43
0.0000001
 44
0.0000000001
 40
0.0
 40
0.0
 40
0.0
 40
0.0
 40
0.0261657273
 40
0.0742024583
 40
0.1471114293
 40
0.2481184915
 40
0.3814234571
 40
0.5517858704
 40
1.0
 40
1.0
 40
1.0
 40
1.0
 10
251.4390829811
 20
181.1188087484
 30
0.0
 10
251.4221711083
 20
181.1061544604
 30
0.0
 10
251.3952936291
 20
181.0486821001
 30
0.0
 10
251.3611579707
 20
180.9370350467
 30
0.0
 10
251.3254500848
 20
180.7601610961
 30
0.0
 10
251.2890238509
 20
180.515276692
 30
0.0
 10
251.2539410286
 20
180.1902188603
 30
0.0
 10
251.2087093402
 20
179.584988888
 30
0.0
 10
251.1954644023
 20
179.0853468584
 30
0.0
 10
251.1954658405
 20
178.7235294117
 30
0.0
  0
SPLINE
  5
3EB
100
AcDbEntity
  8
0
100
AcDbSpline
 62
7
  6
CONTINUOUS
 70
0
 71
3
 72
9
 73
5
 74
0
 42
0.0000001
 43
0.0000001
 44
0.0000000001
 40
0.0
 40
0.0
 40
0.0
 40
0.0
 40
0.2575517544
 40
1.0
 40
1.0
 40
1.0
 40
1.0
 10
252.4058359896
 20
254.3512186831
 30
0.0
 10
252.4072761811
 20
254.3512815108
 30
0.0
 10
252.4048812376
 20
254.3601806998
 30
0.0
 10
252.4065734364
 20
254.363824471
 30
0.0
 10
252.4066322814
 20
254.3679796642
 30
0.0
  0
SPLINE
  5
3EC
100
AcDbEntity
  8
0
100
AcDbSpline
 62
7
  6
CONTINUOUS
 70
0
 71
3
 72
9
 73
5
 74
0
 42
0.0000001
 43
0.0000001
 44
0.0000000001
 40
0.0
 40
0.0
 40
0.0
 40
0.0
 40
0.3106742963
 40
1.0
 40
1.0
 40
1.0
 40
1.0
 10
252.3462983398
 20
249.592218971
 30
0.0
 10
252.3611943688
 20
249.592479037
 30
0.0
 10
252.3904251781
 20
249.6457720143
 30
0.0
 10
252.3976330218
 20
249.6875403747
 30
0.0
 10
252.40388835
 20
249.7199995469
 30
0.0
  0
SPLINE
  5
3ED
100
AcDbEntity
  8
0
100
AcDbSpline
 62
7
  6
CONTINUOUS
 70
0
 71
3
 72
9
 73
5
 74
0
 42
0.0000001
 43
0.0000001
 44
0.0000000001
 40
0.0
 40
0.0
 40
0.0
 40
0.0
 40
0.2602116482
 40
1.0
 40
1.0
 40
1.0
 40
1.0
 10
252.2686165713
 20
241.9029417469
 30
0.0
 10
252.2714731639
 20
241.9030001467
 30
0.0
 10
252.2679877332
 20
241.9204412814
 30
0.0
 10
252.2714305805
 20
241.9275740626
 30
0.0
 10
252.2719063979
 20
241.9356831775
 30
0.0
  0
SPLINE
  5
3EE
100
AcDbEntity
  8
0
100
AcDbSpline
 62
7
  6
CONTINUOUS
 70
0
 71
3
 72
11
 73
7
 74
0
 42
0.0000001
 43
0.0000001
 44
0.0000000001
 40
0.0
 40
0.0
 40
0.0
 40
0.0
 40
0.2500110358
 40
0.4374939883
 40
0.6250067131
 40
1.0
 40
1.0
 40
1.0
 40
1.0
 10
206.4654802931
 20
327.7638324943
 30
0.0
 10
206.1821087296
 20
327.7591947084
 30
0.0
 10
205.6865544468
 20
327.7374284325
 30
0.0
 10
204.9780152844
 20
327.7299295505
 30
0.0
 10
204.1277813145
 20
327.7425825549
 30
0.0
 10
203.4904924084
 20
327.7119234461
 30
0.0
 10
203.0654802931
 20
327.7038972374
 30
0.0
  0
SPLINE
  5
3EF
100
AcDbEntity
  8
0
100
AcDbSpline
 62
7
  6
CONTINUOUS
 70
0
 71
3
 72
14
 73
10
 74
0
 42
0.0000001
 43
0.0000001
 44
0.0000000001
 40
0.0
 40
0.0
 40
0.0
 40
0.0
 40
0.4482140179
 40
0.6185765146
 40
0.7518815184
 40
0.8528885871
 40
0.9257975753
 40
0.9738342822
 40
1.0
 40
1.0
 40
1.0
 40
1.0
 10
251.1954658405
 20
178.7235294117
 30
0.0
 10
251.1954644022
 20
178.3617120591
 30
0.0
 10
251.2087093337
 20
177.8620700557
 30
0.0
 10
251.2539410173
 20
177.2568400853
 30
0.0
 10
251.2890238363
 20
176.9317821452
 30
0.0
 10
251.3254501016
 20
176.6868977152
 30
0.0
 10
251.3611579292
 20
176.5100237182
 30
0.0
 10
251.3952936901
 20
176.3983767738
 30
0.0
 10
251.4221710693
 20
176.340904325
 30
0.0
 10
251.4390829826
 20
176.3282501042
 30
0.0
  0
SPLINE
  5
3F0
100
AcDbEntity
  8
0
100
AcDbSpline
 62
7
  6
CONTINUOUS
 70
0
 71
3
 72
14
 73
10
 74
0
 42
0.0000001
 43
0.0000001
 44
0.0000000001
 40
0.0
 40
0.0
 40
0.0
 40
0.0
 40
0.0215342244
 40
0.0789076808
 40
0.1713824457
 40
0.2953487534
 40
0.4463211522
 40
0.6186681245
 40
1.0
 40
1.0
 40
1.0
 40
1.0
 10
251.5061444889
 20
173.2735294118
 30
0.0
 10
251.4989365232
 20
173.2735294118
 30
0.0
 10
251.4940847019
 20
173.2360435309
 30
0.0
 10
251.4837029202
 20
173.1899218149
 30
0.0
 10
251.4764603028
 20
173.0928510845
 30
0.0
 10
251.4682676628
 20
172.9725133729
 30
0.0
 10
251.4619367721
 20
172.8220643327
 30
0.0
 10
251.4550665434
 20
172.5866606804
 30
0.0
 10
251.4532131355
 20
172.40116935
 30
0.0
 10
251.4532131355
 20
172.2735294118
 30
0.0
  0
SPLINE
  5
3F1
100
AcDbEntity
  8
0
100
AcDbSpline
 62
7
  6
CONTINUOUS
 70
0
 71
3
 72
14
 73
10
 74
0
 42
0.0000001
 43
0.0000001
 44
0.0000000001
 40
0.0
 40
0.0
 40
0.0
 40
0.0
 40
0.3813474193
 40
0.5536961681
 40
0.7046625473
 40
0.8286251456
 40
0.9210997267
 40
0.9784703336
 40
1.0
 40
1.0
 40
1.0
 40
1.0
 10
251.4532131355
 20
155.3735294118
 30
0.0
 10
251.4532131355
 20
155.2458845373
 30
0.0
 10
251.4551470195
 20
155.060388727
 30
0.0
 10
251.4619802466
 20
154.8249812763
 30
0.0
 10
251.4682648491
 20
154.6745330822
 30
0.0
 10
251.4764514189
 20
154.5541983853
 30
0.0
 10
251.4837069622
 20
154.457130866
 30
0.0
 10
251.4940883511
 20
154.4110123034
 30
0.0
 10
251.4989380639
 20
154.3735294118
 30
0.0
 10
251.5061444889
 20
154.3735294118
 30
0.0
  0
SPLINE
  5
3F2
100
AcDbEntity
  8
0
100
AcDbSpline
 62
7
  6
CONTINUOUS
 70
0
 71
3
 72
9
 73
5
 74
0
 42
0.0000001
 43
0.0000001
 44
0.0000000001
 40
0.0
 40
0.0
 40
0.0
 40
0.0
 40
0.7397857134
 40
1.0
 40
1.0
 40
1.0
 40
1.0
 10
252.2719062949
 20
257.7113756995
 30
0.0
 10
252.2714304798
 20
257.7194847697
 30
0.0
 10
252.2679877867
 20
257.7266175996
 30
0.0
 10
252.2714731832
 20
257.7440586449
 30
0.0
 10
252.2686165678
 20
257.7441170719
 30
0.0
  0
SPLINE
  5
3F3
100
AcDbEntity
  8
0
100
AcDbSpline
 62
7
  6
CONTINUOUS
 70
0
 71
3
 72
9
 73
5
 74
0
 42
0.0000001
 43
0.0000001
 44
0.0000000001
 40
0.0
 40
0.0
 40
0.0
 40
0.0
 40
0.1124562173
 40
1.0
 40
1.0
 40
1.0
 40
1.0
 10
252.40388835
 20
249.7199995495
 30
0.0
 10
252.4042554475
 20
249.7219044266
 30
0.0
 10
252.4053368845
 20
249.7391755248
 30
0.0
 10
252.4057274763
 20
249.7563867672
 30
0.0
 10
252.4060101082
 20
249.7716947416
 30
0.0
  0
SPLINE
  5
3F4
100
AcDbEntity
  8
0
100
AcDbSpline
 62
7
  6
CONTINUOUS
 70
0
 71
3
 72
9
 73
5
 74
0
 42
0.0000001
 43
0.0000001
 44
0.0000000001
 40
0.0
 40
0.0
 40
0.0
 40
0.0
 40
0.3026715616
 40
1.0
 40
1.0
 40
1.0
 40
1.0
 10
252.4066322786
 20
249.8235307255
 30
0.0
 10
252.4065735827
 20
249.8321313456
 30
0.0
 10
252.4062988746
 20
249.8605454758
 30
0.0
 10
252.4058973381
 20
249.8889646023
 30
0.0
 10
252.4051266632
 20
249.9087651372
 30
0.0
  0
SPLINE
  5
3F5
100
AcDbEntity
  8
0
100
AcDbSpline
 62
7
  6
CONTINUOUS
 70
0
 71
3
 72
9
 73
5
 74
0
 42
0.0000001
 43
0.0000001
 44
0.0000000001
 40
0.0
 40
0.0
 40
0.0
 40
0.0
 40
0.3638337513
 40
1.0
 40
1.0
 40
1.0
 40
1.0
 10
252.4051266632
 20
249.9087651372
 30
0.0
 10
252.4050401622
 20
249.9109875592
 30
0.0
 10
252.4047123641
 20
249.9170824645
 30
0.0
 10
252.4046243494
 20
249.9232406659
 30
0.0
 10
252.4038884507
 20
249.9270592684
 30
0.0
  0
SPLINE
  5
3F6
100
AcDbEntity
  8
0
100
AcDbSpline
 62
7
  6
CONTINUOUS
 70
0
 71
3
 72
9
 73
5
 74
0
 42
0.0000001
 43
0.0000001
 44
0.0000000001
 40
0.0
 40
0.0
 40
0.0
 40
0.0
 40
0.3307638151
 40
1.0
 40
1.0
 40
1.0
 40
1.0
 10
252.4038884508
 20
249.927059271
 30
0.0
 10
252.4014278469
 20
249.9398274528
 30
0.0
 10
252.3929666728
 20
249.9779488504
 30
0.0
 10
252.3829438257
 20
250.0173959081
 30
0.0
 10
252.3682070692
 20
250.0391905389
 30
0.0
  0
SPLINE
  5
3F7
100
AcDbEntity
  8
0
100
AcDbSpline
 62
7
  6
CONTINUOUS
 70
0
 71
3
 72
8
 73
4
 74
0
 42
0.0000001
 43
0.0000001
 44
0.0000000001
 40
0.0
 40
0.0
 40
0.0
 40
0.0
 40
1.0
 40
1.0
 40
1.0
 40
1.0
 10
252.3682070692
 20
250.0391905389
 30
0.0
 10
252.3631800675
 20
250.0466251223
 30
0.0
 10
252.3552715784
 20
250.054683191
 30
0.0
 10
252.3462983274
 20
250.0548398527
 30
0.0
  0
SPLINE
  5
3F8
100
AcDbEntity
  8
0
100
AcDbSpline
 62
7
  6
CONTINUOUS
 70
0
 71
3
 72
9
 73
5
 74
0
 42
0.0000001
 43
0.0000001
 44
0.0000000001
 40
0.0
 40
0.0
 40
0.0
 40
0.0
 40
0.7429110811
 40
1.0
 40
1.0
 40
1.0
 40
1.0
 10
252.4066322826
 20
245.2790790794
 30
0.0
 10
252.4065734
 20
245.28323695
 30
0.0
 10
252.4048809782
 20
245.2868682593
 30
0.0
 10
252.4072739278
 20
245.2957855812
 30
0.0
 10
252.4058359705
 20
245.295840374
 30
0.0
  0
LINE
  5
3F9
100
AcDbEntity
  8
0
100
AcDbLine
 62
7
  6
CONTINUOUS
 10
252.2672258127
 20
238.6472455253
 11
251.6891845774
 21
238.6347379865
  0
LINE
  5
3FA
100
AcDbEntity
  8
0
100
AcDbLine
 62
7
  6
CONTINUOUS
 10
252.2672258133
 20
260.9998132828
 11
251.6891845774
 21
261.0123208371
  0
SPLINE
  5
3FB
100
AcDbEntity
  8
0
100
AcDbSpline
 62
7
  6
CONTINUOUS
 70
0
 71
3
 72
18
 73
14
 74
0
 42
0.0000001
 43
0.0000001
 44
0.0000000001
 40
0.0
 40
0.0
 40
0.0
 40
0.0
 40
0.0087060682
 40
0.0179283763
 40
0.0320160167
 40
0.0524877224
 40
0.0799782732
 40
0.1148902479
 40
0.2087918999
 40
0.3385616258
 40
0.5102504337
 40
0.7306900814
 40
1.0
 40
1.0
 40
1.0
 40
1.0
 10
251.4390829826
 20
176.3282501042
 30
0.0
 10
251.4440391872
 20
176.3245416588
 30
0.0
 10
251.4576804504
 20
176.3191794785
 30
0.0
 10
251.4780066339
 20
176.333920409
 30
0.0
 10
251.4931021764
 20
176.3610438464
 30
0.0
 10
251.5086105125
 20
176.4025923113
 30
0.0
 10
251.5231937784
 20
176.4597025308
 30
0.0
 10
251.5442590785
 20
176.5688816968
 30
0.0
 10
251.5668761117
 20
176.7514826032
 30
0.0
 10
251.5895287187
 20
177.031696558
 30
0.0
 10
251.6084184902
 20
177.4023358207
 30
0.0
 10
251.6225854734
 20
177.8724257654
 30
0.0
 10
251.6274047
 20
178.2206227085
 30
0.0
 10
251.6287852768
 20
178.4120977143
 30
0.0
  0
SPLINE
  5
3FC
100
AcDbEntity
  8
0
100
AcDbSpline
 62
7
  6
CONTINUOUS
 70
0
 71
3
 72
9
 73
5
 74
0
 42
0.0000001
 43
0.0000001
 44
0.0000000001
 40
0.0
 40
0.0
 40
0.0
 40
0.0
 40
0.2487381122
 40
1.0
 40
1.0
 40
1.0
 40
1.0
 10
198.7254802931
 20
326.6007716657
 30
0.0
 10
201.8757960744
 20
326.5198150375
 30
0.0
 10
214.5407483041
 20
326.1896926718
 30
0.0
 10
227.2078039611
 20
325.904030297
 30
0.0
 10
236.7254802931
 20
325.8235294118
 30
0.0
  0
SPLINE
  5
3FD
100
AcDbEntity
  8
0
100
AcDbSpline
 62
7
  6
CONTINUOUS
 70
0
 71
3
 72
8
 73
4
 74
0
 42
0.0000001
 43
0.0000001
 44
0.0000000001
 40
0.0
 40
0.0
 40
0.0
 40
0.0
 40
1.0
 40
1.0
 40
1.0
 40
1.0
 10
252.40388845
 20
254.3838560613
 30
0.0
 10
252.4041919549
 20
254.3751643439
 30
0.0
 10
252.4044870278
 20
254.366469502
 30
0.0
 10
252.4050576627
 20
254.3577912278
 30
0.0
  0
SPLINE
  5
3FE
100
AcDbEntity
  8
0
100
AcDbSpline
 62
7
  6
CONTINUOUS
 70
0
 71
3
 72
9
 73
5
 74
0
 42
0.0000001
 43
0.0000001
 44
0.0000000001
 40
0.0
 40
0.0
 40
0.0
 40
0.0
 40
0.7458428838
 40
1.0
 40
1.0
 40
1.0
 40
1.0
 10
252.4050576627
 20
254.3577912278
 30
0.0
 10
252.4051658154
 20
254.356146431
 30
0.0
 10
252.4058052993
 20
254.3547529855
 30
0.0
 10
252.4052748239
 20
254.3511942024
 30
0.0
 10
252.4058359896
 20
254.3512186831
 30
0.0
  0
SPLINE
  5
3FF
100
AcDbEntity
  8
0
100
AcDbSpline
 62
7
  6
CONTINUOUS
 70
0
 71
3
 72
9
 73
5
 74
0
 42
0.0000001
 43
0.0000001
 44
0.0000000001
 40
0.0
 40
0.0
 40
0.0
 40
0.0
 40
0.7711191945
 40
1.0
 40
1.0
 40
1.0
 40
1.0
 10
252.2672258126
 20
257.7263555033
 30
0.0
 10
252.2677427797
 20
257.6841087267
 30
0.0
 10
252.2691207109
 20
257.6293283684
 30
0.0
 10
252.2713201974
 20
257.5745816392
 30
0.0
 10
252.2719063979
 20
257.5620548736
 30
0.0
  0
LINE
  5
400
100
AcDbEntity
  8
0
100
AcDbLine
 62
7
  6
CONTINUOUS
 10
252.3989196859
 20
254.5246506945
 11
252.40388845
 21
254.3838560593
  0
SPLINE
  5
401
100
AcDbEntity
  8
0
100
AcDbSpline
 62
7
  6
CONTINUOUS
 70
0
 71
3
 72
9
 73
5
 74
0
 42
0.0000001
 43
0.0000001
 44
0.0000000001
 40
0.0
 40
0.0
 40
0.0
 40
0.0
 40
0.769094013
 40
1.0
 40
1.0
 40
1.0
 40
1.0
 10
251.6891845774
 20
257.7351997019
 30
0.0
 10
251.6908804356
 20
257.6907898056
 30
0.0
 10
251.6963335351
 20
257.6331381399
 30
0.0
 10
251.7049346413
 20
257.575991026
 30
0.0
 10
251.7072656398
 20
257.5628532626
 30
0.0
  0
LINE
  5
402
100
AcDbEntity
  8
0
100
AcDbLine
 62
7
  6
CONTINUOUS
 10
252.2672258126
 20
257.7263555033
 11
251.6891845774
 21
257.7351997019
  0
SPLINE
  5
403
100
AcDbEntity
  8
0
100
AcDbSpline
 62
7
  6
CONTINUOUS
 70
0
 71
3
 72
9
 73
5
 74
0
 42
0.0000001
 43
0.0000001
 44
0.0000000001
 40
0.0
 40
0.0
 40
0.0
 40
0.0
 40
0.2629138756
 40
1.0
 40
1.0
 40
1.0
 40
1.0
 10
251.7072656409
 20
257.5628532227
 30
0.0
 10
251.7414842625
 20
257.3699928322
 30
0.0
 10
251.8694795527
 20
256.6360655709
 30
0.0
 10
251.9885156565
 20
255.9005504068
 30
0.0
 10
252.0694119527
 20
255.3574078757
 30
0.0
  0
SPLINE
  5
404
100
AcDbEntity
  8
0
100
AcDbSpline
 62
7
  6
CONTINUOUS
 70
0
 71
3
 72
9
 73
5
 74
0
 42
0.0000001
 43
0.0000001
 44
0.0000000001
 40
0.0
 40
0.0
 40
0.0
 40
0.0
 40
0.7312765935
 40
1.0
 40
1.0
 40
1.0
 40
1.0
 10
252.2068714417
 20
254.3792380747
 30
0.0
 10
252.2079349346
 20
254.3711492308
 30
0.0
 10
252.2108629277
 20
254.3635901717
 30
0.0
 10
252.2111853138
 20
254.3466629736
 30
0.0
 10
252.2141823126
 20
254.3467405001
 30
0.0
  0
SPLINE
  5
405
100
AcDbEntity
  8
0
100
AcDbSpline
 62
7
  6
CONTINUOUS
 70
0
 71
3
 72
9
 73
5
 74
0
 42
0.0000001
 43
0.0000001
 44
0.0000000001
 40
0.0
 40
0.0
 40
0.0
 40
0.0
 40
0.3009465231
 40
1.0
 40
1.0
 40
1.0
 40
1.0
 10
251.6891845774
 20
249.8235294118
 30
0.0
 10
251.6895049435
 20
249.813918758
 30
0.0
 10
251.6911536523
 20
249.7820475739
 30
0.0
 10
251.6938570806
 20
249.7499568294
 30
0.0
 10
251.6991365149
 20
249.7282532147
 30
0.0
  0
SPLINE
  5
406
100
AcDbEntity
  8
0
100
AcDbSpline
 62
7
  6
CONTINUOUS
 70
0
 71
3
 72
9
 73
5
 74
0
 42
0.0000001
 43
0.0000001
 44
0.0000000001
 40
0.0
 40
0.0
 40
0.0
 40
0.0
 40
0.3483638032
 40
1.0
 40
1.0
 40
1.0
 40
1.0
 10
251.6991365149
 20
249.7282532147
 30
0.0
 10
251.6997090388
 20
249.7258995841
 30
0.0
 10
251.7016198886
 20
249.7193725401
 30
0.0
 10
251.703724467
 20
249.7119775804
 30
0.0
 10
251.7072656387
 20
249.7091509186
 30
0.0
  0
LINE
  5
407
100
AcDbEntity
  8
0
100
AcDbLine
 62
7
  6
CONTINUOUS
 10
252.0745882152
 20
249.8235120549
 11
251.6891845774
 21
249.8235294118
  0
SPLINE
  5
408
100
AcDbEntity
  8
0
100
AcDbSpline
 62
7
  6
CONTINUOUS
 70
0
 71
3
 72
9
 73
5
 74
0
 42
0.0000001
 43
0.0000001
 44
0.0000000001
 40
0.0
 40
0.0
 40
0.0
 40
0.0
 40
0.3288675925
 40
1.0
 40
1.0
 40
1.0
 40
1.0
 10
251.707265637
 20
249.9379079036
 30
0.0
 10
251.6972904345
 20
249.9299454132
 30
0.0
 10
251.6955395944
 20
249.8849626854
 30
0.0
 10
251.690052354
 20
249.8495618235
 30
0.0
 10
251.6891845774
 20
249.8235294118
 30
0.0
  0
SPLINE
  5
409
100
AcDbEntity
  8
0
100
AcDbSpline
 62
7
  6
CONTINUOUS
 70
0
 71
3
 72
9
 73
5
 74
0
 42
0.0000001
 43
0.0000001
 44
0.0000000001
 40
0.0
 40
0.0
 40
0.0
 40
0.0
 40
0.6793322422
 40
1.0
 40
1.0
 40
1.0
 40
1.0
 10
252.2672258136
 20
249.8235293942
 30
0.0
 10
252.2674955843
 20
249.799588246
 30
0.0
 10
252.2699650442
 20
249.7648275824
 30
0.0
 10
252.2683953145
 20
249.7286862038
 30
0.0
 10
252.2719063979
 20
249.717943681
 30
0.0
  0
SPLINE
  5
40A
100
AcDbEntity
  8
0
100
AcDbSpline
 62
7
  6
CONTINUOUS
 70
0
 71
3
 72
9
 73
5
 74
0
 42
0.0000001
 43
0.0000001
 44
0.0000000001
 40
0.0
 40
0.0
 40
0.0
 40
0.0
 40
0.3329756424
 40
1.0
 40
1.0
 40
1.0
 40
1.0
 10
252.2719063979
 20
249.717943681
 30
0.0
 10
252.2762140135
 20
249.7047639207
 30
0.0
 10
252.2901801447
 20
249.6658529498
 30
0.0
 10
252.3057925682
 20
249.6255676849
 30
0.0
 10
252.3242867548
 20
249.6048434967
 30
0.0
  0
SPLINE
  5
40B
100
AcDbEntity
  8
0
100
AcDbSpline
 62
7
  6
CONTINUOUS
 70
0
 71
3
 72
8
 73
4
 74
0
 42
0.0000001
 43
0.0000001
 44
0.0000000001
 40
0.0
 40
0.0
 40
0.0
 40
0.0
 40
1.0
 40
1.0
 40
1.0
 40
1.0
 10
252.3242867548
 20
249.6048434967
 30
0.0
 10
252.3299185102
 20
249.5985326726
 30
0.0
 10
252.3378413091
 20
249.5920713218
 30
0.0
 10
252.3462983398
 20
249.592218971
 30
0.0
  0
SPLINE
  5
40C
100
AcDbEntity
  8
0
100
AcDbSpline
 62
7
  6
CONTINUOUS
 70
0
 71
3
 72
9
 73
5
 74
0
 42
0.0000001
 43
0.0000001
 44
0.0000000001
 40
0.0
 40
0.0
 40
0.0
 40
0.0
 40
0.3209090338
 40
1.0
 40
1.0
 40
1.0
 40
1.0
 10
252.2719063949
 20
249.9291151334
 30
0.0
 10
252.2683926996
 20
249.9183645664
 30
0.0
 10
252.2699789867
 20
249.8822218707
 30
0.0
 10
252.2674954874
 20
249.8474620037
 30
0.0
 10
252.2672258135
 20
249.8235294562
 30
0.0
  0
SPLINE
  5
40D
100
AcDbEntity
  8
0
100
AcDbSpline
 62
7
  6
CONTINUOUS
 70
0
 71
3
 72
9
 73
5
 74
0
 42
0.0000001
 43
0.0000001
 44
0.0000000001
 40
0.0
 40
0.0
 40
0.0
 40
0.0
 40
0.2728948061
 40
1.0
 40
1.0
 40
1.0
 40
1.0
 10
251.7735036793
 20
249.6610491875
 30
0.0
 10
251.784455828
 20
249.6539191768
 30
0.0
 10
251.8252652582
 20
249.6289128598
 30
0.0
 10
251.8692720673
 20
249.608621451
 30
0.0
 10
251.9026540689
 20
249.5987181663
 30
0.0
  0
SPLINE
  5
40E
100
AcDbEntity
  8
0
100
AcDbSpline
 62
7
  6
CONTINUOUS
 70
0
 71
3
 72
8
 73
4
 74
0
 42
0.0000001
 43
0.0000001
 44
0.0000000001
 40
0.0
 40
0.0
 40
0.0
 40
0.0
 40
1.0
 40
1.0
 40
1.0
 40
1.0
 10
251.9026540689
 20
249.5987181663
 30
0.0
 10
251.9307862682
 20
249.5903723163
 30
0.0
 10
251.9604224864
 20
249.5854838579
 30
0.0
 10
251.9897620805
 20
249.5859957856
 30
0.0
  0
LINE
  5
40F
100
AcDbEntity
  8
0
100
AcDbLine
 62
7
  6
CONTINUOUS
 10
252.4038884508
 20
245.2632027859
 11
252.3989196861
 21
245.1224081035
  0
SPLINE
  5
410
100
AcDbEntity
  8
0
100
AcDbSpline
 62
7
  6
CONTINUOUS
 70
0
 71
3
 72
9
 73
5
 74
0
 42
0.0000001
 43
0.0000001
 44
0.0000000001
 40
0.0
 40
0.0
 40
0.0
 40
0.0
 40
0.2288789931
 40
1.0
 40
1.0
 40
1.0
 40
1.0
 10
252.2719062949
 20
242.0850038856
 30
0.0
 10
252.2713200997
 20
242.0724772223
 30
0.0
 10
252.2691208781
 20
242.0177304958
 30
0.0
 10
252.2677427805
 20
241.9629501577
 30
0.0
 10
252.2672258128
 20
241.9207032923
 30
0.0
  0
SPLINE
  5
411
100
AcDbEntity
  8
0
100
AcDbSpline
 62
7
  6
CONTINUOUS
 70
0
 71
3
 72
9
 73
5
 74
0
 42
0.0000001
 43
0.0000001
 44
0.0000000001
 40
0.0
 40
0.0
 40
0.0
 40
0.0
 40
0.2366846613
 40
1.0
 40
1.0
 40
1.0
 40
1.0
 10
252.0694119576
 20
244.2896509783
 30
0.0
 10
252.0434354279
 20
244.1152430169
 30
0.0
 10
251.9306513367
 20
243.3788161128
 30
0.0
 10
251.8066123758
 20
242.6441361054
 30
0.0
 10
251.7072656381
 20
242.0842055852
 30
0.0
  0
SPLINE
  5
412
100
AcDbEntity
  8
0
100
AcDbSpline
 62
7
  6
CONTINUOUS
 70
0
 71
3
 72
9
 73
5
 74
0
 42
0.0000001
 43
0.0000001
 44
0.0000000001
 40
0.0
 40
0.0
 40
0.0
 40
0.0
 40
0.2309068364
 40
1.0
 40
1.0
 40
1.0
 40
1.0
 10
251.707265637
 20
242.0842055453
 30
0.0
 10
251.7049346307
 20
242.0710677363
 30
0.0
 10
251.6963344034
 20
242.0139205011
 30
0.0
 10
251.6908804334
 20
241.9562689597
 30
0.0
 10
251.6891845774
 20
241.9118591217
 30
0.0
  0
SPLINE
  5
413
100
AcDbEntity
  8
0
100
AcDbSpline
 62
7
  6
CONTINUOUS
 70
0
 71
3
 72
9
 73
5
 74
0
 42
0.0000001
 43
0.0000001
 44
0.0000000001
 40
0.0
 40
0.0
 40
0.0
 40
0.0
 40
0.1002045491
 40
1.0
 40
1.0
 40
1.0
 40
1.0
 10
251.6947977629
 20
257.757534197
 30
0.0
 10
251.6940086438
 20
257.7575523054
 30
0.0
 10
251.6880195641
 20
257.7505644546
 30
0.0
 10
251.6896216173
 20
257.7422740441
 30
0.0
 10
251.6891845774
 20
257.7351997019
 30
0.0
  0
SPLINE
  5
414
100
AcDbEntity
  8
0
100
AcDbSpline
 62
7
  6
CONTINUOUS
 70
0
 71
3
 72
9
 73
5
 74
0
 42
0.0000001
 43
0.0000001
 44
0.0000000001
 40
0.0
 40
0.0
 40
0.0
 40
0.0
 40
0.4160692574
 40
1.0
 40
1.0
 40
1.0
 40
1.0
 10
251.6891845774
 20
241.9118591217
 30
0.0
 10
251.6893832429
 20
241.9086433342
 30
0.0
 10
251.6904403246
 20
241.9022978856
 30
0.0
 10
251.6902781362
 20
241.8894209388
 30
0.0
 10
251.694798735
 20
241.8895246438
 30
0.0
  0
LINE
  5
415
100
AcDbEntity
  8
0
100
AcDbLine
 62
7
  6
CONTINUOUS
 10
252.2672258126
 20
241.9207032606
 11
251.6891845774
 21
241.9118591217
  0
SPLINE
  5
416
100
AcDbEntity
  8
0
100
AcDbSpline
 62
7
  6
CONTINUOUS
 70
0
 71
3
 72
8
 73
4
 74
0
 42
0.0000001
 43
0.0000001
 44
0.0000000001
 40
0.0
 40
0.0
 40
0.0
 40
0.0
 40
1.0
 40
1.0
 40
1.0
 40
1.0
 10
206.4654802931
 20
328.4794638629
 30
0.0
 10
206.6321740985
 20
328.4825977214
 30
0.0
 10
206.7988325767
 20
328.4875121624
 30
0.0
 10
206.9654738211
 20
328.4927410693
 30
0.0
  0
SPLINE
  5
417
100
AcDbEntity
  8
0
100
AcDbSpline
 62
7
  6
CONTINUOUS
 70
0
 71
3
 72
9
 73
5
 74
0
 42
0.0000001
 43
0.0000001
 44
0.0000000001
 40
0.0
 40
0.0
 40
0.0
 40
0.0
 40
0.4999560022
 40
1.0
 40
1.0
 40
1.0
 40
1.0
 10
204.9411469137
 20
328.3468948361
 30
0.0
 10
205.19525259
 20
328.3456821775
 30
0.0
 10
205.7035808134
 20
328.353427344
 30
0.0
 10
206.2113702539
 20
328.3767265033
 30
0.0
 10
206.4654802931
 20
328.3814153342
 30
0.0
  0
LINE
  5
418
100
AcDbEntity
  8
0
100
AcDbLine
 62
7
  6
CONTINUOUS
 10
252.3701731002
 20
241.87810689
 11
252.3679848492
 21
241.7960577941
  0
LINE
  5
419
100
AcDbEntity
  8
0
100
AcDbLine
 62
7
  6
CONTINUOUS
 10
252.3231367296
 20
240.2665058404
 11
252.3197677455
 21
240.1612553366
  0
LINE
  5
41A
100
AcDbEntity
  8
0
100
AcDbLine
 62
7
  6
CONTINUOUS
 10
252.0816823249
 20
241.8986007512
 11
252.0693512648
 21
241.7758412478
  0
LINE
  5
41B
100
AcDbEntity
  8
0
100
AcDbLine
 62
7
  6
CONTINUOUS
 10
252.0693538748
 20
257.8712169326
 11
252.0770946383
 21
257.7943599241
  0
SPLINE
  5
41C
100
AcDbEntity
  8
0
100
AcDbSpline
 62
7
  6
CONTINUOUS
 70
0
 71
3
 72
16
 73
12
 74
0
 42
0.0000001
 43
0.0000001
 44
0.0000000001
 40
0.0
 40
0.0
 40
0.0
 40
0.0
 40
0.3929546087
 40
0.5657071633
 40
0.7150760084
 40
0.8364717931
 40
0.9262065009
 40
0.9581674996
 40
0.9812030805
 40
0.9951765318
 40
1.0
 40
1.0
 40
1.0
 40
1.0
 10
165.362711506
 20
327.2312867988
 30
0.0
 10
165.2791662281
 20
327.227555692
 30
0.0
 10
165.1588934905
 20
327.2217964696
 30
0.0
 10
165.0069676745
 20
327.2136091031
 30
0.0
 10
164.9126488334
 20
327.2082067559
 30
0.0
 10
164.8363170967
 20
327.2032402936
 30
0.0
 10
164.7841926214
 20
327.1999385739
 30
0.0
 10
164.7541988839
 20
327.1970395884
 30
0.0
 10
164.7383977468
 20
327.1963697886
 30
0.0
 10
164.7316767253
 20
327.1941198949
 30
0.0
 10
164.7254802931
 20
327.1947511255
 30
0.0
 10
164.7254802931
 20
327.1937245956
 30
0.0
  0
SPLINE
  5
41D
100
AcDbEntity
  8
0
100
AcDbSpline
 62
7
  6
CONTINUOUS
 70
0
 71
3
 72
13
 73
9
 74
0
 42
0.0000001
 43
0.0000001
 44
0.0000000001
 40
0.0
 40
0.0
 40
0.0
 40
0.0
 40
0.0166190022
 40
0.0658463534
 40
0.1471499746
 40
0.2599178039
 40
0.5757087667
 40
1.0
 40
1.0
 40
1.0
 40
1.0
 10
166.7254802931
 20
327.288828293
 30
0.0
 10
166.7254802931
 20
327.2900469233
 30
0.0
 10
166.7177451634
 20
327.2879202088
 30
0.0
 10
166.7097335095
 20
327.2899533351
 30
0.0
 10
166.6903420012
 20
327.2883129096
 30
0.0
 10
166.6539024994
 20
327.2878575347
 30
0.0
 10
166.5907207459
 20
327.2849839436
 30
0.0
 10
166.5367369031
 20
327.2829675604
 30
0.0
 10
166.5056515954
 20
327.2816736206
 30
0.0
  0
SPLINE
  5
41E
100
AcDbEntity
  8
0
100
AcDbSpline
 62
7
  6
CONTINUOUS
 70
0
 71
3
 72
16
 73
12
 74
0
 42
0.0000001
 43
0.0000001
 44
0.0000000001
 40
0.0
 40
0.0
 40
0.0
 40
0.0
 40
0.0048741584
 40
0.0192996536
 40
0.0431177246
 40
0.0761496059
 40
0.1686500152
 40
0.2929455457
 40
0.4444242201
 40
0.6173739562
 40
1.0
 40
1.0
 40
1.0
 40
1.0
 10
198.7254802931
 20
328.3716232625
 30
0.0
 10
198.7254802931
 20
328.372842128
 30
0.0
 10
198.7177566761
 20
328.3707856747
 30
0.0
 10
198.7097446635
 20
328.3730120884
 30
0.0
 10
198.6903701159
 20
328.3717050604
 30
0.0
 10
198.6539499789
 20
328.3719635445
 30
0.0
 10
198.59081711
 20
328.3703173391
 30
0.0
 10
198.4990508482
 20
328.3686282575
 30
0.0
 10
198.3867586119
 20
328.3659782931
 30
0.0
 10
198.2100440006
 20
328.3618228762
 30
0.0
 10
198.0711342836
 20
328.3584487262
 30
0.0
 10
197.9754802931
 20
328.3561296549
 30
0.0
  0
SPLINE
  5
41F
100
AcDbEntity
  8
0
100
AcDbSpline
 62
7
  6
CONTINUOUS
 70
0
 71
3
 72
16
 73
12
 74
0
 42
0.0000001
 43
0.0000001
 44
0.0000000001
 40
0.0
 40
0.0
 40
0.0
 40
0.0
 40
0.0048735002
 40
0.0192986928
 40
0.0431171372
 40
0.0761500244
 40
0.1686536531
 40
0.292952508
 40
0.4444329437
 40
0.6173820644
 40
1.0
 40
1.0
 40
1.0
 40
1.0
 10
194.7254802931
 20
328.2714638603
 30
0.0
 10
194.7254802931
 20
328.2726826289
 30
0.0
 10
194.7177554415
 20
328.2706160609
 30
0.0
 10
194.7097437864
 20
328.2728185789
 30
0.0
 10
194.6903676639
 20
328.271468756
 30
0.0
 10
194.6539459087
 20
328.2716370663
 30
0.0
 10
194.5908103523
 20
328.2698374064
 30
0.0
 10
194.4990420974
 20
328.2679196366
 30
0.0
 10
194.3867492714
 20
328.2649875584
 30
0.0
 10
194.2100377457
 20
328.2603860118
 30
0.0
 10
194.0711314078
 20
328.2566614713
 30
0.0
 10
193.9754802931
 20
328.2541009217
 30
0.0
  0
SPLINE
  5
420
100
AcDbEntity
  8
0
100
AcDbSpline
 62
7
  6
CONTINUOUS
 70
0
 71
3
 72
16
 73
12
 74
0
 42
0.0000001
 43
0.0000001
 44
0.0000000001
 40
0.0
 40
0.0
 40
0.0
 40
0.0
 40
0.0048729202
 40
0.019297886
 40
0.0431168208
 40
0.0761508687
 40
0.1686580756
 40
0.2929605526
 40
0.4444428463
 40
0.6173911888
 40
1.0
 40
1.0
 40
1.0
 40
1.0
 10
190.7254802931
 20
328.1612038759
 30
0.0
 10
190.7254802931
 20
328.1624225746
 30
0.0
 10
190.7177542252
 20
328.1603470071
 30
0.0
 10
190.7097427766
 20
328.1625252371
 30
0.0
 10
190.6903650213
 20
328.1611333972
 30
0.0
 10
190.6539414435
 20
328.1612117611
 30
0.0
 10
190.5908029947
 20
328.1592592684
 30
0.0
 10
190.4990325361
 20
328.1571131456
 30
0.0
 10
190.3867390707
 20
328.1538993577
 30
0.0
 10
190.2100309174
 20
328.1488521933
 30
0.0
 10
190.0711282679
 20
328.1447776651
 30
0.0
 10
189.9754802931
 20
328.141975925
 30
0.0
  0
SPLINE
  5
421
100
AcDbEntity
  8
0
100
AcDbSpline
 62
7
  6
CONTINUOUS
 70
0
 71
3
 72
16
 73
12
 74
0
 42
0.0000001
 43
0.0000001
 44
0.0000000001
 40
0.0
 40
0.0
 40
0.0
 40
0.0
 40
0.0048723857
 40
0.0192971956
 40
0.0431167375
 40
0.0761521015
 40
0.168663247
 40
0.2929696455
 40
0.4444538976
 40
0.6174013057
 40
1.0
 40
1.0
 40
1.0
 40
1.0
 10
186.7254802931
 20
328.0408579074
 30
0.0
 10
186.7254802931
 20
328.042076555
 30
0.0
 10
186.7177529869
 20
328.0399925778
 30
0.0
 10
186.7097416545
 20
328.0421463421
 30
0.0
 10
186.6903621802
 20
328.0407129279
 30
0.0
 10
186.6539365963
 20
328.0407015493
 30
0.0
 10
186.5907950407
 20
328.0385966989
 30
0.0
 10
186.499022177
 20
328.0362226418
 30
0.0
 10
186.3867280212
 20
328.0327276806
 30
0.0
 10
186.2100235245
 20
328.0272357133
 30
0.0
 10
186.0711248676
 20
328.0228118535
 30
0.0
 10
185.9754802931
 20
328.0197693852
 30
0.0
  0
SPLINE
  5
422
100
AcDbEntity
  8
0
100
AcDbSpline
 62
7
  6
CONTINUOUS
 70
0
 71
3
 72
16
 73
12
 74
0
 42
0.0000001
 43
0.0000001
 44
0.0000000001
 40
0.0
 40
0.0
 40
0.0
 40
0.0
 40
0.004871875
 40
0.0192965972
 40
0.0431168627
 40
0.0761536984
 40
0.1686691424
 40
0.2929797606
 40
0.4444660723
 40
0.6174123946
 40
1.0
 40
1.0
 40
1.0
 40
1.0
 10
182.7254802931
 20
327.9104473739
 30
0.0
 10
182.7254802931
 20
327.9116659836
 30
0.0
 10
182.7177516996
 20
327.9095738259
 30
0.0
 10
182.7097404349
 20
327.9117031007
 30
0.0
 10
182.6903591368
 20
327.9102283327
 30
0.0
 10
182.6539313791
 20
327.9101274202
 30
0.0
 10
182.5907864974
 20
327.9078706208
 30
0.0
 10
182.4990110351
 20
327.9052691564
 30
0.0
 10
182.3867161374
 20
327.9014937116
 30
0.0
 10
182.2100155772
 20
327.8955580626
 30
0.0
 10
182.0711212117
 20
327.8907857784
 30
0.0
 10
181.9754802931
 20
327.8875032173
 30
0.0
  0
SPLINE
  5
423
100
AcDbEntity
  8
0
100
AcDbSpline
 62
7
  6
CONTINUOUS
 70
0
 71
3
 72
16
 73
12
 74
0
 42
0.0000001
 43
0.0000001
 44
0.0000000001
 40
0.0
 40
0.0
 40
0.0
 40
0.0
 40
0.0048707943
 40
0.0192937603
 40
0.04311206
 40
0.0761467226
 40
0.1686575543
 40
0.2929631543
 40
0.4444446409
 40
0.6173885561
 40
1.0
 40
1.0
 40
1.0
 40
1.0
 10
178.7254802931
 20
327.7700005732
 30
0.0
 10
178.7254802931
 20
327.771218471
 30
0.0
 10
178.7177547218
 20
327.7691196258
 30
0.0
 10
178.7097479632
 20
327.7712232194
 30
0.0
 10
178.6903755729
 20
327.7697082737
 30
0.0
 10
178.65396544
 20
327.7695182844
 30
0.0
 10
178.5908506289
 20
327.7671114768
 30
0.0
 10
178.4991193555
 20
327.7642849342
 30
0.0
 10
178.3868777091
 20
327.760232035
 30
0.0
 10
178.2102525205
 20
327.7538568488
 30
0.0
 10
178.0714154439
 20
327.7487392706
 30
0.0
 10
177.9758117318
 20
327.7452186683
 30
0.0
  0
SPLINE
  5
424
100
AcDbEntity
  8
0
100
AcDbSpline
 62
7
  6
CONTINUOUS
 70
0
 71
3
 72
9
 73
5
 74
0
 42
0.0000001
 43
0.0000001
 44
0.0000000001
 40
0.0
 40
0.0
 40
0.0
 40
0.0
 40
0.4117062998
 40
1.0
 40
1.0
 40
1.0
 40
1.0
 10
251.0197735988
 20
327.1628583256
 30
0.0
 10
250.9336857858
 20
326.9582491569
 30
0.0
 10
250.5732993909
 20
326.534253568
 30
0.0
 10
250.1402280758
 20
326.2146478467
 30
0.0
 10
249.8750490229
 20
326.0406021797
 30
0.0
  0
SPLINE
  5
425
100
AcDbEntity
  8
0
100
AcDbSpline
 62
7
  6
CONTINUOUS
 70
0
 71
3
 72
16
 73
12
 74
0
 42
0.0000001
 43
0.0000001
 44
0.0000000001
 40
0.0
 40
0.0
 40
0.0
 40
0.0
 40
0.0048708725
 40
0.0192956197
 40
0.0431176817
 40
0.0761579254
 40
0.1686830331
 40
0.2930029703
 40
0.4444937002
 40
0.6174374086
 40
1.0
 40
1.0
 40
1.0
 40
1.0
 10
174.7254802931
 20
327.6195526764
 30
0.0
 10
174.7254802931
 20
327.6207712362
 30
0.0
 10
174.717748914
 20
327.6186624927
 30
0.0
 10
174.7097377436
 20
327.6207431374
 30
0.0
 10
174.6903524424
 20
327.6191858002
 30
0.0
 10
174.6539198797
 20
327.6189065505
 30
0.0
 10
174.5907676864
 20
327.6163470666
 30
0.0
 10
174.4989864722
 20
327.6132928767
 30
0.0
 10
174.3866899377
 20
327.6089592053
 30
0.0
 10
174.2099980688
 20
327.6021407834
 30
0.0
 10
174.0711131549
 20
327.5966753603
 30
0.0
 10
173.9754802931
 20
327.5929152017
 30
0.0
  0
SPLINE
  5
426
100
AcDbEntity
  8
0
100
AcDbSpline
 62
7
  6
CONTINUOUS
 70
0
 71
3
 72
13
 73
9
 74
0
 42
0.0000001
 43
0.0000001
 44
0.0000000001
 40
0.0
 40
0.0
 40
0.0
 40
0.0
 40
0.0166216601
 40
0.0658510743
 40
0.1471550048
 40
0.2599216911
 40
0.5757087452
 40
1.0
 40
1.0
 40
1.0
 40
1.0
 10
170.7254802931
 20
327.4591456754
 30
0.0
 10
170.7254802931
 20
327.4603644911
 30
0.0
 10
170.7177456549
 20
327.4582464512
 30
0.0
 10
170.7097327881
 20
327.4603036141
 30
0.0
 10
170.6903408395
 20
327.4587043497
 30
0.0
 10
170.6538990111
 20
327.4583372632
 30
0.0
 10
170.5907129119
 20
327.4556133762
 30
0.0
 10
170.536724521
 20
327.4537285893
 30
0.0
 10
170.5056363907
 20
327.4525104971
 30
0.0
  0
SPLINE
  5
427
100
AcDbEntity
  8
0
100
AcDbSpline
 62
7
  6
CONTINUOUS
 70
0
 71
3
 72
16
 73
12
 74
0
 42
0.0000001
 43
0.0000001
 44
0.0000000001
 40
0.0
 40
0.0
 40
0.0
 40
0.0
 40
0.0049576311
 40
0.0193924922
 40
0.043266687
 40
0.0764114763
 40
0.1692536585
 40
0.29389696
 40
0.4455533434
 40
0.6184057549
 40
1.0
 40
1.0
 40
1.0
 40
1.0
 10
162.7254802931
 20
327.0136593441
 30
0.0
 10
162.7254802931
 20
327.0149077029
 30
0.0
 10
162.7178015935
 20
327.013768584
 30
0.0
 10
162.709555916
 20
327.0146652533
 30
0.0
 10
162.6901264325
 20
327.0126656112
 30
0.0
 10
162.6534183874
 20
327.0097990234
 30
0.0
 10
162.5900011894
 20
327.0029884455
 30
0.0
 10
162.4979290033
 20
326.9927015647
 30
0.0
 10
162.3855350524
 20
326.9791272619
 30
0.0
 10
162.2091664834
 20
326.9569747224
 30
0.0
 10
162.0707400162
 20
326.9386497321
 30
0.0
 10
161.975531163
 20
326.9256848759
 30
0.0
  0
SPLINE
  5
428
100
AcDbEntity
  8
0
100
AcDbSpline
 62
7
  6
CONTINUOUS
 70
0
 71
3
 72
8
 73
4
 74
0
 42
0.0000001
 43
0.0000001
 44
0.0000000001
 40
0.0
 40
0.0
 40
0.0
 40
0.0
 40
1.0
 40
1.0
 40
1.0
 40
1.0
 10
251.9897620807
 20
250.061063038
 30
0.0
 10
251.9604224873
 20
250.0615749656
 30
0.0
 10
251.9307862699
 20
250.0566865075
 30
0.0
 10
251.9026540712
 20
250.0483406578
 30
0.0
  0
SPLINE
  5
429
100
AcDbEntity
  8
0
100
AcDbSpline
 62
7
  6
CONTINUOUS
 70
0
 71
3
 72
9
 73
5
 74
0
 42
0.0000001
 43
0.0000001
 44
0.0000000001
 40
0.0
 40
0.0
 40
0.0
 40
0.0
 40
0.2289639026
 40
1.0
 40
1.0
 40
1.0
 40
1.0
 10
251.9026540712
 20
250.0483406578
 30
0.0
 10
251.8921397355
 20
250.0452214183
 30
0.0
 10
251.8468479474
 20
250.0294638804
 30
0.0
 10
251.8044549493
 20
250.0061593703
 30
0.0
 10
251.77350368
 20
249.9860096364
 30
0.0
  0
SPLINE
  5
42A
100
AcDbEntity
  8
0
100
AcDbSpline
 62
7
  6
CONTINUOUS
 70
0
 71
3
 72
16
 73
12
 74
0
 42
0.0000001
 43
0.0000001
 44
0.0000000001
 40
0.0
 40
0.0
 40
0.0
 40
0.0
 40
0.3825177672
 40
0.5554154816
 40
0.706861323
 40
0.8311583881
 40
0.9236956892
 40
0.9567575131
 40
0.9806103329
 40
0.9950762121
 40
1.0
 40
1.0
 40
1.0
 40
1.0
 10
169.4749912602
 20
327.4096741925
 30
0.0
 10
169.3794018572
 20
327.4056489869
 30
0.0
 10
169.2405860788
 20
327.3998480341
 30
0.0
 10
169.0639952471
 20
327.3922580006
 30
0.0
 10
168.951782107
 20
327.3874296024
 30
0.0
 10
168.8600636001
 20
327.3830325427
 30
0.0
 10
168.7969801134
 20
327.3804702978
 30
0.0
 10
168.7605594215
 20
327.3777708474
 30
0.0
 10
168.7412242573
 20
327.3777293148
 30
0.0
 10
168.7331537858
 20
327.3749783003
 30
0.0
 10
168.7254802931
 20
327.3764539989
 30
0.0
 10
168.7254802931
 20
327.3752224769
 30
0.0
  0
SPLINE
  5
42B
100
AcDbEntity
  8
0
100
AcDbSpline
 62
7
  6
CONTINUOUS
 70
0
 71
3
 72
16
 73
12
 74
0
 42
0.0000001
 43
0.0000001
 44
0.0000000001
 40
0.0
 40
0.0
 40
0.0
 40
0.0
 40
0.3824853415
 40
0.5553893285
 40
0.7068452475
 40
0.8311519553
 40
0.9236961013
 40
0.956759863
 40
0.9806133204
 40
0.9950785492
 40
1.0
 40
1.0
 40
1.0
 40
1.0
 10
173.4754802931
 20
327.5731781225
 30
0.0
 10
173.3798378042
 20
327.5693878491
 30
0.0
 10
173.2409397954
 20
327.5639267915
 30
0.0
 10
173.0642396472
 20
327.5567714399
 30
0.0
 10
172.9519474754
 20
327.5522204683
 30
0.0
 10
172.8601631547
 20
327.5480501078
 30
0.0
 10
172.7970325761
 20
327.5456479313
 30
0.0
 10
172.7605860793
 20
327.5430393556
 30
0.0
 10
172.7412348216
 20
327.5430530733
 30
0.0
 10
172.7331620928
 20
327.5403173025
 30
0.0
 10
172.7254802931
 20
327.5418227761
 30
0.0
 10
172.7254802931
 20
327.5405911752
 30
0.0
  0
SPLINE
  5
42C
100
AcDbEntity
  8
0
100
AcDbSpline
 62
7
  6
CONTINUOUS
 70
0
 71
3
 72
9
 73
5
 74
0
 42
0.0000001
 43
0.0000001
 44
0.0000000001
 40
0.0
 40
0.0
 40
0.0
 40
0.0
 40
0.3146241401
 40
1.0
 40
1.0
 40
1.0
 40
1.0
 10
252.3462983274
 20
250.0548398527
 30
0.0
 10
252.3306371418
 20
250.0551132775
 30
0.0
 10
252.2964765372
 20
250.0036627919
 30
0.0
 10
252.2825066958
 20
249.9615482569
 30
0.0
 10
252.2719063949
 20
249.9291151334
 30
0.0
  0
SPLINE
  5
42D
100
AcDbEntity
  8
0
100
AcDbSpline
 62
7
  6
CONTINUOUS
 70
0
 71
3
 72
16
 73
12
 74
0
 42
0.0000001
 43
0.0000001
 44
0.0000000001
 40
0.0
 40
0.0
 40
0.0
 40
0.0
 40
0.3825449221
 40
0.5554518983
 40
0.7068998687
 40
0.8311918077
 40
0.9237191726
 40
0.9567751971
 40
0.9806221653
 40
0.99508235
 40
1.0
 40
1.0
 40
1.0
 40
1.0
 10
177.4751098899
 20
327.7267020584
 30
0.0
 10
177.3795008881
 20
327.7231514281
 30
0.0
 10
177.240657595
 20
327.7180372034
 30
0.0
 10
177.0640329258
 20
327.7113256811
 30
0.0
 10
176.9518018242
 20
327.7070587998
 30
0.0
 10
176.8600733197
 20
327.7031213755
 30
0.0
 10
176.7969825955
 20
327.7008828669
 30
0.0
 10
176.7605619038
 20
327.6983690175
 30
0.0
 10
176.7412225426
 20
327.6984378556
 30
0.0
 10
176.7331591552
 20
327.6957214427
 30
0.0
 10
176.7254802931
 20
327.697254206
 30
0.0
 10
176.7254802931
 20
327.6960242963
 30
0.0
  0
SPLINE
  5
42E
100
AcDbEntity
  8
0
100
AcDbSpline
 62
7
  6
CONTINUOUS
 70
0
 71
3
 72
18
 73
14
 74
0
 42
0.0000001
 43
0.0000001
 44
0.0000000001
 40
0.0
 40
0.0
 40
0.0
 40
0.0
 40
0.2693099231
 40
0.4897495765
 40
0.6614383991
 40
0.7912081243
 40
0.8851097721
 40
0.9200217321
 40
0.9475122797
 40
0.9679840019
 40
0.982071607
 40
0.9912939306
 40
1.0
 40
1.0
 40
1.0
 40
1.0
 10
251.6287852653
 20
179.0349627134
 30
0.0
 10
251.6274046822
 20
179.2264375779
 30
0.0
 10
251.6225854461
 20
179.5746342653
 30
0.0
 10
251.6084184547
 20
180.0447238728
 30
0.0
 10
251.5895286798
 20
180.4153628682
 30
0.0
 10
251.5668760739
 20
180.6955766196
 30
0.0
 10
251.5442590411
 20
180.8781773674
 30
0.0
 10
251.5231937525
 20
180.9873564409
 30
0.0
 10
251.5086104575
 20
181.0444665948
 30
0.0
 10
251.4931022041
 20
181.0860150564
 30
0.0
 10
251.4780065638
 20
181.1131383907
 30
0.0
 10
251.4576804674
 20
181.1278793617
 30
0.0
 10
251.444039169
 20
181.1225172099
 30
0.0
 10
251.4390829811
 20
181.1188087484
 30
0.0
  0
SPLINE
  5
42F
100
AcDbEntity
  8
0
100
AcDbSpline
 62
7
  6
CONTINUOUS
 70
0
 71
3
 72
9
 73
5
 74
0
 42
0.0000001
 43
0.0000001
 44
0.0000000001
 40
0.0
 40
0.0
 40
0.0
 40
0.0
 40
0.275369077
 40
1.0
 40
1.0
 40
1.0
 40
1.0
 10
251.725024236
 20
172.2735294118
 30
0.0
 10
251.725024236
 20
172.3384726257
 30
0.0
 10
251.7250238381
 20
172.5743132003
 30
0.0
 10
251.7250386804
 20
172.8101541056
 30
0.0
 10
251.7246947372
 20
172.9810511657
 30
0.0
  0
SPLINE
  5
430
100
AcDbEntity
  8
0
100
AcDbSpline
 62
7
  6
CONTINUOUS
 70
0
 71
3
 72
13
 73
9
 74
0
 42
0.0000001
 43
0.0000001
 44
0.0000000001
 40
0.0
 40
0.0
 40
0.0
 40
0.0
 40
0.4242855699
 40
0.7400250001
 40
0.8527800162
 40
0.9340884164
 40
0.9833451952
 40
1.0
 40
1.0
 40
1.0
 40
1.0
 10
251.7246947372
 20
172.9810511657
 30
0.0
 10
251.7246114737
 20
173.0224228083
 30
0.0
 10
251.7241692851
 20
173.0942642482
 30
0.0
 10
251.7244494788
 20
173.1783277164
 30
0.0
 10
251.7229549902
 20
173.2268057702
 30
0.0
 10
251.7241601076
 20
173.2525885794
 30
0.0
 10
251.7208765701
 20
173.2632579917
 30
0.0
 10
251.7235053464
 20
173.2735294118
 30
0.0
 10
251.7218813505
 20
173.2735294118
 30
0.0
  0
SPLINE
  5
431
100
AcDbEntity
  8
0
100
AcDbSpline
 62
7
  6
CONTINUOUS
 70
0
 71
3
 72
16
 73
12
 74
0
 42
0.0000001
 43
0.0000001
 44
0.0000000001
 40
0.0
 40
0.0
 40
0.0
 40
0.0
 40
0.3825233881
 40
0.5554358794
 40
0.7068915943
 40
0.8311903327
 40
0.9237219495
 40
0.9567788819
 40
0.9806257504
 40
0.995084844
 40
1.0
 40
1.0
 40
1.0
 40
1.0
 10
181.4754802931
 20
327.870263998
 30
0.0
 10
181.3798305968
 20
327.8669511581
 30
0.0
 10
181.2409244795
 20
327.8621809833
 30
0.0
 10
181.0642164772
 20
327.8559095938
 30
0.0
 10
180.9519255861
 20
327.8519238433
 30
0.0
 10
180.860147729
 20
327.8482162893
 30
0.0
 10
180.7970215366
 20
327.8461402271
 30
0.0
 10
180.7605818945
 20
327.8437187762
 30
0.0
 10
180.7412300993
 20
327.8438438378
 30
0.0
 10
180.7331660192
 20
327.8411431021
 30
0.0
 10
180.7254802931
 20
327.8427062376
 30
0.0
 10
180.7254802931
 20
327.8414764694
 30
0.0
  0
SPLINE
  5
432
100
AcDbEntity
  8
0
100
AcDbSpline
 62
7
  6
CONTINUOUS
 70
0
 71
3
 72
16
 73
12
 74
0
 42
0.0000001
 43
0.0000001
 44
0.0000000001
 40
0.0
 40
0.0
 40
0.0
 40
0.0
 40
0.3825408979
 40
0.5554573736
 40
0.7069131017
 40
0.8312082844
 40
0.9237341916
 40
0.9567879672
 40
0.9806317525
 40
0.9950879276
 40
1.0
 40
1.0
 40
1.0
 40
1.0
 10
185.4754802931
 20
328.0037857227
 30
0.0
 10
185.3798273588
 20
328.0007129217
 30
0.0
 10
185.2409176051
 20
327.9962900928
 30
0.0
 10
185.0642060713
 20
327.9904631721
 30
0.0
 10
184.9519157449
 20
327.9867616432
 30
0.0
 10
184.8601408429
 20
327.9832868195
 30
0.0
 10
184.7970165392
 20
327.9813748773
 30
0.0
 10
184.7605800857
 20
327.9790475468
 30
0.0
 10
184.7412278735
 20
327.9792288175
 30
0.0
 10
184.7331680419
 20
327.9765455218
 30
0.0
 10
184.7254802931
 20
327.9781379832
 30
0.0
 10
184.7254802931
 20
327.9769091041
 30
0.0
  0
SPLINE
  5
433
100
AcDbEntity
  8
0
100
AcDbSpline
 62
7
  6
CONTINUOUS
 70
0
 71
3
 72
10
 73
6
 74
0
 42
0.0000001
 43
0.0000001
 44
0.0000000001
 40
0.0
 40
0.0
 40
0.0
 40
0.0
 40
0.1740750717
 40
0.4092352792
 40
1.0
 40
1.0
 40
1.0
 40
1.0
 10
249.8750490229
 20
326.0406021797
 30
0.0
 10
249.817800173
 20
326.0030278911
 30
0.0
 10
249.6672220138
 20
325.9405513914
 30
0.0
 10
249.2849850658
 20
325.8470633821
 30
0.0
 10
248.9578770337
 20
325.8235294118
 30
0.0
 10
248.7254802931
 20
325.8235294118
 30
0.0
  0
SPLINE
  5
434
100
AcDbEntity
  8
0
100
AcDbSpline
 62
7
  6
CONTINUOUS
 70
0
 71
3
 72
16
 73
12
 74
0
 42
0.0000001
 43
0.0000001
 44
0.0000000001
 40
0.0
 40
0.0
 40
0.0
 40
0.0
 40
0.3825573467
 40
0.5554776126
 40
0.7069334244
 40
0.83122534
 40
0.9237459181
 40
0.9567967168
 40
0.98063757
 40
0.9950909394
 40
1.0
 40
1.0
 40
1.0
 40
1.0
 10
189.4754802931
 20
328.1272510614
 30
0.0
 10
189.3798243703
 20
328.1244189539
 30
0.0
 10
189.240911265
 20
328.1203444175
 30
0.0
 10
189.0641964689
 20
328.1149631944
 30
0.0
 10
188.951906657
 20
328.1115466614
 30
0.0
 10
188.8601345159
 20
328.108305203
 30
0.0
 10
188.7970119031
 20
328.1065578217
 30
0.0
 10
188.7605784617
 20
328.1043248571
 30
0.0
 10
188.7412257535
 20
328.1045624709
 30
0.0
 10
188.7331700734
 20
328.1018966377
 30
0.0
 10
188.7254802931
 20
328.1035184777
 30
0.0
 10
188.7254802931
 20
328.1022904619
 30
0.0
  0
SPLINE
  5
435
100
AcDbEntity
  8
0
100
AcDbSpline
 62
7
  6
CONTINUOUS
 70
0
 71
3
 72
9
 73
5
 74
0
 42
0.0000001
 43
0.0000001
 44
0.0000000001
 40
0.0
 40
0.0
 40
0.0
 40
0.0
 40
0.2687192159
 40
1.0
 40
1.0
 40
1.0
 40
1.0
 10
252.2141818691
 20
245.3003183331
 30
0.0
 10
252.2111849368
 20
245.300395871
 30
0.0
 10
252.2108635744
 20
245.2834683602
 30
0.0
 10
252.2079349414
 20
245.2759096348
 30
0.0
 10
252.2068714486
 20
245.2678207972
 30
0.0
  0
SPLINE
  5
436
100
AcDbEntity
  8
0
100
AcDbSpline
 62
7
  6
CONTINUOUS
 70
0
 71
3
 72
16
 73
12
 74
0
 42
0.0000001
 43
0.0000001
 44
0.0000000001
 40
0.0
 40
0.0
 40
0.0
 40
0.0
 40
0.3825726945
 40
0.5554965429
 40
0.7069525018
 40
0.8312414386
 40
0.9237570741
 40
0.9568050813
 40
0.9806431612
 40
0.9950938498
 40
1.0
 40
1.0
 40
1.0
 40
1.0
 10
193.4754802931
 20
328.2406372041
 30
0.0
 10
193.3798216346
 20
328.2380462717
 30
0.0
 10
193.2409054661
 20
328.2343207304
 30
0.0
 10
193.0641876798
 20
328.2293861009
 30
0.0
 10
192.9518983328
 20
328.2262550944
 30
0.0
 10
192.8601287502
 20
328.2232474297
 30
0.0
 10
192.7970076384
 20
328.2216647954
 30
0.0
 10
192.760577016
 20
328.2195263274
 30
0.0
 10
192.7412237549
 20
328.2198201733
 30
0.0
 10
192.733172081
 20
328.217171921
 30
0.0
 10
192.7254802931
 20
328.2188228732
 30
0.0
 10
192.7254802931
 20
328.2175956872
 30
0.0
  0
SPLINE
  5
437
100
AcDbEntity
  8
0
100
AcDbSpline
 62
7
  6
CONTINUOUS
 70
0
 71
3
 72
16
 73
12
 74
0
 42
0.0000001
 43
0.0000001
 44
0.0000000001
 40
0.0
 40
0.0
 40
0.0
 40
0.0
 40
0.3825868986
 40
0.5555141068
 40
0.7069702667
 40
0.8312565098
 40
0.923767593
 40
0.9568129994
 40
0.9806484732
 40
0.9950966199
 40
1.0
 40
1.0
 40
1.0
 40
1.0
 10
197.4754802931
 20
328.3439285281
 30
0.0
 10
197.3798191541
 20
328.3415790782
 30
0.0
 10
197.2409002134
 20
328.3382029905
 30
0.0
 10
197.0641797108
 20
328.3337155082
 30
0.0
 10
196.9518907807
 20
328.330870293
 30
0.0
 10
196.8601235449
 20
328.3280966222
 30
0.0
 10
196.7970037563
 20
328.3266786
 30
0.0
 10
196.7605757384
 20
328.3246346208
 30
0.0
 10
196.7412218983
 20
328.3249842477
 30
0.0
 10
196.7331740205
 20
328.3223538407
 30
0.0
 10
196.7254802931
 20
328.3240331828
 30
0.0
 10
196.7254802931
 20
328.3228067833
 30
0.0
  0
SPLINE
  5
438
100
AcDbEntity
  8
0
100
AcDbSpline
 62
7
  6
CONTINUOUS
 70
0
 71
3
 72
13
 73
9
 74
0
 42
0.0000001
 43
0.0000001
 44
0.0000000001
 40
0.0
 40
0.0
 40
0.0
 40
0.0
 40
0.0166593664
 40
0.0659291585
 40
0.1472522134
 40
0.2600168471
 40
0.5757570354
 40
1.0
 40
1.0
 40
1.0
 40
1.0
 10
251.7218813505
 20
154.3735294118
 30
0.0
 10
251.723510386
 20
154.3735294118
 30
0.0
 10
251.7208645831
 20
154.3838337221
 30
0.0
 10
251.7241549526
 20
154.3945350056
 30
0.0
 10
251.7229364839
 20
154.4203952296
 30
0.0
 10
251.7244309605
 20
154.4690126425
 30
0.0
 10
251.7241615581
 20
154.5533107363
 30
0.0
 10
251.7246115775
 20
154.6253512847
 30
0.0
 10
251.724695531
 20
154.6668357821
 30
0.0
  0
SPLINE
  5
439
100
AcDbEntity
  8
0
100
AcDbSpline
 62
7
  6
CONTINUOUS
 70
0
 71
3
 72
9
 73
5
 74
0
 42
0.0000001
 43
0.0000001
 44
0.0000000001
 40
0.0
 40
0.0
 40
0.0
 40
0.0
 40
0.2582976558
 40
1.0
 40
1.0
 40
1.0
 40
1.0
 10
252.4058359705
 20
245.295840374
 30
0.0
 10
252.4030218983
 20
245.2959476032
 30
0.0
 10
252.4078384303
 20
245.278036331
 30
0.0
 10
252.4041706494
 20
245.2712843376
 30
0.0
 10
252.4038884507
 20
245.2632027838
 30
0.0
  0
SPLINE
  5
43A
100
AcDbEntity
  8
0
100
AcDbSpline
 62
7
  6
CONTINUOUS
 70
0
 71
3
 72
16
 73
12
 74
0
 42
0.0000001
 43
0.0000001
 44
0.0000000001
 40
0.0
 40
0.0
 40
0.0
 40
0.0
 40
0.3796584162
 40
0.55180452
 40
0.7031016222
 40
0.8278422318
 40
0.9212359435
 40
0.9548170657
 40
0.9792168898
 40
0.9942656081
 40
1.0
 40
1.0
 40
1.0
 40
1.0
 10
161.4754802931
 20
326.8541579154
 30
0.0
 10
161.3801557382
 20
326.8398669568
 30
0.0
 10
161.241662011
 20
326.8186490729
 30
0.0
 10
161.065452042
 20
326.7902808278
 30
0.0
 10
160.9531462107
 20
326.7715436877
 30
0.0
 10
160.8609713322
 20
326.7552695147
 30
0.0
 10
160.7977163485
 20
326.7435344448
 30
0.0
 10
160.7607389309
 20
326.7354389415
 30
0.0
 10
160.74164433
 20
326.7313484211
 30
0.0
 10
160.7325531405
 20
326.7278080202
 30
0.0
 10
160.7254802931
 20
326.7261936012
 30
0.0
 10
160.7254802931
 20
326.7247377211
 30
0.0
  0
ENDSEC
  0
SECTION
  2
OBJECTS
  0
DICTIONARY
  5
C
100
AcDbDictionary
280
0
281
1
  3
ACAD_GROUP
350
D
  3
ACAD_MLINESTYLE
350
17
  3
ACAD_LAYOUT
350
1A
  3
ACAD_PLOTSETTINGS
350
19
  3
ACAD_PLOTSTYLENAME
350
E
  0
DICTIONARY
  5
D
102
{ACAD_REACTORS
330
C
102
}
100
AcDbDictionary
280
0
281
1
  0
ACDBDICTIONARYWDFLT
  5
E
102
{ACAD_REACTORS
330
C
102
}
100
AcDbDictionary
281
1
  3
Normal
350
F
100
AcDbDictionaryWithDefault
340
F
  0
DICTIONARY
  5
17
102
{ACAD_REACTORS
330
C
102
}
100
AcDbDictionary
280
0
281
1
  3
Standard
350
18
  0
DICTIONARY
  5
19
102
{ACAD_REACTORS
330
C
102
}
100
AcDbDictionary
281
1
  0
DICTIONARY
  5
1A
102
{ACAD_REACTORS
330
C
102
}
100
AcDbDictionary
281
1
  3
Model
350
43B
  3
Layout1
350
43C
  0
ACDBPLACEHOLDER
  5
F
102
{ACAD_REACTORS
330
E
102
}
  0
MLINESTYLE
  5
18
102
{ACAD_REACTORS
330
17
102
}
100
AcDbMlineStyle
  2
STANDARD
 70
0
  3

 62
256
 51
90.0
 52
90.0
 71
2
 49
0.5
 62
256
  6
BYLAYER
 49
-0.5
 62
256
  6
BYLAYER
  0
LAYOUT
  5
43B
102
{ACAD_REACTORS
330
1A
102
}
100
AcDbPlotSettings
  1

  2
none_device
  4

  6

 40
0.0
 41
0.0
 42
0.0
 43
0.0
 44
210.0
 45
297.0
 46
0.0
 47
0.0
 48
0.0
 49
0.0
140
0.0
141
0.0
142
1.0
143
1.0
 70
1024
 72
1
 73
0
 74
0
  7

 75
0
147
1.0
148
0.0
149
0.0
100
AcDbLayout
  1
Model
 70
0
 71
0
 10
0.0
 20
0.0
 11
210.0
 21
297.0
 12
0.0
 22
0.0
 32
0.0
 14
0.0
 24
0.0
 34
0.0
 15
0.0
 25
0.0
 35
0.0
146
0.0
 13
0.0
 23
0.0
 33
0.0
 16
1.0
 26
0.0
 36
0.0
 17
0.0
 27
1.0
 37
0.0
 76
0
330
211
345
0
346
0
  0
LAYOUT
  5
43C
102
{ACAD_REACTORS
330
1A
102
}
100
AcDbPlotSettings
  1

  2
none_device
  4

  6

 40
0.0
 41
0.0
 42
0.0
 43
0.0
 44
210.0
 45
297.0
 46
0.0
 47
0.0
 48
0.0
 49
0.0
140
0.0
141
0.0
142
1.0
143
1.0
 70
0
 72
1
 73
0
 74
0
  7

 75
0
147
1.0
148
0.0
149
0.0
100
AcDbLayout
  1
Layout1
 70
0
 71
1
 10
0.0
 20
0.0
 11
210.0
 21
297.0
 12
0.0
 22
0.0
 32
0.0
 14
0.0
 24
0.0
 34
0.0
 15
0.0
 25
0.0
 35
0.0
146
0.0
 13
0.0
 23
0.0
 33
0.0
 16
1.0
 26
0.0
 36
0.0
 17
0.0
 27
1.0
 37
0.0
 76
0
330
212
345
0
346
0
  0
ENDSEC
  0
EOF
