999
DXF file: C:\Users\sesa63760\Dev\_Creo\CAD\MCADUE0001352_3D-CAD\drw0001_4.dxf
999
Pro/ENGINEER 2019471 by Parametric Technology Corporation
  0
SECTION
  2
HEADER
  9
$ACADVER
  1
AC1024
  9
$DWGCODEPAGE
  3
ANSI_1252
  9
$EXTMAX
 10
997.4275125354
 20
1410.6474820144
 30
0.0
  9
$EXTMIN
 10
0.0
 20
0.0
 30
0.0
  9
$LIMMIN
 10
0.0
 20
0.0
  9
$LIMMAX
 10
997.4275125354
 20
1410.6474820144
  9
$VIEWCTR
 10
498.7137562677
 20
705.3237410072
  9
$VIEWSIZE
 40
1410.6474820144
  9
$CLAYER
  8
0
  9
$LTSCALE
 40
91.9533173461
  9
$CELTYPE
  6
BYLAYER
  9
$DIMSCALE
 40
1.0
  9
$DIMASZ
 40
11.874137054
  9
$DIMEXO
 40
1.0
  9
$DIMDLI
 40
63.5313828937
  9
$DIMEXE
 40
1.0
  9
$DIMCEN
 40
15.0469064748
  9
$DIMLFAC
 40
1.0
  9
$DIMBLK
  1
_FILLED
  9
$DIMALT
 70
0
  9
$DIMALTF
 40
0.0393700787
  9
$DIMTXT
 40
16.6237918756
  9
$DIMTOL
 70
1
  9
$DIMLIM
 70
0
  9
$DIMTFAC
 40
1.0
  9
$DIMTP
 40
0.01
  9
$DIMTM
 40
0.01
  9
$DIMGAP
 40
0.625
  9
$DIMDSEP
 70
46
  9
$AUNITS
 70
0
  9
$PDMODE
 70
3
  9
$PDSIZE
 40
0.3125
  9
$HANDSEED
  5
51F
  9
$TILEMODE
 70
1
  9
$MEASUREMENT
 70
1
  9
$INSUNITS
 70
4
  0
ENDSEC
  0
SECTION
  2
CLASSES
  0
CLASS
  1
ACDBDICTIONARYWDFLT
  2
AcDbDictionaryWithDefault
  3
AutoCAD 2000
 90
0
 91
1
280
0
281
0
  0
CLASS
  1
ACDBPLACEHOLDER
  2
AcDbPlaceHolder
  3
AutoCAD 2000
 90
0
 91
1
280
0
281
0
  0
CLASS
  1
LAYOUT
  2
AcDbLayout
  3
AutoCAD 2000
 90
0
 91
0
280
0
281
0
  0
ENDSEC
  0
SECTION
  2
TABLES
  0
TABLE
  2
VPORT
  5
8
100
AcDbSymbolTable
 70
2
  0
VPORT
  5
1F4
100
AcDbSymbolTableRecord
100
AcDbViewportTableRecord
  2
*ACTIVE
 70
0
 10
0.0
 20
0.0
 11
1.0
 21
1.0
 12
498.7137562677
 22
705.3237410072
 13
0.0
 23
0.0
 14
1.0
 24
1.0
 15
0.0
 25
0.0
 16
0.0
 26
0.0
 36
1.0
 17
0.0
 27
0.0
 37
0.0
 40
1410.6474820144
 41
0.7070707071
 42
50.0
 43
0.0
 44
0.0
 50
0.0
 51
0.0
 71
0
 72
100
 73
1
 74
1
 75
0
 76
0
 77
0
 78
0
  0
ENDTAB
  0
TABLE
  2
LTYPE
  5
5
100
AcDbSymbolTable
 70
6
  0
LTYPE
  5
14
100
AcDbSymbolTableRecord
100
AcDbLinetypeTableRecord
  2
BYBLOCK
 70
0
  3

 72
65
 73
0
 40
0.0
  0
LTYPE
  5
15
100
AcDbSymbolTableRecord
100
AcDbLinetypeTableRecord
  2
BYLAYER
 70
0
  3

 72
65
 73
0
 40
0.0
  0
LTYPE
  5
16
100
AcDbSymbolTableRecord
100
AcDbLinetypeTableRecord
  2
CONTINUOUS
 70
64
  3
Solid line
 72
65
 73
0
 40
0.0
  0
LTYPE
  5
1F5
100
AcDbSymbolTableRecord
100
AcDbLinetypeTableRecord
  2
CENTER
 70
64
  3
____ _ ____ _ ____ _ ____ _ ____ _ ____ _ ____
 72
65
 73
4
 40
0.6
 49
0.375
 74
0
 49
-0.075
 74
0
 49
0.075
 74
0
 49
-0.075
 74
0
  0
LTYPE
  5
1F6
100
AcDbSymbolTableRecord
100
AcDbLinetypeTableRecord
  2
HIDDEN
 70
64
  3
- - - - - - - - - - - - - - - - - - - -
 72
65
 73
2
 40
0.2
 49
0.1
 74
0
 49
-0.1
 74
0
  0
LTYPE
  5
1F7
100
AcDbSymbolTableRecord
100
AcDbLinetypeTableRecord
  2
PHANTOM
 70
64
  3
_____ _ _ _____ _ _ _____ _ _ _____
 72
65
 73
6
 40
0.8
 49
0.45
 74
0
 49
-0.05
 74
0
 49
0.1
 74
0
 49
-0.05
 74
0
 49
0.1
 74
0
 49
-0.05
 74
0
  0
LTYPE
  5
1F8
100
AcDbSymbolTableRecord
100
AcDbLinetypeTableRecord
  2
DOT
 70
64
  3
. . . . . . . . . . . . . . . . . . . .
 72
65
 73
2
 40
0.2
 49
0.1
 74
0
 49
-0.1
 74
0
  0
LTYPE
  5
1F9
100
AcDbSymbolTableRecord
100
AcDbLinetypeTableRecord
  2
DASHED
 70
64
  3
- - - - - - - - - - - - - - - - - - - -
 72
65
 73
2
 40
0.2
 49
0.1
 74
0
 49
-0.1
 74
0
  0
ENDTAB
  0
TABLE
  2
LAYER
  5
2
100
AcDbSymbolTable
 70
36
  0
LAYER
  5
10
100
AcDbSymbolTableRecord
100
AcDbLayerTableRecord
  2
0
 70
0
 62
7
  6
CONTINUOUS
370
-3
390
F
  0
LAYER
  5
1FA
100
AcDbSymbolTableRecord
100
AcDbLayerTableRecord
  2
DEFAULT_1
 70
0
 62
7
  6
CENTER
370
-3
390
F
  0
LAYER
  5
1FB
100
AcDbSymbolTableRecord
100
AcDbLayerTableRecord
  2
DEFAULT_2
 70
0
 62
8
  6
HIDDEN
370
-3
390
F
  0
LAYER
  5
1FC
100
AcDbSymbolTableRecord
100
AcDbLayerTableRecord
  2
DEFAULT_3
 70
0
 62
7
  6
PHANTOM
370
-3
390
F
  0
LAYER
  5
1FD
100
AcDbSymbolTableRecord
100
AcDbLayerTableRecord
  2
00_COMPONENTS
 70
0
 62
7
  6
CONTINUOUS
370
-3
390
F
  0
LAYER
  5
1FE
100
AcDbSymbolTableRecord
100
AcDbLayerTableRecord
  2
01_1_DEFAULT_DATUMS
 70
0
 62
7
  6
CONTINUOUS
370
-3
390
F
  0
LAYER
  5
1FF
100
AcDbSymbolTableRecord
100
AcDbLayerTableRecord
  2
01_PLANES
 70
0
 62
7
  6
CONTINUOUS
370
-3
390
F
  0
LAYER
  5
200
100
AcDbSymbolTableRecord
100
AcDbLayerTableRecord
  2
02_COORD_SYS
 70
0
 62
7
  6
CONTINUOUS
370
-3
390
F
  0
LAYER
  5
201
100
AcDbSymbolTableRecord
100
AcDbLayerTableRecord
  2
03_AXES
 70
0
 62
7
  6
CONTINUOUS
370
-3
390
F
  0
LAYER
  5
202
100
AcDbSymbolTableRecord
100
AcDbLayerTableRecord
  2
04_POINTS
 70
0
 62
7
  6
CONTINUOUS
370
-3
390
F
  0
LAYER
  5
203
100
AcDbSymbolTableRecord
100
AcDbLayerTableRecord
  2
05_CURVES
 70
0
 62
7
  6
CONTINUOUS
370
-3
390
F
  0
LAYER
  5
204
100
AcDbSymbolTableRecord
100
AcDbLayerTableRecord
  2
06_SURFS
 70
0
 62
7
  6
CONTINUOUS
370
-3
390
F
  0
LAYER
  5
205
100
AcDbSymbolTableRecord
100
AcDbLayerTableRecord
  2
07_COSMETICS
 70
0
 62
7
  6
CONTINUOUS
370
-3
390
F
  0
LAYER
  5
206
100
AcDbSymbolTableRecord
100
AcDbLayerTableRecord
  2
10_NOTES
 70
0
 62
7
  6
CONTINUOUS
370
-3
390
F
  0
LAYER
  5
207
100
AcDbSymbolTableRecord
100
AcDbLayerTableRecord
  2
11_NOTES_PUB
 70
0
 62
7
  6
CONTINUOUS
370
-3
390
F
  0
LAYER
  5
208
100
AcDbSymbolTableRecord
100
AcDbLayerTableRecord
  2
13_REF_GTOL
 70
0
 62
7
  6
CONTINUOUS
370
-3
390
F
  0
LAYER
  5
209
100
AcDbSymbolTableRecord
100
AcDbLayerTableRecord
  2
16_MISC
 70
0
 62
7
  6
CONTINUOUS
370
-3
390
F
  0
LAYER
  5
20A
100
AcDbSymbolTableRecord
100
AcDbLayerTableRecord
  2
17_NO_PRINT
 70
0
 62
7
  6
CONTINUOUS
370
-3
390
F
  0
LAYER
  5
20B
100
AcDbSymbolTableRecord
100
AcDbLayerTableRecord
  2
18_DATUM_CAMS_JOINTS
 70
0
 62
7
  6
CONTINUOUS
370
-3
390
F
  0
LAYER
  5
20C
100
AcDbSymbolTableRecord
100
AcDbLayerTableRecord
  2
19_DATUM_FUNCTIONAL
 70
0
 62
7
  6
CONTINUOUS
370
-3
390
F
  0
LAYER
  5
20D
100
AcDbSymbolTableRecord
100
AcDbLayerTableRecord
  2
20_DATUM_KINEMATIC_SCHEME
 70
0
 62
7
  6
CONTINUOUS
370
-3
390
F
  0
ENDTAB
  0
TABLE
  2
STYLE
  5
3
100
AcDbSymbolTable
 70
1
  0
STYLE
  5
11
100
AcDbSymbolTableRecord
100
AcDbTextStyleTableRecord
  2
STANDARD
 70
0
 40
0.0
 41
0.8
 50
0.0
 71
0
 42
0.2
  3
txt
  4

  0
STYLE
  5
20E
100
AcDbSymbolTableRecord
100
AcDbTextStyleTableRecord
  2
TEXTSTYLE_1
 70
0
 40
0.0
 41
0.8
 50
0.0
 71
0
 42
0.2
  3
gdt
  4

  0
ENDTAB
  0
TABLE
  2
VIEW
  5
6
100
AcDbSymbolTable
 70
0
  0
ENDTAB
  0
TABLE
  2
UCS
  5
7
100
AcDbSymbolTable
 70
0
  0
ENDTAB
  0
TABLE
  2
APPID
  5
9
100
AcDbSymbolTable
 70
1
  0
APPID
  5
20F
100
AcDbSymbolTableRecord
100
AcDbRegAppTableRecord
  2
ACAD
 70
0
  0
ENDTAB
  0
TABLE
  2
BLOCK_RECORD
  5
1
100
AcDbSymbolTable
 70
0
  0
BLOCK_RECORD
  5
210
100
AcDbSymbolTableRecord
100
AcDbBlockTableRecord
  2
*Model_Space
  0
BLOCK_RECORD
  5
211
100
AcDbSymbolTableRecord
100
AcDbBlockTableRecord
  2
*Paper_Space
  0
BLOCK_RECORD
  5
212
100
AcDbSymbolTableRecord
100
AcDbBlockTableRecord
  2
_FILLED
  0
ENDTAB
  0
TABLE
  2
DIMSTYLE
  5
A
100
AcDbSymbolTable
 70
1
100
AcDbDimStyleTable
 71
0
  0
DIMSTYLE
105
213
100
AcDbSymbolTableRecord
100
AcDbDimStyleTableRecord
  2
STANDARD
 70
0
  3

  4

 40
1.0
 41
11.874137054
 42
1.0
 43
0.38
 44
1.0
 45
0.0
 46
0.0
 47
0.01
 48
0.01
140
16.6237918756
141
0.09
142
0.0
143
25.4
144
1.0
145
0.0
146
1.0
147
0.625
 71
1
 72
0
 73
0
 74
0
 75
0
 76
0
 77
1
 78
8
 79
2
170
0
171
1
172
0
173
0
174
0
175
0
176
0
177
0
178
0
270
2
179
2
271
2
272
2
273
2
274
2
275
0
280
0
281
0
282
0
283
1
284
8
285
0
286
0
287
3
288
0
340
11
278
46
341
212
342
212
343
212
344
212
  0
ENDTAB
  0
ENDSEC
  0
SECTION
  2
BLOCKS
  0
BLOCK
  5
20
100
AcDbEntity
  8
0
100
AcDbBlockBegin
  2
*Model_Space
 70
0
 10
0.0
 20
0.0
 30
0.0
  3
*Model_Space
  1

  0
ENDBLK
  5
21
100
AcDbEntity
  8
0
100
AcDbBlockEnd
  0
BLOCK
  5
1C
100
AcDbEntity
  8
0
100
AcDbBlockBegin
  2
*Paper_Space
 70
0
 10
0.0
 20
0.0
 30
0.0
  3
*Paper_Space
  1

  0
ENDBLK
  5
1D
100
AcDbEntity
  8
0
100
AcDbBlockEnd
  0
BLOCK
  5
214
100
AcDbEntity
  8
0
100
AcDbBlockBegin
  2
_FILLED
 70
64
 10
0.0
 20
0.0
  3
_FILLED
  1

  0
SOLID
  5
215
100
AcDbEntity
  8
0
  6
BYBLOCK
 62
0
100
AcDbTrace
 10
0.0
 20
0.0
 11
-1.0
 21
0.25
 12
-1.0
 22
-0.25
 13
-1.0
 23
-0.25
  0
ENDBLK
  5
216
100
AcDbEntity
  8
0
  6
BYBLOCK
 62
0
100
AcDbBlockEnd
  0
ENDSEC
  0
SECTION
  2
ENTITIES
  0
LINE
  5
217
100
AcDbEntity
  8
0
100
AcDbLine
 62
7
  6
CONTINUOUS
 10
155.5018428293
 20
1170.1414758789
 11
155.8363628021
 21
1170.4425438016
  0
LINE
  5
218
100
AcDbEntity
  8
0
100
AcDbLine
 62
7
  6
CONTINUOUS
 10
113.1633965555
 20
101.0071942446
 11
910.1633965555
 21
101.0071942446
  0
LINE
  5
219
100
AcDbEntity
  8
0
100
AcDbLine
 62
7
  6
CONTINUOUS
 10
111.6633965555
 20
102.5071942446
 11
113.1633965555
 21
102.5071942446
  0
LINE
  5
21A
100
AcDbEntity
  8
0
100
AcDbLine
 62
7
  6
CONTINUOUS
 10
910.1633965555
 20
102.5071942446
 11
911.6633965555
 21
102.5071942446
  0
LINE
  5
21B
100
AcDbEntity
  8
0
100
AcDbLine
 62
7
  6
CONTINUOUS
 10
115.6633965555
 20
102.8071942446
 11
907.6633965555
 21
102.8071942446
  0
LINE
  5
21C
100
AcDbEntity
  8
0
100
AcDbLine
 62
7
  6
CONTINUOUS
 10
909.1633965555
 20
103.5071942446
 11
907.6633965555
 21
103.5071942446
  0
LINE
  5
21D
100
AcDbEntity
  8
0
100
AcDbLine
 62
7
  6
CONTINUOUS
 10
115.6633965555
 20
103.5071942446
 11
114.1633965555
 21
103.5071942446
  0
LINE
  5
21E
100
AcDbEntity
  8
0
100
AcDbLine
 62
7
  6
CONTINUOUS
 10
114.1633965555
 20
104.3071942446
 11
115.6633965555
 21
104.3071942446
  0
LINE
  5
21F
100
AcDbEntity
  8
0
100
AcDbLine
 62
7
  6
CONTINUOUS
 10
907.6633965555
 20
104.3071942446
 11
909.1633965555
 21
104.3071942446
  0
LINE
  5
220
100
AcDbEntity
  8
0
100
AcDbLine
 62
7
  6
CONTINUOUS
 10
906.6633965555
 20
105.3071942446
 11
116.6633965555
 21
105.3071942446
  0
LINE
  5
221
100
AcDbEntity
  8
0
100
AcDbLine
 62
7
  6
CONTINUOUS
 10
155.8363628021
 20
202.6014650524
 11
155.9152140442
 21
202.5202245008
  0
LINE
  5
222
100
AcDbEntity
  8
0
100
AcDbLine
 62
7
  6
CONTINUOUS
 10
157.9008287087
 20
203.6336980718
 11
157.9318913832
 21
203.6002460217
  0
LINE
  5
223
100
AcDbEntity
  8
0
100
AcDbLine
 62
7
  6
CONTINUOUS
 10
157.7885256806
 20
203.4425438016
 11
157.7264013878
 21
203.5213949116
  0
LINE
  5
224
100
AcDbEntity
  8
0
100
AcDbLine
 62
7
  6
CONTINUOUS
 10
164.3144298253
 20
1198.920550115
 11
164.2448553994
 21
1198.7882267494
  0
LINE
  5
225
100
AcDbEntity
  8
0
100
AcDbLine
 62
7
  6
CONTINUOUS
 10
144.0123632857
 20
1160.3081183742
 11
144.0819377116
 21
1160.4404417397
  0
LINE
  5
226
100
AcDbEntity
  8
0
100
AcDbLine
 62
7
  6
CONTINUOUS
 10
157.2652416053
 20
1170.1892644464
 11
157.1696644703
 21
1170.0458987438
  0
LINE
  5
227
100
AcDbEntity
  8
0
100
AcDbLine
 62
7
  6
CONTINUOUS
 10
152.7396639422
 20
204.3170746668
 11
152.9284291008
 21
204.3003485098
  0
LINE
  5
228
100
AcDbEntity
  8
0
100
AcDbLine
 62
7
  6
CONTINUOUS
 10
147.497258558
 20
204.3481370773
 11
147.6095615861
 21
204.3314111843
  0
LINE
  5
229
100
AcDbEntity
  8
0
100
AcDbLine
 62
7
  6
CONTINUOUS
 10
166.8886485833
 20
199.3103688971
 11
163.4517613133
 21
199.9278814489
  0
LINE
  5
22A
100
AcDbEntity
  8
0
100
AcDbLine
 62
7
  6
CONTINUOUS
 10
141.4381445277
 20
225.9182995921
 11
144.8750317976
 21
225.3007870403
  0
LINE
  5
22B
100
AcDbEntity
  8
0
100
AcDbLine
 62
7
  6
CONTINUOUS
 10
155.6619344249
 20
203.1080238288
 11
155.5018428293
 21
203.1414758789
  0
LINE
  5
22C
100
AcDbEntity
  8
0
100
AcDbLine
 62
7
  6
CONTINUOUS
 10
144.0819228029
 20
231.7882189106
 11
144.012348274
 21
231.920542222
  0
LINE
  5
22D
100
AcDbEntity
  8
0
100
AcDbLine
 62
7
  6
CONTINUOUS
 10
164.2448600112
 20
193.4404441646
 11
164.3144344689
 21
193.3081208158
  0
LINE
  5
22E
100
AcDbEntity
  8
0
100
AcDbLine
 62
7
  6
CONTINUOUS
 10
157.9629540578
 20
1171.8236333772
 11
157.9318913832
 21
1171.7280562421
  0
LINE
  5
22F
100
AcDbEntity
  8
0
100
AcDbLine
 62
7
  6
CONTINUOUS
 10
148.875958626
 20
1169.9383744668
 11
148.9404730865
 21
1170.129528737
  0
LINE
  5
230
100
AcDbEntity
  8
0
100
AcDbLine
 62
7
  6
CONTINUOUS
 10
148.954809604
 20
1170.3182934996
 11
149.0336608461
 21
1170.5094477697
  0
LINE
  5
231
100
AcDbEntity
  8
0
100
AcDbLine
 62
7
  6
CONTINUOUS
 10
153.8340222445
 20
202.8069559061
 11
153.2462226525
 21
202.790229881
  0
LINE
  5
232
100
AcDbEntity
  8
0
100
AcDbLine
 62
7
  6
CONTINUOUS
 10
157.9318913832
 20
204.7280562421
 11
156.8351444975
 21
204.7137197246
  0
LINE
  5
233
100
AcDbEntity
  8
0
100
AcDbLine
 62
7
  6
CONTINUOUS
 10
144.2133965555
 20
200.9254348572
 11
164.1133965555
 21
200.9254348572
  0
LINE
  5
234
100
AcDbEntity
  8
0
100
AcDbLine
 62
7
  6
CONTINUOUS
 10
144.4133965555
 20
201.1254348572
 11
163.9133965555
 21
201.1254348572
  0
LINE
  5
235
100
AcDbEntity
  8
0
100
AcDbLine
 62
7
  6
CONTINUOUS
 10
153.5329540578
 20
202.3625222477
 11
153.4541033438
 21
202.3625222477
  0
LINE
  5
236
100
AcDbEntity
  8
0
100
AcDbLine
 62
7
  6
CONTINUOUS
 10
151.9296479335
 20
202.3696905065
 11
151.1817567459
 21
202.3696905065
  0
LINE
  5
237
100
AcDbEntity
  8
0
100
AcDbLine
 62
7
  6
CONTINUOUS
 10
157.9151654902
 20
202.4103108153
 11
157.7407371131
 21
202.4103108153
  0
LINE
  5
238
100
AcDbEntity
  8
0
100
AcDbLine
 62
7
  6
CONTINUOUS
 10
156.7873559299
 20
202.4103108153
 11
156.6129275528
 21
202.4103108153
  0
LINE
  5
239
100
AcDbEntity
  8
0
100
AcDbLine
 62
7
  6
CONTINUOUS
 10
152.5962982395
 20
202.4103108153
 11
152.4218698624
 21
202.4103108153
  0
LINE
  5
23A
100
AcDbEntity
  8
0
100
AcDbLine
 62
7
  6
CONTINUOUS
 10
148.7493188164
 20
202.4461522409
 11
149.2558777907
 21
202.4461522409
  0
LINE
  5
23B
100
AcDbEntity
  8
0
100
AcDbLine
 62
7
  6
CONTINUOUS
 10
155.9152140442
 20
202.5202245008
 11
155.9630026117
 21
202.5202245008
  0
LINE
  5
23C
100
AcDbEntity
  8
0
100
AcDbLine
 62
7
  6
CONTINUOUS
 10
158.8852736226
 20
202.5369505259
 11
158.9330621901
 21
202.5369505259
  0
LINE
  5
23D
100
AcDbEntity
  8
0
100
AcDbLine
 62
7
  6
CONTINUOUS
 10
151.372911016
 20
202.5536764849
 11
151.9296479335
 21
202.5536764849
  0
LINE
  5
23E
100
AcDbEntity
  8
0
100
AcDbLine
 62
7
  6
CONTINUOUS
 10
149.1626897672
 20
202.7639461557
 11
148.8281700584
 21
202.7639461557
  0
LINE
  5
23F
100
AcDbEntity
  8
0
100
AcDbLine
 62
7
  6
CONTINUOUS
 10
150.0826196924
 20
202.7782827391
 11
150.4482023397
 21
202.7782827391
  0
LINE
  5
240
100
AcDbEntity
  8
0
100
AcDbLine
 62
7
  6
CONTINUOUS
 10
153.2462226525
 20
202.9192590002
 11
153.6906565419
 21
202.9192590002
  0
LINE
  5
241
100
AcDbEntity
  8
0
100
AcDbLine
 62
7
  6
CONTINUOUS
 10
148.4936500856
 20
202.9383744668
 11
148.875958626
 21
202.9383744668
  0
LINE
  5
242
100
AcDbEntity
  8
0
100
AcDbLine
 62
7
  6
CONTINUOUS
 10
150.5581162563
 20
202.9551004259
 11
150.1614709344
 21
202.9551004259
  0
LINE
  5
243
100
AcDbEntity
  8
0
100
AcDbLine
 62
7
  6
CONTINUOUS
 10
151.9129220405
 20
202.9670475677
 11
151.372911016
 21
202.9670475677
  0
LINE
  5
244
100
AcDbEntity
  8
0
100
AcDbLine
 62
7
  6
CONTINUOUS
 10
156.0729165283
 20
203.1080238288
 11
155.8363628021
 21
203.1080238288
  0
LINE
  5
245
100
AcDbEntity
  8
0
100
AcDbLine
 62
7
  6
CONTINUOUS
 10
148.9404730865
 20
203.129528737
 11
148.5271021357
 21
203.129528737
  0
LINE
  5
246
100
AcDbEntity
  8
0
100
AcDbLine
 62
7
  6
CONTINUOUS
 10
151.372911016
 20
203.1558123963
 11
151.9129220405
 21
203.1558123963
  0
LINE
  5
247
100
AcDbEntity
  8
0
100
AcDbLine
 62
7
  6
CONTINUOUS
 10
156.6129275528
 20
203.237053014
 11
156.7873559299
 21
203.237053014
  0
LINE
  5
248
100
AcDbEntity
  8
0
100
AcDbLine
 62
7
  6
CONTINUOUS
 10
157.7407371131
 20
203.237053014
 11
157.9151654902
 21
203.237053014
  0
LINE
  5
249
100
AcDbEntity
  8
0
100
AcDbLine
 62
7
  6
CONTINUOUS
 10
155.8363628021
 20
203.2681155565
 11
156.0729165283
 21
203.2681155565
  0
LINE
  5
24A
100
AcDbEntity
  8
0
100
AcDbLine
 62
7
  6
CONTINUOUS
 10
154.6918273488
 20
203.2824520739
 11
154.8041303769
 21
203.2824520739
  0
LINE
  5
24B
100
AcDbEntity
  8
0
100
AcDbLine
 62
7
  6
CONTINUOUS
 10
158.758633813
 20
203.2824520739
 11
158.8685477296
 21
203.2824520739
  0
LINE
  5
24C
100
AcDbEntity
  8
0
100
AcDbLine
 62
7
  6
CONTINUOUS
 10
148.6226792708
 20
203.3182934996
 11
148.954809604
 21
203.3182934996
  0
LINE
  5
24D
100
AcDbEntity
  8
0
100
AcDbLine
 62
7
  6
CONTINUOUS
 10
150.7014819589
 20
203.3350195246
 11
150.2570480695
 21
203.3350195246
  0
LINE
  5
24E
100
AcDbEntity
  8
0
100
AcDbLine
 62
7
  6
CONTINUOUS
 10
149.0336608461
 20
203.5094477697
 11
148.7493188164
 21
203.5094477697
  0
LINE
  5
24F
100
AcDbEntity
  8
0
100
AcDbLine
 62
7
  6
CONTINUOUS
 10
150.051557546
 20
203.5094477697
 11
150.3693510976
 21
203.5094477697
  0
LINE
  5
250
100
AcDbEntity
  8
0
100
AcDbLine
 62
7
  6
CONTINUOUS
 10
151.9129220405
 20
203.5691834792
 11
151.372911016
 21
203.5691834792
  0
LINE
  5
251
100
AcDbEntity
  8
0
100
AcDbLine
 62
7
  6
CONTINUOUS
 10
152.4218698624
 20
203.7125491818
 11
152.5962982395
 21
203.7125491818
  0
LINE
  5
252
100
AcDbEntity
  8
0
100
AcDbLine
 62
7
  6
CONTINUOUS
 10
151.1817567459
 20
203.7531694906
 11
151.9129220405
 21
203.7531694906
  0
LINE
  5
253
100
AcDbEntity
  8
0
100
AcDbLine
 62
7
  6
CONTINUOUS
 10
163.6633965555
 20
203.8085672624
 11
159.9633965555
 21
203.8085672624
  0
LINE
  5
254
100
AcDbEntity
  8
0
100
AcDbLine
 62
7
  6
CONTINUOUS
 10
150.4314764467
 20
203.8105158245
 11
150.051557546
 21
203.8105158245
  0
LINE
  5
255
100
AcDbEntity
  8
0
100
AcDbLine
 62
7
  6
CONTINUOUS
 10
145.655009266
 20
203.9992805871
 11
145.4973070459
 21
203.9992805871
  0
LINE
  5
256
100
AcDbEntity
  8
0
100
AcDbLine
 62
7
  6
CONTINUOUS
 10
158.7108452454
 20
204.0614056721
 11
158.2186227885
 21
204.0614056721
  0
LINE
  5
257
100
AcDbEntity
  8
0
100
AcDbLine
 62
7
  6
CONTINUOUS
 10
156.0896424213
 20
204.0614056721
 11
155.6141458574
 21
204.0614056721
  0
LINE
  5
258
100
AcDbEntity
  8
0
100
AcDbLine
 62
7
  6
CONTINUOUS
 10
154.2163307849
 20
204.0614056721
 11
153.7241083279
 21
204.0614056721
  0
LINE
  5
259
100
AcDbEntity
  8
0
100
AcDbLine
 62
7
  6
CONTINUOUS
 10
151.6739792028
 20
204.0614056721
 11
151.1817567459
 21
204.0614056721
  0
LINE
  5
25A
100
AcDbEntity
  8
0
100
AcDbLine
 62
7
  6
CONTINUOUS
 10
148.7517081919
 20
204.0614056721
 11
148.259485999
 21
204.0614056721
  0
LINE
  5
25B
100
AcDbEntity
  8
0
100
AcDbLine
 62
7
  6
CONTINUOUS
 10
157.2652416053
 20
204.3003485098
 11
157.4229430333
 21
204.3003485098
  0
LINE
  5
25C
100
AcDbEntity
  8
0
100
AcDbLine
 62
7
  6
CONTINUOUS
 10
153.4851654902
 20
204.7280562421
 11
152.3884180763
 21
204.7280562421
  0
LINE
  5
25D
100
AcDbEntity
  8
0
100
AcDbLine
 62
7
  6
CONTINUOUS
 10
152.3884180763
 20
204.9837249728
 11
153.0885206965
 21
204.9837249728
  0
LINE
  5
25E
100
AcDbEntity
  8
0
100
AcDbLine
 62
7
  6
CONTINUOUS
 10
156.8351444975
 20
204.9837249728
 11
157.5185201684
 21
204.9837249728
  0
LINE
  5
25F
100
AcDbEntity
  8
0
100
AcDbLine
 62
7
  6
CONTINUOUS
 10
159.9633965555
 20
205.4085672624
 11
163.6633965555
 21
205.4085672624
  0
LINE
  5
260
100
AcDbEntity
  8
0
100
AcDbLine
 62
7
  6
CONTINUOUS
 10
150.0873989716
 20
205.5858610823
 11
150.593957682
 21
205.5858610823
  0
LINE
  5
261
100
AcDbEntity
  8
0
100
AcDbLine
 62
7
  6
CONTINUOUS
 10
153.7241083279
 20
205.5858610823
 11
154.2163307849
 21
205.5858610823
  0
LINE
  5
262
100
AcDbEntity
  8
0
100
AcDbLine
 62
7
  6
CONTINUOUS
 10
158.2186227885
 20
205.5858610823
 11
158.7108452454
 21
205.5858610823
  0
LINE
  5
263
100
AcDbEntity
  8
0
100
AcDbLine
 62
7
  6
CONTINUOUS
 10
147.4040707985
 20
205.6336496498
 11
147.530710344
 21
205.6336496498
  0
LINE
  5
264
100
AcDbEntity
  8
0
100
AcDbLine
 62
7
  6
CONTINUOUS
 10
149.1985311928
 20
205.6336496498
 11
149.3084451094
 21
205.6336496498
  0
LINE
  5
265
100
AcDbEntity
  8
0
100
AcDbLine
 62
7
  6
CONTINUOUS
 10
150.9929921153
 20
205.6336496498
 11
151.1339681783
 21
205.6336496498
  0
LINE
  5
266
100
AcDbEntity
  8
0
100
AcDbLine
 62
7
  6
CONTINUOUS
 10
152.565235565
 20
205.6336496498
 11
152.8185151842
 21
205.6336496498
  0
LINE
  5
267
100
AcDbEntity
  8
0
100
AcDbLine
 62
7
  6
CONTINUOUS
 10
155.0884716144
 20
205.6336496498
 11
155.215111424
 21
205.6336496498
  0
LINE
  5
268
100
AcDbEntity
  8
0
100
AcDbLine
 62
7
  6
CONTINUOUS
 10
157.0740873352
 20
205.6336496498
 11
157.2174530378
 21
205.6336496498
  0
LINE
  5
269
100
AcDbEntity
  8
0
100
AcDbLine
 62
7
  6
CONTINUOUS
 10
145.6884612501
 20
205.9514434656
 11
145.5450956134
 21
205.9514434656
  0
LINE
  5
26A
100
AcDbEntity
  8
0
100
AcDbLine
 62
7
  6
CONTINUOUS
 10
148.259485999
 20
206.3337520059
 11
148.7517081919
 21
206.3337520059
  0
LINE
  5
26B
100
AcDbEntity
  8
0
100
AcDbLine
 62
7
  6
CONTINUOUS
 10
155.6141458574
 20
206.3337520059
 11
156.0896424213
 21
206.3337520059
  0
LINE
  5
26C
100
AcDbEntity
  8
0
100
AcDbLine
 62
7
  6
CONTINUOUS
 10
153.9941138402
 20
206.3815405735
 11
154.0896909752
 21
206.3815405735
  0
LINE
  5
26D
100
AcDbEntity
  8
0
100
AcDbLine
 62
7
  6
CONTINUOUS
 10
163.9133965555
 20
207.2254348572
 11
144.4133965555
 21
207.2254348572
  0
LINE
  5
26E
100
AcDbEntity
  8
0
100
AcDbLine
 62
7
  6
CONTINUOUS
 10
144.2133965555
 20
207.4254348572
 11
164.1133965555
 21
207.4254348572
  0
LINE
  5
26F
100
AcDbEntity
  8
0
100
AcDbLine
 62
7
  6
CONTINUOUS
 10
150.1949232486
 20
203.1438652544
 11
150.6536933914
 21
203.1128027119
  0
LINE
  5
270
100
AcDbEntity
  8
0
100
AcDbLine
 62
7
  6
CONTINUOUS
 10
155.0263473216
 20
1170.2203269889
 11
154.9928944793
 21
1170.0458987438
  0
LINE
  5
271
100
AcDbEntity
  8
0
100
AcDbLine
 62
7
  6
CONTINUOUS
 10
150.3693510976
 20
1170.5094477697
 11
150.4314764467
 21
1170.8105158245
  0
LINE
  5
272
100
AcDbEntity
  8
0
100
AcDbLine
 62
7
  6
CONTINUOUS
 10
153.5162281647
 20
1171.8714219447
 11
153.4851654902
 21
1171.7280562421
  0
LINE
  5
273
100
AcDbEntity
  8
0
100
AcDbLine
 62
7
  6
CONTINUOUS
 10
148.8281700584
 20
1169.7639461557
 11
148.7493188164
 21
1169.4461522409
  0
LINE
  5
274
100
AcDbEntity
  8
0
100
AcDbLine
 62
7
  6
CONTINUOUS
 10
144.8750320221
 20
199.9278801995
 11
141.4381447631
 21
199.3103675869
  0
LINE
  5
275
100
AcDbEntity
  8
0
100
AcDbLine
 62
7
  6
CONTINUOUS
 10
155.9630026117
 20
202.5202245008
 11
156.1541568819
 21
202.5536764849
  0
LINE
  5
276
100
AcDbEntity
  8
0
100
AcDbLine
 62
7
  6
CONTINUOUS
 10
149.4326952794
 20
202.0327811375
 11
149.1292379811
 21
201.9849925699
  0
LINE
  5
277
100
AcDbEntity
  8
0
100
AcDbLine
 62
7
  6
CONTINUOUS
 10
156.8685962835
 20
205.6025869753
 11
157.0740873352
 21
205.6336496498
  0
LINE
  5
278
100
AcDbEntity
  8
0
100
AcDbLine
 62
7
  6
CONTINUOUS
 10
158.9330621901
 20
202.5369505259
 11
159.1074905673
 21
202.5536764849
  0
LINE
  5
279
100
AcDbEntity
  8
0
100
AcDbLine
 62
7
  6
CONTINUOUS
 10
154.8662557259
 20
202.5369505259
 11
155.0406830469
 21
202.5536764849
  0
LINE
  5
27A
100
AcDbEntity
  8
0
100
AcDbLine
 62
7
  6
CONTINUOUS
 10
159.0907646742
 20
205.6169234928
 11
159.2819189444
 21
205.6336496498
  0
LINE
  5
27B
100
AcDbEntity
  8
0
100
AcDbLine
 62
7
  6
CONTINUOUS
 10
155.6141458574
 20
204.0614056721
 11
155.5974199644
 21
204.1402569141
  0
LINE
  5
27C
100
AcDbEntity
  8
0
100
AcDbLine
 62
7
  6
CONTINUOUS
 10
154.4385477296
 20
204.5846905395
 11
154.4218218365
 21
204.7447821351
  0
LINE
  5
27D
100
AcDbEntity
  8
0
100
AcDbLine
 62
7
  6
CONTINUOUS
 10
151.9129220405
 20
204.5536278649
 11
151.881859366
 21
204.8714219447
  0
LINE
  5
27E
100
AcDbEntity
  8
0
100
AcDbLine
 62
7
  6
CONTINUOUS
 10
157.9486172763
 20
204.9980614903
 11
157.9629540578
 21
204.8236333772
  0
LINE
  5
27F
100
AcDbEntity
  8
0
100
AcDbLine
 62
7
  6
CONTINUOUS
 10
111.6633965555
 20
1299.5071942446
 11
111.6633965555
 21
102.5071942446
  0
LINE
  5
280
100
AcDbEntity
  8
0
100
AcDbLine
 62
7
  6
CONTINUOUS
 10
113.1633965555
 20
1301.0071942446
 11
113.1633965555
 21
1299.5071942446
  0
LINE
  5
281
100
AcDbEntity
  8
0
100
AcDbLine
 62
7
  6
CONTINUOUS
 10
113.1633965555
 20
102.5071942446
 11
113.1633965555
 21
101.0071942446
  0
LINE
  5
282
100
AcDbEntity
  8
0
100
AcDbLine
 62
7
  6
CONTINUOUS
 10
114.1633965555
 20
103.5071942446
 11
114.1633965555
 21
1298.5071942446
  0
LINE
  5
283
100
AcDbEntity
  8
0
100
AcDbLine
 62
7
  6
CONTINUOUS
 10
115.6633965555
 20
1297.8071942446
 11
115.6633965555
 21
1296.3071942446
  0
LINE
  5
284
100
AcDbEntity
  8
0
100
AcDbLine
 62
7
  6
CONTINUOUS
 10
115.6633965555
 20
104.3071942446
 11
115.6633965555
 21
102.8071942446
  0
LINE
  5
285
100
AcDbEntity
  8
0
100
AcDbLine
 62
7
  6
CONTINUOUS
 10
116.6633965555
 20
105.3071942446
 11
116.6633965555
 21
1295.3071942446
  0
LINE
  5
286
100
AcDbEntity
  8
0
100
AcDbLine
 62
7
  6
CONTINUOUS
 10
144.7350794068
 20
1171.2358340492
 11
144.766141974
 21
1171.6969935676
  0
LINE
  5
287
100
AcDbEntity
  8
0
100
AcDbLine
 62
7
  6
CONTINUOUS
 10
146.3861743626
 20
1173.2047228207
 11
146.3551118201
 21
1172.7602891954
  0
LINE
  5
288
100
AcDbEntity
  8
0
100
AcDbLine
 62
7
  6
CONTINUOUS
 10
153.8507481375
 20
1169.9813841512
 11
153.8340222445
 21
1169.8069559061
  0
LINE
  5
289
100
AcDbEntity
  8
0
100
AcDbLine
 62
7
  6
CONTINUOUS
 10
147.1484020677
 20
1171.9024843552
 11
147.1340652862
 21
1171.7925707027
  0
LINE
  5
28A
100
AcDbEntity
  8
0
100
AcDbLine
 62
7
  6
CONTINUOUS
 10
154.9307701865
 20
205.6025869753
 11
155.0884716144
 21
205.6336496498
  0
LINE
  5
28B
100
AcDbEntity
  8
0
100
AcDbLine
 62
7
  6
CONTINUOUS
 10
163.4517610888
 20
225.3007882897
 11
166.8886483478
 21
225.9183009024
  0
LINE
  5
28C
100
AcDbEntity
  8
0
100
AcDbLine
 62
7
  6
CONTINUOUS
 10
156.328585259
 20
204.6802676745
 11
156.311859366
 21
204.8092968597
  0
LINE
  5
28D
100
AcDbEntity
  8
0
100
AcDbLine
 62
7
  6
CONTINUOUS
 10
143.7133965555
 20
1173.9254348572
 11
143.7133965555
 21
1168.4254348572
  0
LINE
  5
28E
100
AcDbEntity
  8
0
100
AcDbLine
 62
7
  6
CONTINUOUS
 10
143.7133965555
 20
206.9254348572
 11
143.7133965555
 21
201.4254348572
  0
LINE
  5
28F
100
AcDbEntity
  8
0
100
AcDbLine
 62
7
  6
CONTINUOUS
 10
143.9133965555
 20
201.6254348572
 11
143.9133965555
 21
206.7254354202
  0
LINE
  5
290
100
AcDbEntity
  8
0
100
AcDbLine
 62
7
  6
CONTINUOUS
 10
143.9133965555
 20
1168.6254348572
 11
143.9133965555
 21
1173.7254354202
  0
LINE
  5
291
100
AcDbEntity
  8
0
100
AcDbLine
 62
7
  6
CONTINUOUS
 10
145.2918161923
 20
1172.7770153525
 11
145.2918161923
 21
1172.7125006279
  0
LINE
  5
292
100
AcDbEntity
  8
0
100
AcDbLine
 62
7
  6
CONTINUOUS
 10
145.2918161923
 20
205.7770153525
 11
145.2918161923
 21
205.7125006279
  0
LINE
  5
293
100
AcDbEntity
  8
0
100
AcDbLine
 62
7
  6
CONTINUOUS
 10
146.6083911753
 20
204.6659311571
 11
146.6083911753
 21
204.9192105123
  0
LINE
  5
294
100
AcDbEntity
  8
0
100
AcDbLine
 62
7
  6
CONTINUOUS
 10
146.6083911753
 20
1171.6659311571
 11
146.6083911753
 21
1171.9192105123
  0
LINE
  5
295
100
AcDbEntity
  8
0
100
AcDbLine
 62
7
  6
CONTINUOUS
 10
148.0229328009
 20
1172.5070098402
 11
148.0229328009
 21
1172.1724898674
  0
LINE
  5
296
100
AcDbEntity
  8
0
100
AcDbLine
 62
7
  6
CONTINUOUS
 10
148.0229328009
 20
205.5070098402
 11
148.0229328009
 21
205.1724898674
  0
LINE
  5
297
100
AcDbEntity
  8
0
100
AcDbLine
 62
7
  6
CONTINUOUS
 10
148.0372693184
 20
1171.4269883194
 11
148.0372693184
 21
1171.1259202646
  0
LINE
  5
298
100
AcDbEntity
  8
0
100
AcDbLine
 62
7
  6
CONTINUOUS
 10
148.0372693184
 20
204.4269883194
 11
148.0372693184
 21
204.1259202646
  0
LINE
  5
299
100
AcDbEntity
  8
0
100
AcDbLine
 62
7
  6
CONTINUOUS
 10
148.259485999
 20
204.0614056721
 11
148.259485999
 21
206.3337520059
  0
LINE
  5
29A
100
AcDbEntity
  8
0
100
AcDbLine
 62
7
  6
CONTINUOUS
 10
148.259485999
 20
1171.0614056721
 11
148.259485999
 21
1173.3337520059
  0
LINE
  5
29B
100
AcDbEntity
  8
0
100
AcDbLine
 62
7
  6
CONTINUOUS
 10
148.7517081919
 20
1173.3337520059
 11
148.7517081919
 21
1172.3803700306
  0
LINE
  5
29C
100
AcDbEntity
  8
0
100
AcDbLine
 62
7
  6
CONTINUOUS
 10
148.7517081919
 20
1172.0315135404
 11
148.7517081919
 21
1171.0614056721
  0
LINE
  5
29D
100
AcDbEntity
  8
0
100
AcDbLine
 62
7
  6
CONTINUOUS
 10
148.7517081919
 20
206.3337520059
 11
148.7517081919
 21
205.3803700306
  0
LINE
  5
29E
100
AcDbEntity
  8
0
100
AcDbLine
 62
7
  6
CONTINUOUS
 10
148.7517081919
 20
205.0315135404
 11
148.7517081919
 21
204.0614056721
  0
LINE
  5
29F
100
AcDbEntity
  8
0
100
AcDbLine
 62
7
  6
CONTINUOUS
 10
149.3395077839
 20
204.3791997518
 11
149.3395077839
 21
204.9837249728
  0
LINE
  5
2A0
100
AcDbEntity
  8
0
100
AcDbLine
 62
7
  6
CONTINUOUS
 10
149.3395077839
 20
1171.3791997518
 11
149.3395077839
 21
1171.9837249728
  0
LINE
  5
2A1
100
AcDbEntity
  8
0
100
AcDbLine
 62
7
  6
CONTINUOUS
 10
149.8484561339
 20
1172.0315135404
 11
149.8484561339
 21
1171.5536278649
  0
LINE
  5
2A2
100
AcDbEntity
  8
0
100
AcDbLine
 62
7
  6
CONTINUOUS
 10
149.8484561339
 20
205.0315135404
 11
149.8484561339
 21
204.5536278649
  0
LINE
  5
2A3
100
AcDbEntity
  8
0
100
AcDbLine
 62
7
  6
CONTINUOUS
 10
150.0873989716
 20
204.5392913475
 11
150.0873989716
 21
205.5858610823
  0
LINE
  5
2A4
100
AcDbEntity
  8
0
100
AcDbLine
 62
7
  6
CONTINUOUS
 10
150.0873989716
 20
1171.5392913475
 11
150.0873989716
 21
1172.5858610823
  0
LINE
  5
2A5
100
AcDbEntity
  8
0
100
AcDbLine
 62
7
  6
CONTINUOUS
 10
150.593957682
 20
1172.5858610823
 11
150.593957682
 21
1172.3947068121
  0
LINE
  5
2A6
100
AcDbEntity
  8
0
100
AcDbLine
 62
7
  6
CONTINUOUS
 10
150.593957682
 20
1172.0147876473
 11
150.593957682
 21
1171.3170746668
  0
LINE
  5
2A7
100
AcDbEntity
  8
0
100
AcDbLine
 62
7
  6
CONTINUOUS
 10
150.593957682
 20
205.5858610823
 11
150.593957682
 21
205.3947068121
  0
LINE
  5
2A8
100
AcDbEntity
  8
0
100
AcDbLine
 62
7
  6
CONTINUOUS
 10
150.593957682
 20
205.0147876473
 11
150.593957682
 21
204.3170746668
  0
LINE
  5
2A9
100
AcDbEntity
  8
0
100
AcDbLine
 62
7
  6
CONTINUOUS
 10
151.1817567459
 20
202.3696905065
 11
151.1817567459
 21
203.7531694906
  0
LINE
  5
2AA
100
AcDbEntity
  8
0
100
AcDbLine
 62
7
  6
CONTINUOUS
 10
151.1817567459
 20
204.0614056721
 11
151.1817567459
 21
204.9502729227
  0
LINE
  5
2AB
100
AcDbEntity
  8
0
100
AcDbLine
 62
7
  6
CONTINUOUS
 10
151.1817567459
 20
1171.0614056721
 11
151.1817567459
 21
1171.9502729227
  0
LINE
  5
2AC
100
AcDbEntity
  8
0
100
AcDbLine
 62
7
  6
CONTINUOUS
 10
151.1817567459
 20
1169.3696905065
 11
151.1817567459
 21
1170.7531694906
  0
LINE
  5
2AD
100
AcDbEntity
  8
0
100
AcDbLine
 62
7
  6
CONTINUOUS
 10
151.372911016
 20
1170.5691834792
 11
151.372911016
 21
1170.1558123963
  0
LINE
  5
2AE
100
AcDbEntity
  8
0
100
AcDbLine
 62
7
  6
CONTINUOUS
 10
151.372911016
 20
1169.9670475677
 11
151.372911016
 21
1169.5536764849
  0
LINE
  5
2AF
100
AcDbEntity
  8
0
100
AcDbLine
 62
7
  6
CONTINUOUS
 10
151.372911016
 20
202.9670475677
 11
151.372911016
 21
202.5536764849
  0
LINE
  5
2B0
100
AcDbEntity
  8
0
100
AcDbLine
 62
7
  6
CONTINUOUS
 10
151.372911016
 20
203.5691834792
 11
151.372911016
 21
203.1558123963
  0
LINE
  5
2B1
100
AcDbEntity
  8
0
100
AcDbLine
 62
7
  6
CONTINUOUS
 10
151.6739792028
 20
1171.8881478377
 11
151.6739792028
 21
1171.0614056721
  0
LINE
  5
2B2
100
AcDbEntity
  8
0
100
AcDbLine
 62
7
  6
CONTINUOUS
 10
151.6739792028
 20
204.8881478377
 11
151.6739792028
 21
204.0614056721
  0
LINE
  5
2B3
100
AcDbEntity
  8
0
100
AcDbLine
 62
7
  6
CONTINUOUS
 10
151.9129220405
 20
1170.7531694906
 11
151.9129220405
 21
1170.5691834792
  0
LINE
  5
2B4
100
AcDbEntity
  8
0
100
AcDbLine
 62
7
  6
CONTINUOUS
 10
151.9129220405
 20
1170.1558123963
 11
151.9129220405
 21
1169.9670475677
  0
LINE
  5
2B5
100
AcDbEntity
  8
0
100
AcDbLine
 62
7
  6
CONTINUOUS
 10
151.9129220405
 20
203.7531694906
 11
151.9129220405
 21
203.5691834792
  0
LINE
  5
2B6
100
AcDbEntity
  8
0
100
AcDbLine
 62
7
  6
CONTINUOUS
 10
151.9129220405
 20
203.1558123963
 11
151.9129220405
 21
202.9670475677
  0
LINE
  5
2B7
100
AcDbEntity
  8
0
100
AcDbLine
 62
7
  6
CONTINUOUS
 10
151.9296479335
 20
1169.5536764849
 11
151.9296479335
 21
1169.3696905065
  0
LINE
  5
2B8
100
AcDbEntity
  8
0
100
AcDbLine
 62
7
  6
CONTINUOUS
 10
151.9296479335
 20
202.5536764849
 11
151.9296479335
 21
202.3696905065
  0
LINE
  5
2B9
100
AcDbEntity
  8
0
100
AcDbLine
 62
7
  6
CONTINUOUS
 10
152.4218698624
 20
202.4103108153
 11
152.4218698624
 21
203.7125491818
  0
LINE
  5
2BA
100
AcDbEntity
  8
0
100
AcDbLine
 62
7
  6
CONTINUOUS
 10
152.4218698624
 20
1169.4103108153
 11
152.4218698624
 21
1170.7125491818
  0
LINE
  5
2BB
100
AcDbEntity
  8
0
100
AcDbLine
 62
7
  6
CONTINUOUS
 10
152.5962982395
 20
1170.7125491818
 11
152.5962982395
 21
1169.4103108153
  0
LINE
  5
2BC
100
AcDbEntity
  8
0
100
AcDbLine
 62
7
  6
CONTINUOUS
 10
152.5962982395
 20
203.7125491818
 11
152.5962982395
 21
202.4103108153
  0
LINE
  5
2BD
100
AcDbEntity
  8
0
100
AcDbLine
 62
7
  6
CONTINUOUS
 10
152.6633965555
 20
1191.6653110674
 11
152.6633965555
 21
1188.5768902517
  0
LINE
  5
2BE
100
AcDbEntity
  8
0
100
AcDbLine
 62
7
  6
CONTINUOUS
 10
152.6633965555
 20
1179.0374982375
 11
152.6633965555
 21
1175.9490774219
  0
LINE
  5
2BF
100
AcDbEntity
  8
0
100
AcDbLine
 62
7
  6
CONTINUOUS
 10
152.6633965555
 20
224.6653110674
 11
152.6633965555
 21
221.5768902517
  0
LINE
  5
2C0
100
AcDbEntity
  8
0
100
AcDbLine
 62
7
  6
CONTINUOUS
 10
152.6633965555
 20
212.0374982375
 11
152.6633965555
 21
208.9490774219
  0
LINE
  5
2C1
100
AcDbEntity
  8
0
100
AcDbLine
 62
7
  6
CONTINUOUS
 10
153.0574580219
 20
202.8380184486
 11
153.0574580219
 21
202.8858070161
  0
LINE
  5
2C2
100
AcDbEntity
  8
0
100
AcDbLine
 62
7
  6
CONTINUOUS
 10
153.0574580219
 20
1169.8380184486
 11
153.0574580219
 21
1169.8858070161
  0
LINE
  5
2C3
100
AcDbEntity
  8
0
100
AcDbLine
 62
7
  6
CONTINUOUS
 10
153.5018919113
 20
1171.4915027799
 11
153.5018919113
 21
1171.2047713747
  0
LINE
  5
2C4
100
AcDbEntity
  8
0
100
AcDbLine
 62
7
  6
CONTINUOUS
 10
153.5018919113
 20
204.4915027799
 11
153.5018919113
 21
204.2047713747
  0
LINE
  5
2C5
100
AcDbEntity
  8
0
100
AcDbLine
 62
7
  6
CONTINUOUS
 10
153.7241083279
 20
204.0614056721
 11
153.7241083279
 21
205.5858610823
  0
LINE
  5
2C6
100
AcDbEntity
  8
0
100
AcDbLine
 62
7
  6
CONTINUOUS
 10
153.7241083279
 20
1171.0614056721
 11
153.7241083279
 21
1172.5858610823
  0
LINE
  5
2C7
100
AcDbEntity
  8
0
100
AcDbLine
 62
7
  6
CONTINUOUS
 10
153.8507481375
 20
1169.6158016359
 11
153.8507481375
 21
1169.4891619253
  0
LINE
  5
2C8
100
AcDbEntity
  8
0
100
AcDbLine
 62
7
  6
CONTINUOUS
 10
153.8507481375
 20
202.6158016359
 11
153.8507481375
 21
202.4891619253
  0
LINE
  5
2C9
100
AcDbEntity
  8
0
100
AcDbLine
 62
7
  6
CONTINUOUS
 10
154.2163307849
 20
1172.5858610823
 11
154.2163307849
 21
1171.0614056721
  0
LINE
  5
2CA
100
AcDbEntity
  8
0
100
AcDbLine
 62
7
  6
CONTINUOUS
 10
154.2163307849
 20
205.5858610823
 11
154.2163307849
 21
204.0614056721
  0
LINE
  5
2CB
100
AcDbEntity
  8
0
100
AcDbLine
 62
7
  6
CONTINUOUS
 10
154.2473934594
 20
1173.2692375454
 11
154.2473934594
 21
1173.1903863033
  0
LINE
  5
2CC
100
AcDbEntity
  8
0
100
AcDbLine
 62
7
  6
CONTINUOUS
 10
154.2473934594
 20
206.2692375454
 11
154.2473934594
 21
206.1903863033
  0
LINE
  5
2CD
100
AcDbEntity
  8
0
100
AcDbLine
 62
7
  6
CONTINUOUS
 10
154.3262447014
 20
202.790229881
 11
154.3262447014
 21
202.8380184486
  0
LINE
  5
2CE
100
AcDbEntity
  8
0
100
AcDbLine
 62
7
  6
CONTINUOUS
 10
154.3262447014
 20
1169.790229881
 11
154.3262447014
 21
1169.8380184486
  0
LINE
  5
2CF
100
AcDbEntity
  8
0
100
AcDbLine
 62
7
  6
CONTINUOUS
 10
154.4218218365
 20
204.7447821351
 11
154.4218218365
 21
204.8546957877
  0
LINE
  5
2D0
100
AcDbEntity
  8
0
100
AcDbLine
 62
7
  6
CONTINUOUS
 10
154.4218218365
 20
1171.7447821351
 11
154.4218218365
 21
1171.8546957877
  0
LINE
  5
2D1
100
AcDbEntity
  8
0
100
AcDbLine
 62
7
  6
CONTINUOUS
 10
155.0406830469
 20
1169.5536764849
 11
155.0406830469
 21
1169.4270368073
  0
LINE
  5
2D2
100
AcDbEntity
  8
0
100
AcDbLine
 62
7
  6
CONTINUOUS
 10
155.0406830469
 20
202.5536764849
 11
155.0406830469
 21
202.4270368073
  0
LINE
  5
2D3
100
AcDbEntity
  8
0
100
AcDbLine
 62
7
  6
CONTINUOUS
 10
155.6141458574
 20
204.4580507299
 11
155.6141458574
 21
205.220278435
  0
LINE
  5
2D4
100
AcDbEntity
  8
0
100
AcDbLine
 62
7
  6
CONTINUOUS
 10
155.6141458574
 20
205.5380725148
 11
155.6141458574
 21
206.3337520059
  0
LINE
  5
2D5
100
AcDbEntity
  8
0
100
AcDbLine
 62
7
  6
CONTINUOUS
 10
155.6141458574
 20
1172.5380725148
 11
155.6141458574
 21
1173.3337520059
  0
LINE
  5
2D6
100
AcDbEntity
  8
0
100
AcDbLine
 62
7
  6
CONTINUOUS
 10
155.6141458574
 20
1171.4580507299
 11
155.6141458574
 21
1172.220278435
  0
LINE
  5
2D7
100
AcDbEntity
  8
0
100
AcDbLine
 62
7
  6
CONTINUOUS
 10
155.6619344249
 20
202.6325276609
 11
155.6619344249
 21
203.1080238288
  0
LINE
  5
2D8
100
AcDbEntity
  8
0
100
AcDbLine
 62
7
  6
CONTINUOUS
 10
155.6619344249
 20
1169.6325276609
 11
155.6619344249
 21
1170.1080238288
  0
LINE
  5
2D9
100
AcDbEntity
  8
0
100
AcDbLine
 62
7
  6
CONTINUOUS
 10
155.6633965555
 20
208.9490774219
 11
155.6633965555
 21
212.0374982375
  0
LINE
  5
2DA
100
AcDbEntity
  8
0
100
AcDbLine
 62
7
  6
CONTINUOUS
 10
155.6633965555
 20
221.5768902517
 11
155.6633965555
 21
224.6653110674
  0
LINE
  5
2DB
100
AcDbEntity
  8
0
100
AcDbLine
 62
7
  6
CONTINUOUS
 10
155.6633965555
 20
1175.9490774219
 11
155.6633965555
 21
1179.0374982375
  0
LINE
  5
2DC
100
AcDbEntity
  8
0
100
AcDbLine
 62
7
  6
CONTINUOUS
 10
155.6633965555
 20
1188.5768902517
 11
155.6633965555
 21
1191.6653110674
  0
LINE
  5
2DD
100
AcDbEntity
  8
0
100
AcDbLine
 62
7
  6
CONTINUOUS
 10
155.8363628021
 20
1170.4425438016
 11
155.8363628021
 21
1170.2681155565
  0
LINE
  5
2DE
100
AcDbEntity
  8
0
100
AcDbLine
 62
7
  6
CONTINUOUS
 10
155.8363628021
 20
1170.1080238288
 11
155.8363628021
 21
1169.6014650524
  0
LINE
  5
2DF
100
AcDbEntity
  8
0
100
AcDbLine
 62
7
  6
CONTINUOUS
 10
155.8363628021
 20
203.4425438016
 11
155.8363628021
 21
203.2681155565
  0
LINE
  5
2E0
100
AcDbEntity
  8
0
100
AcDbLine
 62
7
  6
CONTINUOUS
 10
155.8363628021
 20
203.1080238288
 11
155.8363628021
 21
202.6014650524
  0
LINE
  5
2E1
100
AcDbEntity
  8
0
100
AcDbLine
 62
7
  6
CONTINUOUS
 10
156.0729165283
 20
1170.2681155565
 11
156.0729165283
 21
1170.1080238288
  0
LINE
  5
2E2
100
AcDbEntity
  8
0
100
AcDbLine
 62
7
  6
CONTINUOUS
 10
156.0729165283
 20
203.2681155565
 11
156.0729165283
 21
203.1080238288
  0
LINE
  5
2E3
100
AcDbEntity
  8
0
100
AcDbLine
 62
7
  6
CONTINUOUS
 10
156.0896424213
 20
1173.3337520059
 11
156.0896424213
 21
1171.0614056721
  0
LINE
  5
2E4
100
AcDbEntity
  8
0
100
AcDbLine
 62
7
  6
CONTINUOUS
 10
156.0896424213
 20
206.3337520059
 11
156.0896424213
 21
204.0614056721
  0
LINE
  5
2E5
100
AcDbEntity
  8
0
100
AcDbLine
 62
7
  6
CONTINUOUS
 10
156.1541568819
 20
1169.5536764849
 11
156.1541568819
 21
1169.4413733578
  0
LINE
  5
2E6
100
AcDbEntity
  8
0
100
AcDbLine
 62
7
  6
CONTINUOUS
 10
156.1541568819
 20
202.5536764849
 11
156.1541568819
 21
202.4413733578
  0
LINE
  5
2E7
100
AcDbEntity
  8
0
100
AcDbLine
 62
7
  6
CONTINUOUS
 10
156.6129275528
 20
202.4103108153
 11
156.6129275528
 21
203.237053014
  0
LINE
  5
2E8
100
AcDbEntity
  8
0
100
AcDbLine
 62
7
  6
CONTINUOUS
 10
156.6129275528
 20
1169.4103108153
 11
156.6129275528
 21
1170.237053014
  0
LINE
  5
2E9
100
AcDbEntity
  8
0
100
AcDbLine
 62
7
  6
CONTINUOUS
 10
156.7873559299
 20
1170.237053014
 11
156.7873559299
 21
1170.0602352612
  0
LINE
  5
2EA
100
AcDbEntity
  8
0
100
AcDbLine
 62
7
  6
CONTINUOUS
 10
156.7873559299
 20
1169.8069559061
 11
156.7873559299
 21
1169.4103108153
  0
LINE
  5
2EB
100
AcDbEntity
  8
0
100
AcDbLine
 62
7
  6
CONTINUOUS
 10
156.7873559299
 20
203.237053014
 11
156.7873559299
 21
203.0602352612
  0
LINE
  5
2EC
100
AcDbEntity
  8
0
100
AcDbLine
 62
7
  6
CONTINUOUS
 10
156.7873559299
 20
202.8069559061
 11
156.7873559299
 21
202.4103108153
  0
LINE
  5
2ED
100
AcDbEntity
  8
0
100
AcDbLine
 62
7
  6
CONTINUOUS
 10
157.7407371131
 20
202.4103108153
 11
157.7407371131
 21
203.237053014
  0
LINE
  5
2EE
100
AcDbEntity
  8
0
100
AcDbLine
 62
7
  6
CONTINUOUS
 10
157.7407371131
 20
1169.4103108153
 11
157.7407371131
 21
1170.237053014
  0
LINE
  5
2EF
100
AcDbEntity
  8
0
100
AcDbLine
 62
7
  6
CONTINUOUS
 10
157.9151654902
 20
1170.237053014
 11
157.9151654902
 21
1169.4103108153
  0
LINE
  5
2F0
100
AcDbEntity
  8
0
100
AcDbLine
 62
7
  6
CONTINUOUS
 10
157.9151654902
 20
203.237053014
 11
157.9151654902
 21
202.4103108153
  0
LINE
  5
2F1
100
AcDbEntity
  8
0
100
AcDbLine
 62
7
  6
CONTINUOUS
 10
157.9318913832
 20
1171.4915027799
 11
157.9318913832
 21
1171.2214975318
  0
LINE
  5
2F2
100
AcDbEntity
  8
0
100
AcDbLine
 62
7
  6
CONTINUOUS
 10
157.9318913832
 20
1170.6002460217
 11
157.9318913832
 21
1170.5381209367
  0
LINE
  5
2F3
100
AcDbEntity
  8
0
100
AcDbLine
 62
7
  6
CONTINUOUS
 10
157.9318913832
 20
204.4915027799
 11
157.9318913832
 21
204.2214975318
  0
LINE
  5
2F4
100
AcDbEntity
  8
0
100
AcDbLine
 62
7
  6
CONTINUOUS
 10
157.9318913832
 20
203.6002460217
 11
157.9318913832
 21
203.5381209367
  0
LINE
  5
2F5
100
AcDbEntity
  8
0
100
AcDbLine
 62
7
  6
CONTINUOUS
 10
158.2186227885
 20
204.0614056721
 11
158.2186227885
 21
205.5858610823
  0
LINE
  5
2F6
100
AcDbEntity
  8
0
100
AcDbLine
 62
7
  6
CONTINUOUS
 10
158.2186227885
 20
1171.0614056721
 11
158.2186227885
 21
1172.5858610823
  0
LINE
  5
2F7
100
AcDbEntity
  8
0
100
AcDbLine
 62
7
  6
CONTINUOUS
 10
158.3930511656
 20
202.790229881
 11
158.3930511656
 21
202.8380184486
  0
LINE
  5
2F8
100
AcDbEntity
  8
0
100
AcDbLine
 62
7
  6
CONTINUOUS
 10
158.3930511656
 20
1169.790229881
 11
158.3930511656
 21
1169.8380184486
  0
LINE
  5
2F9
100
AcDbEntity
  8
0
100
AcDbLine
 62
7
  6
CONTINUOUS
 10
158.7108452454
 20
1172.5858610823
 11
158.7108452454
 21
1172.15815335
  0
LINE
  5
2FA
100
AcDbEntity
  8
0
100
AcDbLine
 62
7
  6
CONTINUOUS
 10
158.7108452454
 20
1171.632479107
 11
158.7108452454
 21
1171.0614056721
  0
LINE
  5
2FB
100
AcDbEntity
  8
0
100
AcDbLine
 62
7
  6
CONTINUOUS
 10
158.7108452454
 20
205.5858610823
 11
158.7108452454
 21
205.15815335
  0
LINE
  5
2FC
100
AcDbEntity
  8
0
100
AcDbLine
 62
7
  6
CONTINUOUS
 10
158.7108452454
 20
204.632479107
 11
158.7108452454
 21
204.0614056721
  0
LINE
  5
2FD
100
AcDbEntity
  8
0
100
AcDbLine
 62
7
  6
CONTINUOUS
 10
159.0907646742
 20
1170.2203269889
 11
159.0907646742
 21
1170.0769612863
  0
LINE
  5
2FE
100
AcDbEntity
  8
0
100
AcDbLine
 62
7
  6
CONTINUOUS
 10
159.0907646742
 20
203.2203269889
 11
159.0907646742
 21
203.0769612863
  0
LINE
  5
2FF
100
AcDbEntity
  8
0
100
AcDbLine
 62
7
  6
CONTINUOUS
 10
159.1074905673
 20
1169.5536764849
 11
159.1074905673
 21
1169.4270368073
  0
LINE
  5
300
100
AcDbEntity
  8
0
100
AcDbLine
 62
7
  6
CONTINUOUS
 10
159.1074905673
 20
202.5536764849
 11
159.1074905673
 21
202.4270368073
  0
LINE
  5
301
100
AcDbEntity
  8
0
100
AcDbLine
 62
7
  6
CONTINUOUS
 10
159.9633965555
 20
203.8085672624
 11
159.9633965555
 21
205.4085672624
  0
LINE
  5
302
100
AcDbEntity
  8
0
100
AcDbLine
 62
7
  6
CONTINUOUS
 10
159.9633965555
 20
1170.8085672624
 11
159.9633965555
 21
1172.4085672624
  0
LINE
  5
303
100
AcDbEntity
  8
0
100
AcDbLine
 62
7
  6
CONTINUOUS
 10
163.6633965555
 20
1172.4085672624
 11
163.6633965555
 21
1170.8085672624
  0
LINE
  5
304
100
AcDbEntity
  8
0
100
AcDbLine
 62
7
  6
CONTINUOUS
 10
163.6633965555
 20
205.4085672624
 11
163.6633965555
 21
203.8085672624
  0
LINE
  5
305
100
AcDbEntity
  8
0
100
AcDbLine
 62
7
  6
CONTINUOUS
 10
164.4133965555
 20
1173.7254352074
 11
164.4133965555
 21
1168.6254348572
  0
LINE
  5
306
100
AcDbEntity
  8
0
100
AcDbLine
 62
7
  6
CONTINUOUS
 10
164.4133965555
 20
206.7254352074
 11
164.4133965555
 21
201.6254348572
  0
LINE
  5
307
100
AcDbEntity
  8
0
100
AcDbLine
 62
7
  6
CONTINUOUS
 10
164.6133965555
 20
201.4254348572
 11
164.6133965555
 21
206.9254348572
  0
LINE
  5
308
100
AcDbEntity
  8
0
100
AcDbLine
 62
7
  6
CONTINUOUS
 10
164.6133965555
 20
1168.4254348572
 11
164.6133965555
 21
1173.9254348572
  0
LINE
  5
309
100
AcDbEntity
  8
0
100
AcDbLine
 62
7
  6
CONTINUOUS
 10
144.7350794068
 20
204.2358340492
 11
144.766141974
 21
204.6969935676
  0
LINE
  5
30A
100
AcDbEntity
  8
0
100
AcDbLine
 62
7
  6
CONTINUOUS
 10
154.4385477296
 20
1171.5846905395
 11
154.4218218365
 21
1171.7447821351
  0
LINE
  5
30B
100
AcDbEntity
  8
0
100
AcDbLine
 62
7
  6
CONTINUOUS
 10
151.9129220405
 20
1171.5536278649
 11
151.881859366
 21
1171.8714219447
  0
LINE
  5
30C
100
AcDbEntity
  8
0
100
AcDbLine
 62
7
  6
CONTINUOUS
 10
157.9486172763
 20
1171.9980614903
 11
157.9629540578
 21
1171.8236333772
  0
LINE
  5
30D
100
AcDbEntity
  8
0
100
AcDbLine
 62
7
  6
CONTINUOUS
 10
146.3861743626
 20
206.2047228207
 11
146.3551118201
 21
205.7602891954
  0
LINE
  5
30E
100
AcDbEntity
  8
0
100
AcDbLine
 62
7
  6
CONTINUOUS
 10
153.8507481375
 20
202.9813841512
 11
153.8340222445
 21
202.8069559061
  0
LINE
  5
30F
100
AcDbEntity
  8
0
100
AcDbLine
 62
7
  6
CONTINUOUS
 10
147.1484020677
 20
204.9024843552
 11
147.1340652862
 21
204.7925707027
  0
LINE
  5
310
100
AcDbEntity
  8
0
100
AcDbLine
 62
7
  6
CONTINUOUS
 10
156.328585259
 20
1171.6802676745
 11
156.311859366
 21
1171.8092968597
  0
LINE
  5
311
100
AcDbEntity
  8
0
100
AcDbLine
 62
7
  6
CONTINUOUS
 10
155.0263473216
 20
203.2203269889
 11
154.9928944793
 21
203.0458987438
  0
LINE
  5
312
100
AcDbEntity
  8
0
100
AcDbLine
 62
7
  6
CONTINUOUS
 10
150.3693510976
 20
203.5094477697
 11
150.4314764467
 21
203.8105158245
  0
LINE
  5
313
100
AcDbEntity
  8
0
100
AcDbLine
 62
7
  6
CONTINUOUS
 10
153.5162281647
 20
204.8714219447
 11
153.4851654902
 21
204.7280562421
  0
LINE
  5
314
100
AcDbEntity
  8
0
100
AcDbLine
 62
7
  6
CONTINUOUS
 10
155.6141458574
 20
1171.0614056721
 11
155.5974199644
 21
1171.1402569141
  0
LINE
  5
315
100
AcDbEntity
  8
0
100
AcDbLine
 62
7
  6
CONTINUOUS
 10
148.8281700584
 20
202.7639461557
 11
148.7493188164
 21
202.4461522409
  0
LINE
  5
316
100
AcDbEntity
  8
0
100
AcDbLine
 62
7
  6
CONTINUOUS
 10
157.9629540578
 20
204.8236333772
 11
157.9318913832
 21
204.7280562421
  0
LINE
  5
317
100
AcDbEntity
  8
0
100
AcDbLine
 62
7
  6
CONTINUOUS
 10
148.875958626
 20
202.9383744668
 11
148.9404730865
 21
203.129528737
  0
LINE
  5
318
100
AcDbEntity
  8
0
100
AcDbLine
 62
7
  6
CONTINUOUS
 10
148.954809604
 20
203.3182934996
 11
149.0336608461
 21
203.5094477697
  0
LINE
  5
319
100
AcDbEntity
  8
0
100
AcDbLine
 62
7
  6
CONTINUOUS
 10
909.1633965555
 20
1298.5071942446
 11
907.6633965555
 21
1297.0071942446
  0
LINE
  5
31A
100
AcDbEntity
  8
0
100
AcDbLine
 62
7
  6
CONTINUOUS
 10
909.1633965555
 20
103.5071942446
 11
908.3633965555
 21
104.3071942446
  0
LINE
  5
31B
100
AcDbEntity
  8
0
100
AcDbLine
 62
7
  6
CONTINUOUS
 10
164.2448600112
 20
1160.4404441646
 11
164.3144344689
 21
1160.3081208158
  0
LINE
  5
31C
100
AcDbEntity
  8
0
100
AcDbLine
 62
7
  6
CONTINUOUS
 10
144.0819228029
 20
1198.7882189106
 11
144.012348274
 21
1198.920542222
  0
LINE
  5
31D
100
AcDbEntity
  8
0
100
AcDbLine
 62
7
  6
CONTINUOUS
 10
164.3144298253
 20
231.920550115
 11
164.2448553994
 21
231.7882267494
  0
LINE
  5
31E
100
AcDbEntity
  8
0
100
AcDbLine
 62
7
  6
CONTINUOUS
 10
144.0123632857
 20
193.3081183742
 11
144.0819377116
 21
193.4404417397
  0
LINE
  5
31F
100
AcDbEntity
  8
0
100
AcDbLine
 62
7
  6
CONTINUOUS
 10
157.2652416053
 20
203.1892644464
 11
157.1696644703
 21
203.0458987438
  0
LINE
  5
320
100
AcDbEntity
  8
0
100
AcDbLine
 62
7
  6
CONTINUOUS
 10
157.7885256806
 20
1170.4425438016
 11
157.7264013878
 21
1170.5213949116
  0
LINE
  5
321
100
AcDbEntity
  8
0
100
AcDbLine
 62
7
  6
CONTINUOUS
 10
155.8363628021
 20
1169.6014650524
 11
155.9152140442
 21
1169.5202245008
  0
LINE
  5
322
100
AcDbEntity
  8
0
100
AcDbLine
 62
7
  6
CONTINUOUS
 10
157.9008287087
 20
1170.6336980718
 11
157.9318913832
 21
1170.6002460217
  0
LINE
  5
323
100
AcDbEntity
  8
0
100
AcDbLine
 62
7
  6
CONTINUOUS
 10
114.9633965555
 20
104.3071942446
 11
114.1633965555
 21
103.5071942446
  0
LINE
  5
324
100
AcDbEntity
  8
0
100
AcDbLine
 62
7
  6
CONTINUOUS
 10
155.5018428293
 20
203.1414758789
 11
155.8363628021
 21
203.4425438016
  0
LINE
  5
325
100
AcDbEntity
  8
0
100
AcDbLine
 62
7
  6
CONTINUOUS
 10
114.1633965555
 20
1298.5071942446
 11
115.6633965555
 21
1297.0071942446
  0
LINE
  5
326
100
AcDbEntity
  8
0
100
AcDbLine
 62
7
  6
CONTINUOUS
 10
155.6619344249
 20
1170.1080238288
 11
155.5018428293
 21
1170.1414758789
  0
LINE
  5
327
100
AcDbEntity
  8
0
100
AcDbLine
 62
7
  6
CONTINUOUS
 10
906.6633965555
 20
1295.3071942446
 11
906.6633965555
 21
105.3071942446
  0
LINE
  5
328
100
AcDbEntity
  8
0
100
AcDbLine
 62
7
  6
CONTINUOUS
 10
907.6633965555
 20
102.8071942446
 11
907.6633965555
 21
104.3071942446
  0
LINE
  5
329
100
AcDbEntity
  8
0
100
AcDbLine
 62
7
  6
CONTINUOUS
 10
907.6633965555
 20
1296.3071942446
 11
907.6633965555
 21
1297.8071942446
  0
LINE
  5
32A
100
AcDbEntity
  8
0
100
AcDbLine
 62
7
  6
CONTINUOUS
 10
909.1633965555
 20
103.5071942446
 11
909.1633965555
 21
1298.5071942446
  0
LINE
  5
32B
100
AcDbEntity
  8
0
100
AcDbLine
 62
7
  6
CONTINUOUS
 10
910.1633965555
 20
101.0071942446
 11
910.1633965555
 21
102.5071942446
  0
LINE
  5
32C
100
AcDbEntity
  8
0
100
AcDbLine
 62
7
  6
CONTINUOUS
 10
910.1633965555
 20
1299.5071942446
 11
910.1633965555
 21
1301.0071942446
  0
LINE
  5
32D
100
AcDbEntity
  8
0
100
AcDbLine
 62
7
  6
CONTINUOUS
 10
911.6633965555
 20
102.5071942446
 11
911.6633965555
 21
1299.5071942446
  0
LINE
  5
32E
100
AcDbEntity
  8
0
100
AcDbLine
 62
7
  6
CONTINUOUS
 10
152.7396639422
 20
1171.3170746668
 11
152.9284291008
 21
1171.3003485098
  0
LINE
  5
32F
100
AcDbEntity
  8
0
100
AcDbLine
 62
7
  6
CONTINUOUS
 10
147.497258558
 20
1171.3481370773
 11
147.6095615861
 21
1171.3314111843
  0
LINE
  5
330
100
AcDbEntity
  8
0
100
AcDbLine
 62
7
  6
CONTINUOUS
 10
166.8886485833
 20
1166.3103688971
 11
163.4517613133
 21
1166.9278814489
  0
LINE
  5
331
100
AcDbEntity
  8
0
100
AcDbLine
 62
7
  6
CONTINUOUS
 10
141.4381445277
 20
1192.9182995921
 11
144.8750317976
 21
1192.3007870403
  0
LINE
  5
332
100
AcDbEntity
  8
0
100
AcDbLine
 62
7
  6
CONTINUOUS
 10
153.8340222445
 20
1169.8069559061
 11
153.2462226525
 21
1169.790229881
  0
LINE
  5
333
100
AcDbEntity
  8
0
100
AcDbLine
 62
7
  6
CONTINUOUS
 10
157.9318913832
 20
1171.7280562421
 11
156.8351444975
 21
1171.7137197246
  0
LINE
  5
334
100
AcDbEntity
  8
0
100
AcDbLine
 62
7
  6
CONTINUOUS
 10
144.2133965555
 20
1167.9254348572
 11
164.1133965555
 21
1167.9254348572
  0
LINE
  5
335
100
AcDbEntity
  8
0
100
AcDbLine
 62
7
  6
CONTINUOUS
 10
144.4133965555
 20
1168.1254348572
 11
163.9133965555
 21
1168.1254348572
  0
LINE
  5
336
100
AcDbEntity
  8
0
100
AcDbLine
 62
7
  6
CONTINUOUS
 10
153.5329540578
 20
1169.3625222477
 11
153.4541033438
 21
1169.3625222477
  0
LINE
  5
337
100
AcDbEntity
  8
0
100
AcDbLine
 62
7
  6
CONTINUOUS
 10
151.9296479335
 20
1169.3696905065
 11
151.1817567459
 21
1169.3696905065
  0
LINE
  5
338
100
AcDbEntity
  8
0
100
AcDbLine
 62
7
  6
CONTINUOUS
 10
157.9151654902
 20
1169.4103108153
 11
157.7407371131
 21
1169.4103108153
  0
LINE
  5
339
100
AcDbEntity
  8
0
100
AcDbLine
 62
7
  6
CONTINUOUS
 10
156.7873559299
 20
1169.4103108153
 11
156.6129275528
 21
1169.4103108153
  0
LINE
  5
33A
100
AcDbEntity
  8
0
100
AcDbLine
 62
7
  6
CONTINUOUS
 10
152.5962982395
 20
1169.4103108153
 11
152.4218698624
 21
1169.4103108153
  0
LINE
  5
33B
100
AcDbEntity
  8
0
100
AcDbLine
 62
7
  6
CONTINUOUS
 10
148.7493188164
 20
1169.4461522409
 11
149.2558777907
 21
1169.4461522409
  0
LINE
  5
33C
100
AcDbEntity
  8
0
100
AcDbLine
 62
7
  6
CONTINUOUS
 10
155.9152140442
 20
1169.5202245008
 11
155.9630026117
 21
1169.5202245008
  0
LINE
  5
33D
100
AcDbEntity
  8
0
100
AcDbLine
 62
7
  6
CONTINUOUS
 10
158.8852736226
 20
1169.5369505259
 11
158.9330621901
 21
1169.5369505259
  0
LINE
  5
33E
100
AcDbEntity
  8
0
100
AcDbLine
 62
7
  6
CONTINUOUS
 10
151.372911016
 20
1169.5536764849
 11
151.9296479335
 21
1169.5536764849
  0
LINE
  5
33F
100
AcDbEntity
  8
0
100
AcDbLine
 62
7
  6
CONTINUOUS
 10
149.1626897672
 20
1169.7639461557
 11
148.8281700584
 21
1169.7639461557
  0
LINE
  5
340
100
AcDbEntity
  8
0
100
AcDbLine
 62
7
  6
CONTINUOUS
 10
150.0826196924
 20
1169.7782827391
 11
150.4482023397
 21
1169.7782827391
  0
LINE
  5
341
100
AcDbEntity
  8
0
100
AcDbLine
 62
7
  6
CONTINUOUS
 10
153.2462226525
 20
1169.9192590002
 11
153.6906565419
 21
1169.9192590002
  0
LINE
  5
342
100
AcDbEntity
  8
0
100
AcDbLine
 62
7
  6
CONTINUOUS
 10
148.4936500856
 20
1169.9383744668
 11
148.875958626
 21
1169.9383744668
  0
LINE
  5
343
100
AcDbEntity
  8
0
100
AcDbLine
 62
7
  6
CONTINUOUS
 10
150.5581162563
 20
1169.9551004259
 11
150.1614709344
 21
1169.9551004259
  0
LINE
  5
344
100
AcDbEntity
  8
0
100
AcDbLine
 62
7
  6
CONTINUOUS
 10
151.9129220405
 20
1169.9670475677
 11
151.372911016
 21
1169.9670475677
  0
LINE
  5
345
100
AcDbEntity
  8
0
100
AcDbLine
 62
7
  6
CONTINUOUS
 10
156.0729165283
 20
1170.1080238288
 11
155.8363628021
 21
1170.1080238288
  0
LINE
  5
346
100
AcDbEntity
  8
0
100
AcDbLine
 62
7
  6
CONTINUOUS
 10
148.9404730865
 20
1170.129528737
 11
148.5271021357
 21
1170.129528737
  0
LINE
  5
347
100
AcDbEntity
  8
0
100
AcDbLine
 62
7
  6
CONTINUOUS
 10
151.372911016
 20
1170.1558123963
 11
151.9129220405
 21
1170.1558123963
  0
LINE
  5
348
100
AcDbEntity
  8
0
100
AcDbLine
 62
7
  6
CONTINUOUS
 10
156.6129275528
 20
1170.237053014
 11
156.7873559299
 21
1170.237053014
  0
LINE
  5
349
100
AcDbEntity
  8
0
100
AcDbLine
 62
7
  6
CONTINUOUS
 10
157.7407371131
 20
1170.237053014
 11
157.9151654902
 21
1170.237053014
  0
LINE
  5
34A
100
AcDbEntity
  8
0
100
AcDbLine
 62
7
  6
CONTINUOUS
 10
155.8363628021
 20
1170.2681155565
 11
156.0729165283
 21
1170.2681155565
  0
LINE
  5
34B
100
AcDbEntity
  8
0
100
AcDbLine
 62
7
  6
CONTINUOUS
 10
154.6918273488
 20
1170.2824520739
 11
154.8041303769
 21
1170.2824520739
  0
LINE
  5
34C
100
AcDbEntity
  8
0
100
AcDbLine
 62
7
  6
CONTINUOUS
 10
158.758633813
 20
1170.2824520739
 11
158.8685477296
 21
1170.2824520739
  0
LINE
  5
34D
100
AcDbEntity
  8
0
100
AcDbLine
 62
7
  6
CONTINUOUS
 10
148.6226792708
 20
1170.3182934996
 11
148.954809604
 21
1170.3182934996
  0
LINE
  5
34E
100
AcDbEntity
  8
0
100
AcDbLine
 62
7
  6
CONTINUOUS
 10
150.7014819589
 20
1170.3350195246
 11
150.2570480695
 21
1170.3350195246
  0
LINE
  5
34F
100
AcDbEntity
  8
0
100
AcDbLine
 62
7
  6
CONTINUOUS
 10
149.0336608461
 20
1170.5094477697
 11
148.7493188164
 21
1170.5094477697
  0
LINE
  5
350
100
AcDbEntity
  8
0
100
AcDbLine
 62
7
  6
CONTINUOUS
 10
150.051557546
 20
1170.5094477697
 11
150.3693510976
 21
1170.5094477697
  0
LINE
  5
351
100
AcDbEntity
  8
0
100
AcDbLine
 62
7
  6
CONTINUOUS
 10
151.9129220405
 20
1170.5691834792
 11
151.372911016
 21
1170.5691834792
  0
LINE
  5
352
100
AcDbEntity
  8
0
100
AcDbLine
 62
7
  6
CONTINUOUS
 10
152.4218698624
 20
1170.7125491818
 11
152.5962982395
 21
1170.7125491818
  0
LINE
  5
353
100
AcDbEntity
  8
0
100
AcDbLine
 62
7
  6
CONTINUOUS
 10
151.1817567459
 20
1170.7531694906
 11
151.9129220405
 21
1170.7531694906
  0
LINE
  5
354
100
AcDbEntity
  8
0
100
AcDbLine
 62
7
  6
CONTINUOUS
 10
163.6633965555
 20
1170.8085672624
 11
159.9633965555
 21
1170.8085672624
  0
LINE
  5
355
100
AcDbEntity
  8
0
100
AcDbLine
 62
7
  6
CONTINUOUS
 10
150.4314764467
 20
1170.8105158245
 11
150.051557546
 21
1170.8105158245
  0
LINE
  5
356
100
AcDbEntity
  8
0
100
AcDbLine
 62
7
  6
CONTINUOUS
 10
145.655009266
 20
1170.9992805871
 11
145.4973070459
 21
1170.9992805871
  0
LINE
  5
357
100
AcDbEntity
  8
0
100
AcDbLine
 62
7
  6
CONTINUOUS
 10
158.7108452454
 20
1171.0614056721
 11
158.2186227885
 21
1171.0614056721
  0
LINE
  5
358
100
AcDbEntity
  8
0
100
AcDbLine
 62
7
  6
CONTINUOUS
 10
156.0896424213
 20
1171.0614056721
 11
155.6141458574
 21
1171.0614056721
  0
LINE
  5
359
100
AcDbEntity
  8
0
100
AcDbLine
 62
7
  6
CONTINUOUS
 10
154.2163307849
 20
1171.0614056721
 11
153.7241083279
 21
1171.0614056721
  0
LINE
  5
35A
100
AcDbEntity
  8
0
100
AcDbLine
 62
7
  6
CONTINUOUS
 10
151.6739792028
 20
1171.0614056721
 11
151.1817567459
 21
1171.0614056721
  0
LINE
  5
35B
100
AcDbEntity
  8
0
100
AcDbLine
 62
7
  6
CONTINUOUS
 10
148.7517081919
 20
1171.0614056721
 11
148.259485999
 21
1171.0614056721
  0
LINE
  5
35C
100
AcDbEntity
  8
0
100
AcDbLine
 62
7
  6
CONTINUOUS
 10
157.2652416053
 20
1171.3003485098
 11
157.4229430333
 21
1171.3003485098
  0
LINE
  5
35D
100
AcDbEntity
  8
0
100
AcDbLine
 62
7
  6
CONTINUOUS
 10
153.4851654902
 20
1171.7280562421
 11
152.3884180763
 21
1171.7280562421
  0
LINE
  5
35E
100
AcDbEntity
  8
0
100
AcDbLine
 62
7
  6
CONTINUOUS
 10
152.3884180763
 20
1171.9837249728
 11
153.0885206965
 21
1171.9837249728
  0
LINE
  5
35F
100
AcDbEntity
  8
0
100
AcDbLine
 62
7
  6
CONTINUOUS
 10
156.8351444975
 20
1171.9837249728
 11
157.5185201684
 21
1171.9837249728
  0
LINE
  5
360
100
AcDbEntity
  8
0
100
AcDbLine
 62
7
  6
CONTINUOUS
 10
159.9633965555
 20
1172.4085672624
 11
163.6633965555
 21
1172.4085672624
  0
LINE
  5
361
100
AcDbEntity
  8
0
100
AcDbLine
 62
7
  6
CONTINUOUS
 10
150.0873989716
 20
1172.5858610823
 11
150.593957682
 21
1172.5858610823
  0
LINE
  5
362
100
AcDbEntity
  8
0
100
AcDbLine
 62
7
  6
CONTINUOUS
 10
153.7241083279
 20
1172.5858610823
 11
154.2163307849
 21
1172.5858610823
  0
LINE
  5
363
100
AcDbEntity
  8
0
100
AcDbLine
 62
7
  6
CONTINUOUS
 10
158.2186227885
 20
1172.5858610823
 11
158.7108452454
 21
1172.5858610823
  0
LINE
  5
364
100
AcDbEntity
  8
0
100
AcDbLine
 62
7
  6
CONTINUOUS
 10
147.4040707985
 20
1172.6336496498
 11
147.530710344
 21
1172.6336496498
  0
LINE
  5
365
100
AcDbEntity
  8
0
100
AcDbLine
 62
7
  6
CONTINUOUS
 10
149.1985311928
 20
1172.6336496498
 11
149.3084451094
 21
1172.6336496498
  0
LINE
  5
366
100
AcDbEntity
  8
0
100
AcDbLine
 62
7
  6
CONTINUOUS
 10
150.9929921153
 20
1172.6336496498
 11
151.1339681783
 21
1172.6336496498
  0
LINE
  5
367
100
AcDbEntity
  8
0
100
AcDbLine
 62
7
  6
CONTINUOUS
 10
152.565235565
 20
1172.6336496498
 11
152.8185151842
 21
1172.6336496498
  0
LINE
  5
368
100
AcDbEntity
  8
0
100
AcDbLine
 62
7
  6
CONTINUOUS
 10
155.0884716144
 20
1172.6336496498
 11
155.215111424
 21
1172.6336496498
  0
LINE
  5
369
100
AcDbEntity
  8
0
100
AcDbLine
 62
7
  6
CONTINUOUS
 10
157.0740873352
 20
1172.6336496498
 11
157.2174530378
 21
1172.6336496498
  0
LINE
  5
36A
100
AcDbEntity
  8
0
100
AcDbLine
 62
7
  6
CONTINUOUS
 10
145.6884612501
 20
1172.9514434656
 11
145.5450956134
 21
1172.9514434656
  0
LINE
  5
36B
100
AcDbEntity
  8
0
100
AcDbLine
 62
7
  6
CONTINUOUS
 10
148.259485999
 20
1173.3337520059
 11
148.7517081919
 21
1173.3337520059
  0
LINE
  5
36C
100
AcDbEntity
  8
0
100
AcDbLine
 62
7
  6
CONTINUOUS
 10
155.6141458574
 20
1173.3337520059
 11
156.0896424213
 21
1173.3337520059
  0
LINE
  5
36D
100
AcDbEntity
  8
0
100
AcDbLine
 62
7
  6
CONTINUOUS
 10
153.9941138402
 20
1173.3815405735
 11
154.0896909752
 21
1173.3815405735
  0
LINE
  5
36E
100
AcDbEntity
  8
0
100
AcDbLine
 62
7
  6
CONTINUOUS
 10
163.9133965555
 20
1174.2254348572
 11
144.4133965555
 21
1174.2254348572
  0
LINE
  5
36F
100
AcDbEntity
  8
0
100
AcDbLine
 62
7
  6
CONTINUOUS
 10
144.2133965555
 20
1174.4254348572
 11
164.1133965555
 21
1174.4254348572
  0
LINE
  5
370
100
AcDbEntity
  8
0
100
AcDbLine
 62
7
  6
CONTINUOUS
 10
150.1949232486
 20
1170.1438652544
 11
150.6536933914
 21
1170.1128027119
  0
LINE
  5
371
100
AcDbEntity
  8
0
100
AcDbLine
 62
7
  6
CONTINUOUS
 10
154.9307701865
 20
1172.6025869753
 11
155.0884716144
 21
1172.6336496498
  0
LINE
  5
372
100
AcDbEntity
  8
0
100
AcDbLine
 62
7
  6
CONTINUOUS
 10
144.8750320221
 20
1166.9278801995
 11
141.4381447631
 21
1166.3103675869
  0
LINE
  5
373
100
AcDbEntity
  8
0
100
AcDbLine
 62
7
  6
CONTINUOUS
 10
155.9630026117
 20
1169.5202245008
 11
156.1541568819
 21
1169.5536764849
  0
LINE
  5
374
100
AcDbEntity
  8
0
100
AcDbLine
 62
7
  6
CONTINUOUS
 10
149.4326952794
 20
1169.0327811375
 11
149.1292379811
 21
1168.9849925699
  0
LINE
  5
375
100
AcDbEntity
  8
0
100
AcDbLine
 62
7
  6
CONTINUOUS
 10
156.8685962835
 20
1172.6025869753
 11
157.0740873352
 21
1172.6336496498
  0
LINE
  5
376
100
AcDbEntity
  8
0
100
AcDbLine
 62
7
  6
CONTINUOUS
 10
158.9330621901
 20
1169.5369505259
 11
159.1074905673
 21
1169.5536764849
  0
LINE
  5
377
100
AcDbEntity
  8
0
100
AcDbLine
 62
7
  6
CONTINUOUS
 10
154.8662557259
 20
1169.5369505259
 11
155.0406830469
 21
1169.5536764849
  0
LINE
  5
378
100
AcDbEntity
  8
0
100
AcDbLine
 62
7
  6
CONTINUOUS
 10
159.0907646742
 20
1172.6169234928
 11
159.2819189444
 21
1172.6336496498
  0
LINE
  5
379
100
AcDbEntity
  8
0
100
AcDbLine
 62
7
  6
CONTINUOUS
 10
163.4517610888
 20
1192.3007882897
 11
166.8886483478
 21
1192.9183009024
  0
LINE
  5
37A
100
AcDbEntity
  8
0
100
AcDbLine
 62
7
  6
CONTINUOUS
 10
116.6633965555
 20
1295.3071942446
 11
906.6633965555
 21
1295.3071942446
  0
LINE
  5
37B
100
AcDbEntity
  8
0
100
AcDbLine
 62
7
  6
CONTINUOUS
 10
909.1633965555
 20
1296.3071942446
 11
907.6633965555
 21
1296.3071942446
  0
LINE
  5
37C
100
AcDbEntity
  8
0
100
AcDbLine
 62
7
  6
CONTINUOUS
 10
115.6633965555
 20
1296.3071942446
 11
114.1633965555
 21
1296.3071942446
  0
LINE
  5
37D
100
AcDbEntity
  8
0
100
AcDbLine
 62
7
  6
CONTINUOUS
 10
907.6633965555
 20
1297.8071942446
 11
115.6633965555
 21
1297.8071942446
  0
LINE
  5
37E
100
AcDbEntity
  8
0
100
AcDbLine
 62
7
  6
CONTINUOUS
 10
114.1633965555
 20
1298.5071942446
 11
909.1633965555
 21
1298.5071942446
  0
LINE
  5
37F
100
AcDbEntity
  8
0
100
AcDbLine
 62
7
  6
CONTINUOUS
 10
911.6633965555
 20
1299.5071942446
 11
910.1633965555
 21
1299.5071942446
  0
LINE
  5
380
100
AcDbEntity
  8
0
100
AcDbLine
 62
7
  6
CONTINUOUS
 10
113.1633965555
 20
1299.5071942446
 11
111.6633965555
 21
1299.5071942446
  0
LINE
  5
381
100
AcDbEntity
  8
0
100
AcDbLine
 62
7
  6
CONTINUOUS
 10
910.1633965555
 20
1301.0071942446
 11
113.1633965555
 21
1301.0071942446
  0
ARC
  5
382
100
AcDbEntity
  8
0
100
AcDbCircle
 62
7
  6
CONTINUOUS
 10
117.9053842819
 20
86.1485951057
 40
17.7420630504
100
AcDbArc
 50
105.5748127149
 51
106.1417934711
  0
ARC
  5
383
100
AcDbEntity
  8
0
100
AcDbCircle
 62
7
  6
CONTINUOUS
 10
120.4053842821
 20
87.9485951052
 40
17.7420630509
100
AcDbArc
 50
105.5748127149
 51
106.1417934711
  0
ARC
  5
384
100
AcDbEntity
  8
0
100
AcDbCircle
 62
7
  6
CONTINUOUS
 10
92.8428190555
 20
212.6143342446
 40
75.2967775
100
AcDbArc
 50
346.8037705653
 51
13.1962294694
  0
ARC
  5
385
100
AcDbEntity
  8
0
100
AcDbCircle
 62
7
  6
CONTINUOUS
 10
92.8428190555
 20
212.6143342446
 40
75.2315117781
100
AcDbArc
 50
349.8142310224
 51
10.1857689777
  0
ARC
  5
386
100
AcDbEntity
  8
0
100
AcDbCircle
 62
7
  6
CONTINUOUS
 10
92.8428190555
 20
212.6143342446
 40
71.7395902644
100
AcDbArc
 50
350.7845557179
 51
355.4736998393
  0
ARC
  5
387
100
AcDbEntity
  8
0
100
AcDbCircle
 62
7
  6
CONTINUOUS
 10
92.8428190555
 20
212.6143342446
 40
71.7395902644
100
AcDbArc
 50
355.7861513177
 51
10.1857717471
  0
ARC
  5
388
100
AcDbEntity
  8
0
100
AcDbCircle
 62
7
  6
CONTINUOUS
 10
92.8428190555
 20
212.6143342446
 40
71.7395902644
100
AcDbArc
 50
349.8142282406
 51
350.6226971405
  0
ARC
  5
389
100
AcDbEntity
  8
0
100
AcDbCircle
 62
7
  6
CONTINUOUS
 10
144.2133965555
 20
201.4254348572
 40
0.5
100
AcDbArc
 50
180.0
 51
270.0
  0
ARC
  5
38A
100
AcDbEntity
  8
0
100
AcDbCircle
 62
7
  6
CONTINUOUS
 10
144.4133965555
 20
201.6254348572
 40
0.5
100
AcDbArc
 50
180.0
 51
270.0
  0
ARC
  5
38B
100
AcDbEntity
  8
0
100
AcDbCircle
 62
7
  6
CONTINUOUS
 10
144.4133965555
 20
206.7254348572
 40
0.5
100
AcDbArc
 50
90.0000000017
 51
179.9999677422
  0
ARC
  5
38C
100
AcDbEntity
  8
0
100
AcDbCircle
 62
7
  6
CONTINUOUS
 10
144.2133965555
 20
206.9254348572
 40
0.5
100
AcDbArc
 50
90.0
 51
180.0
  0
ARC
  5
38D
100
AcDbEntity
  8
0
100
AcDbCircle
 62
7
  6
CONTINUOUS
 10
164.1133965555
 20
201.4254348572
 40
0.5
100
AcDbArc
 50
270.0
 51
360.0
  0
ARC
  5
38E
100
AcDbEntity
  8
0
100
AcDbCircle
 62
7
  6
CONTINUOUS
 10
163.9133965555
 20
201.6254348572
 40
0.5
100
AcDbArc
 50
270.0
 51
360.0
  0
ARC
  5
38F
100
AcDbEntity
  8
0
100
AcDbCircle
 62
7
  6
CONTINUOUS
 10
163.9133965555
 20
206.7254348572
 40
0.5
100
AcDbArc
 50
0.0
 51
89.9999999983
  0
ARC
  5
390
100
AcDbEntity
  8
0
100
AcDbCircle
 62
7
  6
CONTINUOUS
 10
164.1133965555
 20
206.9254348572
 40
0.5
100
AcDbArc
 50
0.0
 51
90.0
  0
ARC
  5
391
100
AcDbEntity
  8
0
100
AcDbCircle
 62
7
  6
CONTINUOUS
 10
154.1633965555
 20
212.6143342446
 40
21.8378125
100
AcDbArc
 50
60.0421653998
 51
119.9578291353
  0
ARC
  5
392
100
AcDbEntity
  8
0
100
AcDbCircle
 62
7
  6
CONTINUOUS
 10
154.1633965555
 20
212.6143342446
 40
21.8378125
100
AcDbArc
 50
240.0421708828
 51
299.9578346237
  0
ARC
  5
393
100
AcDbEntity
  8
0
100
AcDbCircle
 62
7
  6
CONTINUOUS
 10
154.1633965555
 20
212.6143342446
 40
21.8122316071
100
AcDbArc
 50
62.265267937
 51
117.7347328947
  0
ARC
  5
394
100
AcDbEntity
  8
0
100
AcDbCircle
 62
7
  6
CONTINUOUS
 10
154.1633965555
 20
212.6143342446
 40
21.8122316071
100
AcDbArc
 50
242.2652679371
 51
297.7347328954
  0
ARC
  5
395
100
AcDbEntity
  8
0
100
AcDbCircle
 62
7
  6
CONTINUOUS
 10
154.1633965555
 20
212.6143342446
 40
21.6627321963
100
AcDbArc
 50
62.2650132959
 51
117.7350312546
  0
ARC
  5
396
100
AcDbEntity
  8
0
100
AcDbCircle
 62
7
  6
CONTINUOUS
 10
154.1633965555
 20
212.6143342446
 40
21.6627321963
100
AcDbArc
 50
242.265013296
 51
297.7350004851
  0
ARC
  5
397
100
AcDbEntity
  8
0
100
AcDbCircle
 62
7
  6
CONTINUOUS
 10
154.1633965555
 20
212.6143342446
 40
15.723225
100
AcDbArc
 50
53.7903404206
 51
126.2096595793
  0
ARC
  5
398
100
AcDbEntity
  8
0
100
AcDbCircle
 62
7
  6
CONTINUOUS
 10
154.1633965555
 20
212.6143342446
 40
15.723225
100
AcDbArc
 50
233.7903404613
 51
306.2096595374
  0
CIRCLE
  5
399
100
AcDbEntity
  8
0
100
AcDbCircle
 62
7
  6
CONTINUOUS
 10
154.1633965555
 20
216.8071942446
 40
8.8
  0
CIRCLE
  5
39A
100
AcDbEntity
  8
0
100
AcDbCircle
 62
7
  6
CONTINUOUS
 10
154.1633965555
 20
216.8071942446
 40
8.05
  0
CIRCLE
  5
39B
100
AcDbEntity
  8
0
100
AcDbCircle
 62
7
  6
CONTINUOUS
 10
154.1633965555
 20
216.8071942446
 40
8.0
  0
ARC
  5
39C
100
AcDbEntity
  8
0
100
AcDbCircle
 62
7
  6
CONTINUOUS
 10
154.1633965555
 20
216.8071942446
 40
5.0
100
AcDbArc
 50
107.4576031237
 51
252.5423968763
  0
ARC
  5
39D
100
AcDbEntity
  8
0
100
AcDbCircle
 62
7
  6
CONTINUOUS
 10
154.1633965555
 20
216.8071942446
 40
5.0
100
AcDbArc
 50
287.4576031237
 51
72.5423968763
  0
CIRCLE
  5
39E
100
AcDbEntity
  8
0
100
AcDbCircle
 62
7
  6
CONTINUOUS
 10
154.1633965555
 20
216.8071942446
 40
1.5
  0
ARC
  5
39F
100
AcDbEntity
  8
0
100
AcDbCircle
 62
7
  6
CONTINUOUS
 10
215.4839740555
 20
212.6143342446
 40
75.2967775
100
AcDbArc
 50
166.8037705653
 51
193.1962294694
  0
ARC
  5
3A0
100
AcDbEntity
  8
0
100
AcDbCircle
 62
7
  6
CONTINUOUS
 10
215.4839740555
 20
212.6143342446
 40
75.2315117781
100
AcDbArc
 50
169.8142310224
 51
190.1857689777
  0
ARC
  5
3A1
100
AcDbEntity
  8
0
100
AcDbCircle
 62
7
  6
CONTINUOUS
 10
215.4839740555
 20
212.6143342446
 40
71.7395902644
100
AcDbArc
 50
184.5263001607
 51
189.2154442821
  0
ARC
  5
3A2
100
AcDbEntity
  8
0
100
AcDbCircle
 62
7
  6
CONTINUOUS
 10
215.4839740555
 20
212.6143342446
 40
71.7395902644
100
AcDbArc
 50
169.8142282529
 51
184.2138486823
  0
ARC
  5
3A3
100
AcDbEntity
  8
0
100
AcDbCircle
 62
7
  6
CONTINUOUS
 10
215.4839740555
 20
212.6143342446
 40
71.7395902644
100
AcDbArc
 50
189.3773028595
 51
190.1857717592
  0
ARC
  5
3A4
100
AcDbEntity
  8
0
100
AcDbCircle
 62
7
  6
CONTINUOUS
 10
92.8428190555
 20
1179.6143342446
 40
75.2967775
100
AcDbArc
 50
346.8037705653
 51
13.1962294694
  0
ARC
  5
3A5
100
AcDbEntity
  8
0
100
AcDbCircle
 62
7
  6
CONTINUOUS
 10
92.8428190555
 20
1179.6143342446
 40
75.2315117781
100
AcDbArc
 50
349.8142310224
 51
10.1857689777
  0
ARC
  5
3A6
100
AcDbEntity
  8
0
100
AcDbCircle
 62
7
  6
CONTINUOUS
 10
92.8428190555
 20
1179.6143342446
 40
71.7395902644
100
AcDbArc
 50
350.7845557179
 51
355.4736998393
  0
ARC
  5
3A7
100
AcDbEntity
  8
0
100
AcDbCircle
 62
7
  6
CONTINUOUS
 10
92.8428190555
 20
1179.6143342446
 40
71.7395902644
100
AcDbArc
 50
355.7861513177
 51
10.1857717471
  0
ARC
  5
3A8
100
AcDbEntity
  8
0
100
AcDbCircle
 62
7
  6
CONTINUOUS
 10
92.8428190555
 20
1179.6143342446
 40
71.7395902644
100
AcDbArc
 50
349.8142282406
 51
350.6226971405
  0
ARC
  5
3A9
100
AcDbEntity
  8
0
100
AcDbCircle
 62
7
  6
CONTINUOUS
 10
144.2133965555
 20
1168.4254348572
 40
0.5
100
AcDbArc
 50
180.0
 51
270.0
  0
ARC
  5
3AA
100
AcDbEntity
  8
0
100
AcDbCircle
 62
7
  6
CONTINUOUS
 10
144.4133965555
 20
1168.6254348572
 40
0.5
100
AcDbArc
 50
180.0
 51
270.0
  0
ARC
  5
3AB
100
AcDbEntity
  8
0
100
AcDbCircle
 62
7
  6
CONTINUOUS
 10
144.4133965555
 20
1173.7254348572
 40
0.5
100
AcDbArc
 50
90.0
 51
179.9999677422
  0
ARC
  5
3AC
100
AcDbEntity
  8
0
100
AcDbCircle
 62
7
  6
CONTINUOUS
 10
144.2133965555
 20
1173.9254348572
 40
0.5
100
AcDbArc
 50
90.0
 51
180.0
  0
ARC
  5
3AD
100
AcDbEntity
  8
0
100
AcDbCircle
 62
7
  6
CONTINUOUS
 10
96.8047974122
 20
1294.7652065169
 40
17.742063055
100
AcDbArc
 50
15.574812715
 51
16.141793471
  0
ARC
  5
3AE
100
AcDbEntity
  8
0
100
AcDbCircle
 62
7
  6
CONTINUOUS
 10
99.3047974172
 20
1291.5652065184
 40
17.7420630497
100
AcDbArc
 50
15.5748127149
 51
16.1417934711
  0
ARC
  5
3AF
100
AcDbEntity
  8
0
100
AcDbCircle
 62
7
  6
CONTINUOUS
 10
164.1133965555
 20
1168.4254348572
 40
0.5
100
AcDbArc
 50
270.0
 51
360.0
  0
ARC
  5
3B0
100
AcDbEntity
  8
0
100
AcDbCircle
 62
7
  6
CONTINUOUS
 10
163.9133965555
 20
1168.6254348572
 40
0.5
100
AcDbArc
 50
270.0
 51
360.0
  0
ARC
  5
3B1
100
AcDbEntity
  8
0
100
AcDbCircle
 62
7
  6
CONTINUOUS
 10
163.9133965555
 20
1173.7254348572
 40
0.5
100
AcDbArc
 50
0.0
 51
90.0
  0
ARC
  5
3B2
100
AcDbEntity
  8
0
100
AcDbCircle
 62
7
  6
CONTINUOUS
 10
164.1133965555
 20
1173.9254348572
 40
0.5
100
AcDbArc
 50
0.0
 51
90.0
  0
ARC
  5
3B3
100
AcDbEntity
  8
0
100
AcDbCircle
 62
7
  6
CONTINUOUS
 10
154.1633965555
 20
1179.6143342446
 40
21.8378125
100
AcDbArc
 50
60.0421653998
 51
119.9578291353
  0
ARC
  5
3B4
100
AcDbEntity
  8
0
100
AcDbCircle
 62
7
  6
CONTINUOUS
 10
154.1633965555
 20
1179.6143342446
 40
21.8378125
100
AcDbArc
 50
240.0421708828
 51
299.9578346237
  0
ARC
  5
3B5
100
AcDbEntity
  8
0
100
AcDbCircle
 62
7
  6
CONTINUOUS
 10
154.1633965555
 20
1179.6143342446
 40
21.8122316071
100
AcDbArc
 50
62.265267937
 51
117.7347328947
  0
ARC
  5
3B6
100
AcDbEntity
  8
0
100
AcDbCircle
 62
7
  6
CONTINUOUS
 10
154.1633965555
 20
1179.6143342446
 40
21.8122316071
100
AcDbArc
 50
242.2652679371
 51
297.7347328954
  0
ARC
  5
3B7
100
AcDbEntity
  8
0
100
AcDbCircle
 62
7
  6
CONTINUOUS
 10
154.1633965555
 20
1179.6143342446
 40
21.6627321963
100
AcDbArc
 50
62.2650132959
 51
117.7350312546
  0
ARC
  5
3B8
100
AcDbEntity
  8
0
100
AcDbCircle
 62
7
  6
CONTINUOUS
 10
154.1633965555
 20
1179.6143342446
 40
21.6627321963
100
AcDbArc
 50
242.265013296
 51
297.7350004851
  0
ARC
  5
3B9
100
AcDbEntity
  8
0
100
AcDbCircle
 62
7
  6
CONTINUOUS
 10
154.1633965555
 20
1179.6143342446
 40
15.723225
100
AcDbArc
 50
53.7903404206
 51
126.2096595793
  0
ARC
  5
3BA
100
AcDbEntity
  8
0
100
AcDbCircle
 62
7
  6
CONTINUOUS
 10
154.1633965555
 20
1179.6143342446
 40
15.723225
100
AcDbArc
 50
233.7903404613
 51
306.2096595374
  0
CIRCLE
  5
3BB
100
AcDbEntity
  8
0
100
AcDbCircle
 62
7
  6
CONTINUOUS
 10
154.1633965555
 20
1183.8071942446
 40
8.8
  0
CIRCLE
  5
3BC
100
AcDbEntity
  8
0
100
AcDbCircle
 62
7
  6
CONTINUOUS
 10
154.1633965555
 20
1183.8071942446
 40
8.05
  0
CIRCLE
  5
3BD
100
AcDbEntity
  8
0
100
AcDbCircle
 62
7
  6
CONTINUOUS
 10
154.1633965555
 20
1183.8071942446
 40
8.0
  0
ARC
  5
3BE
100
AcDbEntity
  8
0
100
AcDbCircle
 62
7
  6
CONTINUOUS
 10
154.1633965555
 20
1183.8071942446
 40
5.0
100
AcDbArc
 50
107.4576031237
 51
252.5423968763
  0
ARC
  5
3BF
100
AcDbEntity
  8
0
100
AcDbCircle
 62
7
  6
CONTINUOUS
 10
154.1633965555
 20
1183.8071942446
 40
5.0
100
AcDbArc
 50
287.4576031237
 51
72.5423968763
  0
CIRCLE
  5
3C0
100
AcDbEntity
  8
0
100
AcDbCircle
 62
7
  6
CONTINUOUS
 10
154.1633965555
 20
1183.8071942446
 40
1.5
  0
ARC
  5
3C1
100
AcDbEntity
  8
0
100
AcDbCircle
 62
7
  6
CONTINUOUS
 10
215.4839740555
 20
1179.6143342446
 40
75.2967775
100
AcDbArc
 50
166.8037705653
 51
193.1962294694
  0
ARC
  5
3C2
100
AcDbEntity
  8
0
100
AcDbCircle
 62
7
  6
CONTINUOUS
 10
215.4839740555
 20
1179.6143342446
 40
75.2315117781
100
AcDbArc
 50
169.8142310224
 51
190.1857689777
  0
ARC
  5
3C3
100
AcDbEntity
  8
0
100
AcDbCircle
 62
7
  6
CONTINUOUS
 10
215.4839740555
 20
1179.6143342446
 40
71.7395902644
100
AcDbArc
 50
184.5263001607
 51
189.2154442821
  0
ARC
  5
3C4
100
AcDbEntity
  8
0
100
AcDbCircle
 62
7
  6
CONTINUOUS
 10
215.4839740555
 20
1179.6143342446
 40
71.7395902644
100
AcDbArc
 50
169.8142282529
 51
184.2138486823
  0
ARC
  5
3C5
100
AcDbEntity
  8
0
100
AcDbCircle
 62
7
  6
CONTINUOUS
 10
215.4839740555
 20
1179.6143342446
 40
71.7395902644
100
AcDbArc
 50
189.3773028595
 51
190.1857717592
  0
ARC
  5
3C6
100
AcDbEntity
  8
0
100
AcDbCircle
 62
7
  6
CONTINUOUS
 10
926.5219956825
 20
107.2491819677
 40
17.742063038
100
AcDbArc
 50
195.5748127148
 51
196.1417934713
  0
ARC
  5
3C7
100
AcDbEntity
  8
0
100
AcDbCircle
 62
7
  6
CONTINUOUS
 10
924.0219956824
 20
109.0491819677
 40
17.742063038
100
AcDbArc
 50
195.5748127149
 51
196.1417934714
  0
ARC
  5
3C8
100
AcDbEntity
  8
0
100
AcDbCircle
 62
7
  6
CONTINUOUS
 10
905.6521865417
 20
86.9642616408
 40
16.8943845669
100
AcDbArc
 50
73.6311535637
 51
74.4363795358
  0
ARC
  5
3C9
100
AcDbEntity
  8
0
100
AcDbCircle
 62
7
  6
CONTINUOUS
 10
902.9214088317
 20
1312.6657933739
 40
17.7420630404
100
AcDbArc
 50
285.5748127148
 51
286.1417934713
  0
ARC
  5
3CA
100
AcDbEntity
  8
0
100
AcDbCircle
 62
7
  6
CONTINUOUS
 10
905.4214088335
 20
1315.8657933677
 40
17.742063034
100
AcDbArc
 50
285.5748127147
 51
286.1417934714
  0
SPLINE
  5
3CB
100
AcDbEntity
  8
0
100
AcDbSpline
 62
7
  6
CONTINUOUS
 70
0
 71
3
 72
8
 73
4
 74
0
 42
0.0000001
 43
0.0000001
 44
0.0000000001
 40
0.0
 40
0.0
 40
0.0
 40
0.0
 40
1.0
 40
1.0
 40
1.0
 40
1.0
 10
166.1513044244
 20
1196.8035946401
 30
0.0
 10
166.0641466385
 20
1197.175303663
 30
0.0
 10
165.9252759399
 20
1197.5396296755
 30
0.0
 10
165.7350242036
 20
1197.8706407844
 30
0.0
  0
SPLINE
  5
3CC
100
AcDbEntity
  8
0
100
AcDbSpline
 62
7
  6
CONTINUOUS
 70
0
 71
3
 72
8
 73
4
 74
0
 42
0.0000001
 43
0.0000001
 44
0.0000000001
 40
0.0
 40
0.0
 40
0.0
 40
0.0
 40
1.0
 40
1.0
 40
1.0
 40
1.0
 10
142.5917653458
 20
1197.870635717
 30
0.0
 10
142.4015151581
 20
1197.5396260133
 30
0.0
 10
142.2626460057
 20
1197.1753016817
 30
0.0
 10
142.1754886741
 20
1196.8035945962
 30
0.0
  0
SPLINE
  5
3CD
100
AcDbEntity
  8
0
100
AcDbSpline
 62
7
  6
CONTINUOUS
 70
0
 71
3
 72
9
 73
5
 74
0
 42
0.0000001
 43
0.0000001
 44
0.0000000001
 40
0.0
 40
0.0
 40
0.0
 40
0.0
 40
0.5000369803
 40
1.0
 40
1.0
 40
1.0
 40
1.0
 10
143.2584129293
 20
1198.5344660907
 30
0.0
 10
143.1213652226
 20
1198.455476414
 30
0.0
 10
142.8662040432
 20
1198.261826914
 30
0.0
 10
142.6705774036
 20
1198.0077586588
 30
0.0
 10
142.5917653458
 20
1197.870635717
 30
0.0
  0
SPLINE
  5
3CE
100
AcDbEntity
  8
0
100
AcDbSpline
 62
7
  6
CONTINUOUS
 70
0
 71
3
 72
9
 73
5
 74
0
 42
0.0000001
 43
0.0000001
 44
0.0000000001
 40
0.0
 40
0.0
 40
0.0
 40
0.0
 40
0.4999631248
 40
1.0
 40
1.0
 40
1.0
 40
1.0
 10
165.7350242036
 20
1197.8706407844
 30
0.0
 10
165.6562123359
 20
1198.0077622859
 30
0.0
 10
165.460587618
 20
1198.2618284018
 30
0.0
 10
165.2054283804
 20
1198.4554759204
 30
0.0
 10
165.0683818958
 20
1198.5344648935
 30
0.0
  0
SPLINE
  5
3CF
100
AcDbEntity
  8
0
100
AcDbSpline
 62
7
  6
CONTINUOUS
 70
0
 71
3
 72
8
 73
4
 74
0
 42
0.0000001
 43
0.0000001
 44
0.0000000001
 40
0.0
 40
0.0
 40
0.0
 40
0.0
 40
1.0
 40
1.0
 40
1.0
 40
1.0
 10
145.5761581559
 20
1173.3958770909
 30
0.0
 10
145.8151009277
 20
1173.3958770909
 30
0.0
 10
146.0851063079
 20
1173.3313626304
 30
0.0
 10
146.3861743626
 20
1173.2047228207
 30
0.0
  0
SPLINE
  5
3D0
100
AcDbEntity
  8
0
100
AcDbSpline
 62
7
  6
CONTINUOUS
 70
0
 71
3
 72
8
 73
4
 74
0
 42
0.0000001
 43
0.0000001
 44
0.0000000001
 40
0.0
 40
0.0
 40
0.0
 40
0.0
 40
1.0
 40
1.0
 40
1.0
 40
1.0
 10
145.2105756406
 20
1173.3480885234
 30
0.0
 10
145.3491624601
 20
1173.3791511979
 30
0.0
 10
145.4710233206
 20
1173.3958770909
 30
0.0
 10
145.5761581559
 20
1173.3958770909
 30
0.0
  0
SPLINE
  5
3D1
100
AcDbEntity
  8
0
100
AcDbSpline
 62
7
  6
CONTINUOUS
 70
0
 71
3
 72
8
 73
4
 74
0
 42
0.0000001
 43
0.0000001
 44
0.0000000001
 40
0.0
 40
0.0
 40
0.0
 40
0.0
 40
1.0
 40
1.0
 40
1.0
 40
1.0
 10
144.6872908372
 20
1172.7292267849
 30
0.0
 10
144.6872908372
 20
1173.0207369413
 30
0.0
 10
144.8617191009
 20
1173.2286171045
 30
0.0
 10
145.2105756406
 20
1173.3480885234
 30
0.0
  0
SPLINE
  5
3D2
100
AcDbEntity
  8
0
100
AcDbSpline
 62
7
  6
CONTINUOUS
 70
0
 71
3
 72
8
 73
4
 74
0
 42
0.0000001
 43
0.0000001
 44
0.0000000001
 40
0.0
 40
0.0
 40
0.0
 40
0.0
 40
1.0
 40
1.0
 40
1.0
 40
1.0
 10
145.2105756406
 20
1172.0315135404
 30
0.0
 10
144.8617191009
 20
1172.1796582582
 30
0.0
 10
144.6872908372
 20
1172.4138220807
 30
0.0
 10
144.6872908372
 20
1172.7292267849
 30
0.0
  0
SPLINE
  5
3D3
100
AcDbEntity
  8
0
100
AcDbSpline
 62
7
  6
CONTINUOUS
 70
0
 71
3
 72
8
 73
4
 74
0
 42
0.0000001
 43
0.0000001
 44
0.0000000001
 40
0.0
 40
0.0
 40
0.0
 40
0.0
 40
1.0
 40
1.0
 40
1.0
 40
1.0
 10
145.8772261447
 20
1171.6659311571
 30
0.0
 10
145.8772261447
 20
1171.7662870433
 30
0.0
 10
145.655009266
 20
1171.8881478377
 30
0.0
 10
145.2105756406
 20
1172.0315135404
 30
0.0
  0
SPLINE
  5
3D4
100
AcDbEntity
  8
0
100
AcDbSpline
 62
7
  6
CONTINUOUS
 70
0
 71
3
 72
8
 73
4
 74
0
 42
0.0000001
 43
0.0000001
 44
0.0000000001
 40
0.0
 40
0.0
 40
0.0
 40
0.0
 40
1.0
 40
1.0
 40
1.0
 40
1.0
 10
145.5283695884
 20
1171.4102621623
 30
0.0
 10
145.7601441014
 20
1171.4102621623
 30
0.0
 10
145.8772261447
 20
1171.4938921555
 30
0.0
 10
145.8772261447
 20
1171.6659311571
 30
0.0
  0
SPLINE
  5
3D5
100
AcDbEntity
  8
0
100
AcDbSpline
 62
7
  6
CONTINUOUS
 70
0
 71
3
 72
8
 73
4
 74
0
 42
0.0000001
 43
0.0000001
 44
0.0000000001
 40
0.0
 40
0.0
 40
0.0
 40
0.0
 40
1.0
 40
1.0
 40
1.0
 40
1.0
 10
144.766141974
 20
1171.6969935676
 30
0.0
 10
145.0528733546
 20
1171.5058392974
 30
0.0
 10
145.3085422173
 20
1171.4102621623
 30
0.0
 10
145.5283695884
 20
1171.4102621623
 30
0.0
  0
SPLINE
  5
3D6
100
AcDbEntity
  8
0
100
AcDbSpline
 62
7
  6
CONTINUOUS
 70
0
 71
3
 72
8
 73
4
 74
0
 42
0.0000001
 43
0.0000001
 44
0.0000000001
 40
0.0
 40
0.0
 40
0.0
 40
0.0
 40
1.0
 40
1.0
 40
1.0
 40
1.0
 10
145.4973070459
 20
1170.9992805871
 30
0.0
 10
145.2010179073
 20
1170.9992805871
 30
0.0
 10
144.9453490776
 20
1171.0781316971
 30
0.0
 10
144.7350794068
 20
1171.2358340492
 30
0.0
  0
SPLINE
  5
3D7
100
AcDbEntity
  8
0
100
AcDbSpline
 62
7
  6
CONTINUOUS
 70
0
 71
3
 72
8
 73
4
 74
0
 42
0.0000001
 43
0.0000001
 44
0.0000000001
 40
0.0
 40
0.0
 40
0.0
 40
0.0
 40
1.0
 40
1.0
 40
1.0
 40
1.0
 10
146.4817514977
 20
1171.7137197246
 30
0.0
 10
146.4817514977
 20
1171.2931803831
 30
0.0
 10
146.2045777267
 20
1171.0566269209
 30
0.0
 10
145.655009266
 20
1170.9992805871
 30
0.0
  0
SPLINE
  5
3D8
100
AcDbEntity
  8
0
100
AcDbSpline
 62
7
  6
CONTINUOUS
 70
0
 71
3
 72
8
 73
4
 74
0
 42
0.0000001
 43
0.0000001
 44
0.0000000001
 40
0.0
 40
0.0
 40
0.0
 40
0.0
 40
1.0
 40
1.0
 40
1.0
 40
1.0
 10
146.0540437654
 20
1172.3325814631
 30
0.0
 10
146.3383857951
 20
1172.1653214767
 30
0.0
 10
146.4817514977
 20
1171.9574413135
 30
0.0
 10
146.4817514977
 20
1171.7137197246
 30
0.0
  0
SPLINE
  5
3D9
100
AcDbEntity
  8
0
100
AcDbSpline
 62
7
  6
CONTINUOUS
 70
0
 71
3
 72
8
 73
4
 74
0
 42
0.0000001
 43
0.0000001
 44
0.0000000001
 40
0.0
 40
0.0
 40
0.0
 40
0.0
 40
1.0
 40
1.0
 40
1.0
 40
1.0
 10
145.2918161923
 20
1172.7125006279
 30
0.0
 10
145.2918161923
 20
1172.6503755429
 30
0.0
 10
145.5450956134
 20
1172.5237357333
 30
0.0
 10
146.0540437654
 20
1172.3325814631
 30
0.0
  0
SPLINE
  5
3DA
100
AcDbEntity
  8
0
100
AcDbSpline
 62
7
  6
CONTINUOUS
 70
0
 71
3
 72
8
 73
4
 74
0
 42
0.0000001
 43
0.0000001
 44
0.0000000001
 40
0.0
 40
0.0
 40
0.0
 40
0.0
 40
1.0
 40
1.0
 40
1.0
 40
1.0
 10
145.5450956134
 20
1172.9514434656
 30
0.0
 10
145.3993404692
 20
1172.9514434656
 30
0.0
 10
145.315710476
 20
1172.8917077561
 30
0.0
 10
145.2918161923
 20
1172.7770153525
 30
0.0
  0
SPLINE
  5
3DB
100
AcDbEntity
  8
0
100
AcDbSpline
 62
7
  6
CONTINUOUS
 70
0
 71
3
 72
8
 73
4
 74
0
 42
0.0000001
 43
0.0000001
 44
0.0000000001
 40
0.0
 40
0.0
 40
0.0
 40
0.0
 40
1.0
 40
1.0
 40
1.0
 40
1.0
 10
146.3551118201
 20
1172.7602891954
 30
0.0
 10
146.0779380491
 20
1172.886929005
 30
0.0
 10
145.8557212365
 20
1172.9514434656
 30
0.0
 10
145.6884612501
 20
1172.9514434656
 30
0.0
  0
SPLINE
  5
3DC
100
AcDbEntity
  8
0
100
AcDbSpline
 62
7
  6
CONTINUOUS
 70
0
 71
3
 72
8
 73
4
 74
0
 42
0.0000001
 43
0.0000001
 44
0.0000000001
 40
0.0
 40
0.0
 40
0.0
 40
0.0
 40
1.0
 40
1.0
 40
1.0
 40
1.0
 10
154.0896909752
 20
1173.3815405735
 30
0.0
 10
154.1470370451
 20
1173.3815405735
 30
0.0
 10
154.1996048918
 20
1173.3433097722
 30
0.0
 10
154.2473934594
 20
1173.2692375454
 30
0.0
  0
SPLINE
  5
3DD
100
AcDbEntity
  8
0
100
AcDbSpline
 62
7
  6
CONTINUOUS
 70
0
 71
3
 72
8
 73
4
 74
0
 42
0.0000001
 43
0.0000001
 44
0.0000000001
 40
0.0
 40
0.0
 40
0.0
 40
0.0
 40
1.0
 40
1.0
 40
1.0
 40
1.0
 10
153.6906565419
 20
1172.9681693586
 30
0.0
 10
153.6906565419
 20
1173.1760497858
 30
0.0
 10
153.7910129562
 20
1173.3146364733
 30
0.0
 10
153.9941138402
 20
1173.3815405735
 30
0.0
  0
SPLINE
  5
3DE
100
AcDbEntity
  8
0
100
AcDbSpline
 62
7
  6
CONTINUOUS
 70
0
 71
3
 72
8
 73
4
 74
0
 42
0.0000001
 43
0.0000001
 44
0.0000000001
 40
0.0
 40
0.0
 40
0.0
 40
0.0
 40
1.0
 40
1.0
 40
1.0
 40
1.0
 10
153.8674740306
 20
1172.841529813
 30
0.0
 10
153.7957911792
 20
1172.841529813
 30
0.0
 10
153.7360559979
 20
1172.8821499898
 30
0.0
 10
153.6906565419
 20
1172.9681693586
 30
0.0
  0
SPLINE
  5
3DF
100
AcDbEntity
  8
0
100
AcDbSpline
 62
7
  6
CONTINUOUS
 70
0
 71
3
 72
8
 73
4
 74
0
 42
0.0000001
 43
0.0000001
 44
0.0000000001
 40
0.0
 40
0.0
 40
0.0
 40
0.0
 40
1.0
 40
1.0
 40
1.0
 40
1.0
 10
154.2473934594
 20
1173.1903863033
 30
0.0
 10
154.2473934594
 20
1173.0302947076
 30
0.0
 10
154.1207536498
 20
1172.9132126643
 30
0.0
 10
153.8674740306
 20
1172.841529813
 30
0.0
  0
SPLINE
  5
3E0
100
AcDbEntity
  8
0
100
AcDbSpline
 62
7
  6
CONTINUOUS
 70
0
 71
3
 72
8
 73
4
 74
0
 42
0.0000001
 43
0.0000001
 44
0.0000000001
 40
0.0
 40
0.0
 40
0.0
 40
0.0
 40
1.0
 40
1.0
 40
1.0
 40
1.0
 10
149.1029540578
 20
1172.2680670025
 30
0.0
 10
148.9834829029
 20
1172.2680670025
 30
0.0
 10
148.8664008597
 20
1172.1892157605
 30
0.0
 10
148.7517081919
 20
1172.0315135404
 30
0.0
  0
SPLINE
  5
3E1
100
AcDbEntity
  8
0
100
AcDbSpline
 62
7
  6
CONTINUOUS
 70
0
 71
3
 72
8
 73
4
 74
0
 42
0.0000001
 43
0.0000001
 44
0.0000000001
 40
0.0
 40
0.0
 40
0.0
 40
0.0
 40
1.0
 40
1.0
 40
1.0
 40
1.0
 10
149.3395077839
 20
1171.9837249728
 30
0.0
 10
149.3060554698
 20
1172.1724898674
 30
0.0
 10
149.2272047558
 20
1172.2680670025
 30
0.0
 10
149.1029540578
 20
1172.2680670025
 30
0.0
  0
SPLINE
  5
3E2
100
AcDbEntity
  8
0
100
AcDbSpline
 62
7
  6
CONTINUOUS
 70
0
 71
3
 72
8
 73
4
 74
0
 42
0.0000001
 43
0.0000001
 44
0.0000000001
 40
0.0
 40
0.0
 40
0.0
 40
0.0
 40
1.0
 40
1.0
 40
1.0
 40
1.0
 10
149.8484561339
 20
1171.5536278649
 30
0.0
 10
149.8197825709
 20
1171.52495483
 30
0.0
 10
149.650133473
 20
1171.4652191206
 30
0.0
 10
149.3395077839
 20
1171.3791997518
 30
0.0
  0
SPLINE
  5
3E3
100
AcDbEntity
  8
0
100
AcDbSpline
 62
7
  6
CONTINUOUS
 70
0
 71
3
 72
8
 73
4
 74
0
 42
0.0000001
 43
0.0000001
 44
0.0000000001
 40
0.0
 40
0.0
 40
0.0
 40
0.0
 40
1.0
 40
1.0
 40
1.0
 40
1.0
 10
149.8190208619
 20
1172.2375870022
 30
0.0
 10
149.836508992
 20
1172.1892157605
 30
0.0
 10
149.8484561339
 20
1172.1199225488
 30
0.0
 10
149.8484561339
 20
1172.0315135404
 30
0.0
  0
SPLINE
  5
3E4
100
AcDbEntity
  8
0
100
AcDbSpline
 62
7
  6
CONTINUOUS
 70
0
 71
3
 72
8
 73
4
 74
0
 42
0.0000001
 43
0.0000001
 44
0.0000000001
 40
0.0
 40
0.0
 40
0.0
 40
0.0
 40
1.0
 40
1.0
 40
1.0
 40
1.0
 10
149.3084451094
 20
1172.6336496498
 30
0.0
 10
149.5545563379
 20
1172.6336496498
 30
0.0
 10
149.7242054358
 20
1172.4998414495
 30
0.0
 10
149.8190208619
 20
1172.2375870022
 30
0.0
  0
SPLINE
  5
3E5
100
AcDbEntity
  8
0
100
AcDbSpline
 62
7
  6
CONTINUOUS
 70
0
 71
3
 72
8
 73
4
 74
0
 42
0.0000001
 43
0.0000001
 44
0.0000000001
 40
0.0
 40
0.0
 40
0.0
 40
0.0
 40
1.0
 40
1.0
 40
1.0
 40
1.0
 10
148.7517081919
 20
1172.3803700306
 30
0.0
 10
148.9189681783
 20
1172.547630017
 30
0.0
 10
149.0671128961
 20
1172.6336496498
 30
0.0
 10
149.1985311928
 20
1172.6336496498
 30
0.0
  0
SPLINE
  5
3E6
100
AcDbEntity
  8
0
100
AcDbSpline
 62
7
  6
CONTINUOUS
 70
0
 71
3
 72
8
 73
4
 74
0
 42
0.0000001
 43
0.0000001
 44
0.0000000001
 40
0.0
 40
0.0
 40
0.0
 40
0.0
 40
1.0
 40
1.0
 40
1.0
 40
1.0
 10
155.215111424
 20
1172.6336496498
 30
0.0
 10
155.3130787268
 20
1172.6336496498
 30
0.0
 10
155.446885871
 20
1172.6001975998
 30
0.0
 10
155.6141458574
 20
1172.5380725148
 30
0.0
  0
SPLINE
  5
3E7
100
AcDbEntity
  8
0
100
AcDbSpline
 62
7
  6
CONTINUOUS
 70
0
 71
3
 72
8
 73
4
 74
0
 42
0.0000001
 43
0.0000001
 44
0.0000000001
 40
0.0
 40
0.0
 40
0.0
 40
0.0
 40
1.0
 40
1.0
 40
1.0
 40
1.0
 10
154.4218218365
 20
1171.8546957877
 30
0.0
 10
154.4218218365
 20
1172.203552542
 30
0.0
 10
154.5914709345
 20
1172.4544425216
 30
0.0
 10
154.9307701865
 20
1172.6025869753
 30
0.0
  0
SPLINE
  5
3E8
100
AcDbEntity
  8
0
100
AcDbSpline
 62
7
  6
CONTINUOUS
 70
0
 71
3
 72
8
 73
4
 74
0
 42
0.0000001
 43
0.0000001
 44
0.0000000001
 40
0.0
 40
0.0
 40
0.0
 40
0.0
 40
1.0
 40
1.0
 40
1.0
 40
1.0
 10
155.1219244567
 20
1170.9992805871
 30
0.0
 10
154.8017402092
 20
1170.9992805871
 30
0.0
 10
154.5747450414
 20
1171.1928242328
 30
0.0
 10
154.4385477296
 20
1171.5846905395
 30
0.0
  0
SPLINE
  5
3E9
100
AcDbEntity
  8
0
100
AcDbSpline
 62
7
  6
CONTINUOUS
 70
0
 71
3
 72
8
 73
4
 74
0
 42
0.0000001
 43
0.0000001
 44
0.0000000001
 40
0.0
 40
0.0
 40
0.0
 40
0.0
 40
1.0
 40
1.0
 40
1.0
 40
1.0
 10
155.5974199644
 20
1171.1402569141
 30
0.0
 10
155.4683910432
 20
1171.044679779
 30
0.0
 10
155.3082994476
 20
1170.9992805871
 30
0.0
 10
155.1219244567
 20
1170.9992805871
 30
0.0
  0
SPLINE
  5
3EA
100
AcDbEntity
  8
0
100
AcDbSpline
 62
7
  6
CONTINUOUS
 70
0
 71
3
 72
8
 73
4
 74
0
 42
0.0000001
 43
0.0000001
 44
0.0000000001
 40
0.0
 40
0.0
 40
0.0
 40
0.0
 40
1.0
 40
1.0
 40
1.0
 40
1.0
 10
146.9572477975
 20
1172.4902839472
 30
0.0
 10
147.1292865351
 20
1172.5858610823
 30
0.0
 10
147.2774309888
 20
1172.6336496498
 30
0.0
 10
147.4040707985
 20
1172.6336496498
 30
0.0
  0
SPLINE
  5
3EB
100
AcDbEntity
  8
0
100
AcDbSpline
 62
7
  6
CONTINUOUS
 70
0
 71
3
 72
8
 73
4
 74
0
 42
0.0000001
 43
0.0000001
 44
0.0000000001
 40
0.0
 40
0.0
 40
0.0
 40
0.0
 40
1.0
 40
1.0
 40
1.0
 40
1.0
 10
146.6083911753
 20
1171.9192105123
 30
0.0
 10
146.6083911753
 20
1172.1055857673
 30
0.0
 10
146.723083711
 20
1172.2967400374
 30
0.0
 10
146.9572477975
 20
1172.4902839472
 30
0.0
  0
SPLINE
  5
3EC
100
AcDbEntity
  8
0
100
AcDbSpline
 62
7
  6
CONTINUOUS
 70
0
 71
3
 72
8
 73
4
 74
0
 42
0.0000001
 43
0.0000001
 44
0.0000000001
 40
0.0
 40
0.0
 40
0.0
 40
0.0
 40
1.0
 40
1.0
 40
1.0
 40
1.0
 10
147.4184073159
 20
1170.9992805871
 30
0.0
 10
147.0026467255
 20
1170.9992805871
 30
0.0
 10
146.7326414773
 20
1171.2214975318
 30
0.0
 10
146.6083911753
 20
1171.6659311571
 30
0.0
  0
SPLINE
  5
3ED
100
AcDbEntity
  8
0
100
AcDbSpline
 62
7
  6
CONTINUOUS
 70
0
 71
3
 72
8
 73
4
 74
0
 42
0.0000001
 43
0.0000001
 44
0.0000000001
 40
0.0
 40
0.0
 40
0.0
 40
0.0
 40
1.0
 40
1.0
 40
1.0
 40
1.0
 10
148.0372693184
 20
1171.1259202646
 30
0.0
 10
147.9631970915
 20
1171.0399008959
 30
0.0
 10
147.7577060398
 20
1170.9992805871
 30
0.0
 10
147.4184073159
 20
1170.9992805871
 30
0.0
  0
SPLINE
  5
3EE
100
AcDbEntity
  8
0
100
AcDbSpline
 62
7
  6
CONTINUOUS
 70
0
 71
3
 72
8
 73
4
 74
0
 42
0.0000001
 43
0.0000001
 44
0.0000000001
 40
0.0
 40
0.0
 40
0.0
 40
0.0
 40
1.0
 40
1.0
 40
1.0
 40
1.0
 10
147.6095615861
 20
1171.3314111843
 30
0.0
 10
147.7577060398
 20
1171.3505264529
 30
0.0
 10
147.8986823669
 20
1171.383978503
 30
0.0
 10
148.0372693184
 20
1171.4269883194
 30
0.0
  0
SPLINE
  5
3EF
100
AcDbEntity
  8
0
100
AcDbSpline
 62
7
  6
CONTINUOUS
 70
0
 71
3
 72
8
 73
4
 74
0
 42
0.0000001
 43
0.0000001
 44
0.0000000001
 40
0.0
 40
0.0
 40
0.0
 40
0.0
 40
1.0
 40
1.0
 40
1.0
 40
1.0
 10
147.1340652862
 20
1171.7925707027
 30
0.0
 10
147.1340652862
 20
1171.5823011639
 30
0.0
 10
147.2535367051
 20
1171.4341564461
 30
0.0
 10
147.497258558
 20
1171.3481370773
 30
0.0
  0
SPLINE
  5
3F0
100
AcDbEntity
  8
0
100
AcDbSpline
 62
7
  6
CONTINUOUS
 70
0
 71
3
 72
8
 73
4
 74
0
 42
0.0000001
 43
0.0000001
 44
0.0000000001
 40
0.0
 40
0.0
 40
0.0
 40
0.0
 40
1.0
 40
1.0
 40
1.0
 40
1.0
 10
147.6095615861
 20
1172.2680670025
 30
0.0
 10
147.3682293728
 20
1172.2680670025
 30
0.0
 10
147.2153059039
 20
1172.1462062081
 30
0.0
 10
147.1484020677
 20
1171.9024843552
 30
0.0
  0
SPLINE
  5
3F1
100
AcDbEntity
  8
0
100
AcDbSpline
 62
7
  6
CONTINUOUS
 70
0
 71
3
 72
8
 73
4
 74
0
 42
0.0000001
 43
0.0000001
 44
0.0000000001
 40
0.0
 40
0.0
 40
0.0
 40
0.0
 40
1.0
 40
1.0
 40
1.0
 40
1.0
 10
148.0229328009
 20
1172.1724898674
 30
0.0
 10
147.8389466575
 20
1172.2346149524
 30
0.0
 10
147.70035997
 20
1172.2680670025
 30
0.0
 10
147.6095615861
 20
1172.2680670025
 30
0.0
  0
SPLINE
  5
3F2
100
AcDbEntity
  8
0
100
AcDbSpline
 62
7
  6
CONTINUOUS
 70
0
 71
3
 72
8
 73
4
 74
0
 42
0.0000001
 43
0.0000001
 44
0.0000000001
 40
0.0
 40
0.0
 40
0.0
 40
0.0
 40
1.0
 40
1.0
 40
1.0
 40
1.0
 10
147.530710344
 20
1172.6336496498
 30
0.0
 10
147.7362013957
 20
1172.6336496498
 30
0.0
 10
147.8986823669
 20
1172.5906398334
 30
0.0
 10
148.0229328009
 20
1172.5070098402
 30
0.0
  0
SPLINE
  5
3F3
100
AcDbEntity
  8
0
100
AcDbSpline
 62
7
  6
CONTINUOUS
 70
0
 71
3
 72
8
 73
4
 74
0
 42
0.0000001
 43
0.0000001
 44
0.0000000001
 40
0.0
 40
0.0
 40
0.0
 40
0.0
 40
1.0
 40
1.0
 40
1.0
 40
1.0
 10
150.593957682
 20
1172.3947068121
 30
0.0
 10
150.768385531
 20
1172.5524090322
 30
0.0
 10
150.9021937314
 20
1172.6336496498
 30
0.0
 10
150.9929921153
 20
1172.6336496498
 30
0.0
  0
SPLINE
  5
3F4
100
AcDbEntity
  8
0
100
AcDbSpline
 62
7
  6
CONTINUOUS
 70
0
 71
3
 72
8
 73
4
 74
0
 42
0.0000001
 43
0.0000001
 44
0.0000000001
 40
0.0
 40
0.0
 40
0.0
 40
0.0
 40
1.0
 40
1.0
 40
1.0
 40
1.0
 10
150.593957682
 20
1171.3170746668
 30
0.0
 10
150.4959909073
 20
1171.4102621623
 30
0.0
 10
150.3263412812
 20
1171.4843346532
 30
0.0
 10
150.0873989716
 20
1171.5392913475
 30
0.0
  0
SPLINE
  5
3F5
100
AcDbEntity
  8
0
100
AcDbSpline
 62
7
  6
CONTINUOUS
 70
0
 71
3
 72
8
 73
4
 74
0
 42
0.0000001
 43
0.0000001
 44
0.0000000001
 40
0.0
 40
0.0
 40
0.0
 40
0.0
 40
1.0
 40
1.0
 40
1.0
 40
1.0
 10
150.9452035478
 20
1172.3015190526
 30
0.0
 10
150.7851119521
 20
1172.3015190526
 30
0.0
 10
150.6680296448
 20
1172.2059419175
 30
0.0
 10
150.593957682
 20
1172.0147876473
 30
0.0
  0
SPLINE
  5
3F6
100
AcDbEntity
  8
0
100
AcDbSpline
 62
7
  6
CONTINUOUS
 70
0
 71
3
 72
8
 73
4
 74
0
 42
0.0000001
 43
0.0000001
 44
0.0000000001
 40
0.0
 40
0.0
 40
0.0
 40
0.0
 40
1.0
 40
1.0
 40
1.0
 40
1.0
 10
151.1817567459
 20
1171.9502729227
 30
0.0
 10
151.1817567459
 20
1172.1844370093
 30
0.0
 10
151.1029055038
 20
1172.3015190526
 30
0.0
 10
150.9452035478
 20
1172.3015190526
 30
0.0
  0
SPLINE
  5
3F7
100
AcDbEntity
  8
0
100
AcDbSpline
 62
7
  6
CONTINUOUS
 70
0
 71
3
 72
8
 73
4
 74
0
 42
0.0000001
 43
0.0000001
 44
0.0000000001
 40
0.0
 40
0.0
 40
0.0
 40
0.0
 40
1.0
 40
1.0
 40
1.0
 40
1.0
 10
151.1339681783
 20
1172.6336496498
 30
0.0
 10
151.4923824349
 20
1172.6336496498
 30
0.0
 10
151.6739792028
 20
1172.3851490458
 30
0.0
 10
151.6739792028
 20
1171.8881478377
 30
0.0
  0
SPLINE
  5
3F8
100
AcDbEntity
  8
0
100
AcDbSpline
 62
7
  6
CONTINUOUS
 70
0
 71
3
 72
8
 73
4
 74
0
 42
0.0000001
 43
0.0000001
 44
0.0000000001
 40
0.0
 40
0.0
 40
0.0
 40
0.0
 40
1.0
 40
1.0
 40
1.0
 40
1.0
 10
152.8185151842
 20
1172.6336496498
 30
0.0
 10
153.0550683823
 20
1172.6336496498
 30
0.0
 10
153.260559434
 20
1172.4902839472
 30
0.0
 10
153.4373769227
 20
1172.2059419175
 30
0.0
  0
SPLINE
  5
3F9
100
AcDbEntity
  8
0
100
AcDbSpline
 62
7
  6
CONTINUOUS
 70
0
 71
3
 72
8
 73
4
 74
0
 42
0.0000001
 43
0.0000001
 44
0.0000000001
 40
0.0
 40
0.0
 40
0.0
 40
0.0
 40
1.0
 40
1.0
 40
1.0
 40
1.0
 10
151.881859366
 20
1171.8714219447
 30
0.0
 10
151.881859366
 20
1172.2537304851
 30
0.0
 10
152.1088550618
 20
1172.5093992158
 30
0.0
 10
152.565235565
 20
1172.6336496498
 30
0.0
  0
SPLINE
  5
3FA
100
AcDbEntity
  8
0
100
AcDbSpline
 62
7
  6
CONTINUOUS
 70
0
 71
3
 72
8
 73
4
 74
0
 42
0.0000001
 43
0.0000001
 44
0.0000000001
 40
0.0
 40
0.0
 40
0.0
 40
0.0
 40
1.0
 40
1.0
 40
1.0
 40
1.0
 10
152.7229380491
 20
1170.9992805871
 30
0.0
 10
152.3215139762
 20
1170.9992805871
 30
0.0
 10
152.051508992
 20
1171.1832665985
 30
0.0
 10
151.9129220405
 20
1171.5536278649
 30
0.0
  0
SPLINE
  5
3FB
100
AcDbEntity
  8
0
100
AcDbSpline
 62
7
  6
CONTINUOUS
 70
0
 71
3
 72
8
 73
4
 74
0
 42
0.0000001
 43
0.0000001
 44
0.0000000001
 40
0.0
 40
0.0
 40
0.0
 40
0.0
 40
1.0
 40
1.0
 40
1.0
 40
1.0
 10
153.5018919113
 20
1171.2047713747
 30
0.0
 10
153.322684783
 20
1171.0661845552
 30
0.0
 10
153.0622367731
 20
1170.9992805871
 30
0.0
 10
152.7229380491
 20
1170.9992805871
 30
0.0
  0
SPLINE
  5
3FC
100
AcDbEntity
  8
0
100
AcDbSpline
 62
7
  6
CONTINUOUS
 70
0
 71
3
 72
8
 73
4
 74
0
 42
0.0000001
 43
0.0000001
 44
0.0000000001
 40
0.0
 40
0.0
 40
0.0
 40
0.0
 40
1.0
 40
1.0
 40
1.0
 40
1.0
 10
152.9284291008
 20
1171.3003485098
 30
0.0
 10
153.0902756868
 20
1171.2860075613
 30
0.0
 10
153.2820640782
 20
1171.3624735948
 30
0.0
 10
153.5018919113
 20
1171.4915027799
 30
0.0
  0
SPLINE
  5
3FD
100
AcDbEntity
  8
0
100
AcDbSpline
 62
7
  6
CONTINUOUS
 70
0
 71
3
 72
8
 73
4
 74
0
 42
0.0000001
 43
0.0000001
 44
0.0000000001
 40
0.0
 40
0.0
 40
0.0
 40
0.0
 40
1.0
 40
1.0
 40
1.0
 40
1.0
 10
152.3884180763
 20
1171.7280562421
 30
0.0
 10
152.3884180763
 20
1171.5321232208
 30
0.0
 10
152.5054998556
 20
1171.3935362693
 30
0.0
 10
152.7396639422
 20
1171.3170746668
 30
0.0
  0
SPLINE
  5
3FE
100
AcDbEntity
  8
0
100
AcDbSpline
 62
7
  6
CONTINUOUS
 70
0
 71
3
 72
8
 73
4
 74
0
 42
0.0000001
 43
0.0000001
 44
0.0000000001
 40
0.0
 40
0.0
 40
0.0
 40
0.0
 40
1.0
 40
1.0
 40
1.0
 40
1.0
 10
153.4373769227
 20
1172.2059419175
 30
0.0
 10
153.4899447694
 20
1172.0721339812
 30
0.0
 10
153.5162281647
 20
1171.9622200646
 30
0.0
 10
153.5162281647
 20
1171.8714219447
 30
0.0
  0
SPLINE
  5
3FF
100
AcDbEntity
  8
0
100
AcDbSpline
 62
7
  6
CONTINUOUS
 70
0
 71
3
 72
8
 73
4
 74
0
 42
0.0000001
 43
0.0000001
 44
0.0000000001
 40
0.0
 40
0.0
 40
0.0
 40
0.0
 40
1.0
 40
1.0
 40
1.0
 40
1.0
 10
156.311859366
 20
1171.8092968597
 30
0.0
 10
156.311859366
 20
1172.1820476338
 30
0.0
 10
156.4958452454
 20
1172.4472741308
 30
0.0
 10
156.8685962835
 20
1172.6025869753
 30
0.0
  0
SPLINE
  5
400
100
AcDbEntity
  8
0
100
AcDbSpline
 62
7
  6
CONTINUOUS
 70
0
 71
3
 72
8
 73
4
 74
0
 42
0.0000001
 43
0.0000001
 44
0.0000000001
 40
0.0
 40
0.0
 40
0.0
 40
0.0
 40
1.0
 40
1.0
 40
1.0
 40
1.0
 10
157.2007271448
 20
1170.9992805871
 30
0.0
 10
156.7132829109
 20
1170.9992805871
 30
0.0
 10
156.4217732826
 20
1171.2262762829
 30
0.0
 10
156.328585259
 20
1171.6802676745
 30
0.0
  0
SPLINE
  5
401
100
AcDbEntity
  8
0
100
AcDbSpline
 62
7
  6
CONTINUOUS
 70
0
 71
3
 72
8
 73
4
 74
0
 42
0.0000001
 43
0.0000001
 44
0.0000000001
 40
0.0
 40
0.0
 40
0.0
 40
0.0
 40
1.0
 40
1.0
 40
1.0
 40
1.0
 10
157.9318913832
 20
1171.2214975318
 30
0.0
 10
157.7861365691
 20
1171.0733528139
 30
0.0
 10
157.5424144521
 20
1170.9992805871
 30
0.0
 10
157.2007271448
 20
1170.9992805871
 30
0.0
  0
SPLINE
  5
402
100
AcDbEntity
  8
0
100
AcDbSpline
 62
7
  6
CONTINUOUS
 70
0
 71
3
 72
8
 73
4
 74
0
 42
0.0000001
 43
0.0000001
 44
0.0000000001
 40
0.0
 40
0.0
 40
0.0
 40
0.0
 40
1.0
 40
1.0
 40
1.0
 40
1.0
 10
157.4229430333
 20
1171.3003485098
 30
0.0
 10
157.5782564059
 20
1171.3003485098
 30
0.0
 10
157.7479055038
 20
1171.3624735948
 30
0.0
 10
157.9318913832
 20
1171.4915027799
 30
0.0
  0
SPLINE
  5
403
100
AcDbEntity
  8
0
100
AcDbSpline
 62
7
  6
CONTINUOUS
 70
0
 71
3
 72
8
 73
4
 74
0
 42
0.0000001
 43
0.0000001
 44
0.0000000001
 40
0.0
 40
0.0
 40
0.0
 40
0.0
 40
1.0
 40
1.0
 40
1.0
 40
1.0
 10
156.8351444975
 20
1171.7137197246
 30
0.0
 10
156.8351444975
 20
1171.4986711707
 30
0.0
 10
156.9785102001
 20
1171.3600842192
 30
0.0
 10
157.2652416053
 20
1171.3003485098
 30
0.0
  0
SPLINE
  5
404
100
AcDbEntity
  8
0
100
AcDbSpline
 62
7
  6
CONTINUOUS
 70
0
 71
3
 72
8
 73
4
 74
0
 42
0.0000001
 43
0.0000001
 44
0.0000000001
 40
0.0
 40
0.0
 40
0.0
 40
0.0
 40
1.0
 40
1.0
 40
1.0
 40
1.0
 10
157.2174530378
 20
1172.6336496498
 30
0.0
 10
157.5663087359
 20
1172.6336496498
 30
0.0
 10
157.8100308529
 20
1172.4209904715
 30
0.0
 10
157.9486172763
 20
1171.9980614903
 30
0.0
  0
SPLINE
  5
405
100
AcDbEntity
  8
0
100
AcDbSpline
 62
7
  6
CONTINUOUS
 70
0
 71
3
 72
8
 73
4
 74
0
 42
0.0000001
 43
0.0000001
 44
0.0000000001
 40
0.0
 40
0.0
 40
0.0
 40
0.0
 40
1.0
 40
1.0
 40
1.0
 40
1.0
 10
159.2819189444
 20
1172.6336496498
 30
0.0
 10
159.3488225165
 20
1172.6288706347
 30
0.0
 10
159.4396214285
 20
1172.576303316
 30
0.0
 10
159.5519244567
 20
1172.4759471657
 30
0.0
  0
SPLINE
  5
406
100
AcDbEntity
  8
0
100
AcDbSpline
 62
7
  6
CONTINUOUS
 70
0
 71
3
 72
8
 73
4
 74
0
 42
0.0000001
 43
0.0000001
 44
0.0000000001
 40
0.0
 40
0.0
 40
0.0
 40
0.0
 40
1.0
 40
1.0
 40
1.0
 40
1.0
 10
158.7108452454
 20
1172.15815335
 30
0.0
 10
158.7968648782
 20
1172.3588653865
 30
0.0
 10
158.9235046878
 20
1172.5117885914
 30
0.0
 10
159.0907646742
 20
1172.6169234928
 30
0.0
  0
SPLINE
  5
407
100
AcDbEntity
  8
0
100
AcDbSpline
 62
7
  6
CONTINUOUS
 70
0
 71
3
 72
8
 73
4
 74
0
 42
0.0000001
 43
0.0000001
 44
0.0000000001
 40
0.0
 40
0.0
 40
0.0
 40
0.0
 40
1.0
 40
1.0
 40
1.0
 40
1.0
 10
159.1074905673
 20
1172.1724898674
 30
0.0
 10
158.9450088039
 20
1172.1724898674
 30
0.0
 10
158.8112016597
 20
1171.9908933636
 30
0.0
 10
158.7108452454
 20
1171.632479107
 30
0.0
  0
SPLINE
  5
408
100
AcDbEntity
  8
0
100
AcDbSpline
 62
7
  6
CONTINUOUS
 70
0
 71
3
 72
8
 73
4
 74
0
 42
0.0000001
 43
0.0000001
 44
0.0000000001
 40
0.0
 40
0.0
 40
0.0
 40
0.0
 40
1.0
 40
1.0
 40
1.0
 40
1.0
 10
159.408558754
 20
1172.0625762149
 30
0.0
 10
159.2890873352
 20
1172.1342590662
 30
0.0
 10
159.1887309209
 20
1172.1724898674
 30
0.0
 10
159.1074905673
 20
1172.1724898674
 30
0.0
  0
SPLINE
  5
409
100
AcDbEntity
  8
0
100
AcDbSpline
 62
7
  6
CONTINUOUS
 70
0
 71
3
 72
8
 73
4
 74
0
 42
0.0000001
 43
0.0000001
 44
0.0000000001
 40
0.0
 40
0.0
 40
0.0
 40
0.0
 40
1.0
 40
1.0
 40
1.0
 40
1.0
 10
159.5519244567
 20
1172.4759471657
 30
0.0
 10
159.4754623261
 20
1172.1987735268
 30
0.0
 10
159.4276737586
 20
1172.0625762149
 30
0.0
 10
159.408558754
 20
1172.0625762149
 30
0.0
  0
SPLINE
  5
40A
100
AcDbEntity
  8
0
100
AcDbSpline
 62
7
  6
CONTINUOUS
 70
0
 71
3
 72
8
 73
4
 74
0
 42
0.0000001
 43
0.0000001
 44
0.0000000001
 40
0.0
 40
0.0
 40
0.0
 40
0.0
 40
1.0
 40
1.0
 40
1.0
 40
1.0
 10
157.7264013878
 20
1170.5213949116
 30
0.0
 10
157.7550738946
 20
1170.5954672705
 30
0.0
 10
157.8148101321
 20
1170.6336980718
 30
0.0
 10
157.9008287087
 20
1170.6336980718
 30
0.0
  0
SPLINE
  5
40B
100
AcDbEntity
  8
0
100
AcDbSpline
 62
7
  6
CONTINUOUS
 70
0
 71
3
 72
8
 73
4
 74
0
 42
0.0000001
 43
0.0000001
 44
0.0000000001
 40
0.0
 40
0.0
 40
0.0
 40
0.0
 40
1.0
 40
1.0
 40
1.0
 40
1.0
 10
157.9318913832
 20
1170.5381209367
 30
0.0
 10
157.8936613742
 20
1170.4736063441
 30
0.0
 10
157.8458728066
 20
1170.4425438016
 30
0.0
 10
157.7885256806
 20
1170.4425438016
 30
0.0
  0
SPLINE
  5
40C
100
AcDbEntity
  8
0
100
AcDbSpline
 62
7
  6
CONTINUOUS
 70
0
 71
3
 72
8
 73
4
 74
0
 42
0.0000001
 43
0.0000001
 44
0.0000000001
 40
0.0
 40
0.0
 40
0.0
 40
0.0
 40
1.0
 40
1.0
 40
1.0
 40
1.0
 10
155.9319399372
 20
1169.3625222477
 30
0.0
 10
155.7503431693
 20
1169.3816376483
 30
0.0
 10
155.6619344249
 20
1169.4700464917
 30
0.0
 10
155.6619344249
 20
1169.6325276609
 30
0.0
  0
SPLINE
  5
40D
100
AcDbEntity
  8
0
100
AcDbSpline
 62
7
  6
CONTINUOUS
 70
0
 71
3
 72
8
 73
4
 74
0
 42
0.0000001
 43
0.0000001
 44
0.0000000001
 40
0.0
 40
0.0
 40
0.0
 40
0.0
 40
1.0
 40
1.0
 40
1.0
 40
1.0
 10
156.1541568819
 20
1169.4413733578
 30
0.0
 10
156.1541568819
 20
1169.4079213737
 30
0.0
 10
156.080084919
 20
1169.3816376483
 30
0.0
 10
155.9319399372
 20
1169.3625222477
 30
0.0
  0
SPLINE
  5
40E
100
AcDbEntity
  8
0
100
AcDbSpline
 62
7
  6
CONTINUOUS
 70
0
 71
3
 72
8
 73
4
 74
0
 42
0.0000001
 43
0.0000001
 44
0.0000000001
 40
0.0
 40
0.0
 40
0.0
 40
0.0
 40
1.0
 40
1.0
 40
1.0
 40
1.0
 10
153.4541033438
 20
1170.2824520739
 30
0.0
 10
153.6595938674
 20
1170.2824520739
 30
0.0
 10
153.7910129562
 20
1170.1820961877
 30
0.0
 10
153.8507481375
 20
1169.9813841512
 30
0.0
  0
SPLINE
  5
40F
100
AcDbEntity
  8
0
100
AcDbSpline
 62
7
  6
CONTINUOUS
 70
0
 71
3
 72
8
 73
4
 74
0
 42
0.0000001
 43
0.0000001
 44
0.0000000001
 40
0.0
 40
0.0
 40
0.0
 40
0.0
 40
1.0
 40
1.0
 40
1.0
 40
1.0
 10
153.0574580219
 20
1169.8858070161
 30
0.0
 10
153.1100253406
 20
1170.1486441376
 30
0.0
 10
153.2414439014
 20
1170.2824520739
 30
0.0
 10
153.4541033438
 20
1170.2824520739
 30
0.0
  0
SPLINE
  5
410
100
AcDbEntity
  8
0
100
AcDbSpline
 62
7
  6
CONTINUOUS
 70
0
 71
3
 72
8
 73
4
 74
0
 42
0.0000001
 43
0.0000001
 44
0.0000000001
 40
0.0
 40
0.0
 40
0.0
 40
0.0
 40
1.0
 40
1.0
 40
1.0
 40
1.0
 10
153.4541033438
 20
1169.3625222477
 30
0.0
 10
153.2294967595
 20
1169.3625222477
 30
0.0
 10
153.0980781987
 20
1169.5202245008
 30
0.0
 10
153.0574580219
 20
1169.8380184486
 30
0.0
  0
SPLINE
  5
411
100
AcDbEntity
  8
0
100
AcDbSpline
 62
7
  6
CONTINUOUS
 70
0
 71
3
 72
8
 73
4
 74
0
 42
0.0000001
 43
0.0000001
 44
0.0000000001
 40
0.0
 40
0.0
 40
0.0
 40
0.0
 40
1.0
 40
1.0
 40
1.0
 40
1.0
 10
153.8507481375
 20
1169.4891619253
 30
0.0
 10
153.7838445655
 20
1169.4031425235
 30
0.0
 10
153.6763197604
 20
1169.3625222477
 30
0.0
 10
153.5329540578
 20
1169.3625222477
 30
0.0
  0
SPLINE
  5
412
100
AcDbEntity
  8
0
100
AcDbSpline
 62
7
  6
CONTINUOUS
 70
0
 71
3
 72
8
 73
4
 74
0
 42
0.0000001
 43
0.0000001
 44
0.0000000001
 40
0.0
 40
0.0
 40
0.0
 40
0.0
 40
1.0
 40
1.0
 40
1.0
 40
1.0
 10
153.5162281647
 20
1169.5369505259
 30
0.0
 10
153.6476472536
 20
1169.5369505259
 30
0.0
 10
153.7599502817
 20
1169.5632341852
 30
0.0
 10
153.8507481375
 20
1169.6158016359
 30
0.0
  0
SPLINE
  5
413
100
AcDbEntity
  8
0
100
AcDbSpline
 62
7
  6
CONTINUOUS
 70
0
 71
3
 72
8
 73
4
 74
0
 42
0.0000001
 43
0.0000001
 44
0.0000000001
 40
0.0
 40
0.0
 40
0.0
 40
0.0
 40
1.0
 40
1.0
 40
1.0
 40
1.0
 10
153.2462226525
 20
1169.790229881
 30
0.0
 10
153.2462226525
 20
1169.6444748028
 30
0.0
 10
153.3346319249
 20
1169.5608448096
 30
0.0
 10
153.5162281647
 20
1169.5369505259
 30
0.0
  0
SPLINE
  5
414
100
AcDbEntity
  8
0
100
AcDbSpline
 62
7
  6
CONTINUOUS
 70
0
 71
3
 72
8
 73
4
 74
0
 42
0.0000001
 43
0.0000001
 44
0.0000000001
 40
0.0
 40
0.0
 40
0.0
 40
0.0
 40
1.0
 40
1.0
 40
1.0
 40
1.0
 10
154.8041303769
 20
1170.2824520739
 30
0.0
 10
154.9525822919
 20
1170.2824520739
 30
0.0
 10
155.0263473216
 20
1170.2513895314
 30
0.0
 10
155.0263473216
 20
1170.2203269889
 30
0.0
  0
SPLINE
  5
415
100
AcDbEntity
  8
0
100
AcDbSpline
 62
7
  6
CONTINUOUS
 70
0
 71
3
 72
8
 73
4
 74
0
 42
0.0000001
 43
0.0000001
 44
0.0000000001
 40
0.0
 40
0.0
 40
0.0
 40
0.0
 40
1.0
 40
1.0
 40
1.0
 40
1.0
 10
154.3262447014
 20
1169.8380184486
 30
0.0
 10
154.3262447014
 20
1170.067403586
 30
0.0
 10
154.4481052318
 20
1170.2155481058
 30
0.0
 10
154.6918273488
 20
1170.2824520739
 30
0.0
  0
SPLINE
  5
416
100
AcDbEntity
  8
0
100
AcDbSpline
 62
7
  6
CONTINUOUS
 70
0
 71
3
 72
8
 73
4
 74
0
 42
0.0000001
 43
0.0000001
 44
0.0000000001
 40
0.0
 40
0.0
 40
0.0
 40
0.0
 40
1.0
 40
1.0
 40
1.0
 40
1.0
 10
154.8041303769
 20
1169.3625222477
 30
0.0
 10
154.4839471856
 20
1169.400753082
 30
0.0
 10
154.3262447014
 20
1169.5441187846
 30
0.0
 10
154.3262447014
 20
1169.790229881
 30
0.0
  0
SPLINE
  5
417
100
AcDbEntity
  8
0
100
AcDbSpline
 62
7
  6
CONTINUOUS
 70
0
 71
3
 72
8
 73
4
 74
0
 42
0.0000001
 43
0.0000001
 44
0.0000000001
 40
0.0
 40
0.0
 40
0.0
 40
0.0
 40
1.0
 40
1.0
 40
1.0
 40
1.0
 10
155.0406830469
 20
1169.4270368073
 30
0.0
 10
155.0406830469
 20
1169.3840270899
 30
0.0
 10
154.961832861
 20
1169.3625222477
 30
0.0
 10
154.8041303769
 20
1169.3625222477
 30
0.0
  0
SPLINE
  5
418
100
AcDbEntity
  8
0
100
AcDbSpline
 62
7
  6
CONTINUOUS
 70
0
 71
3
 72
8
 73
4
 74
0
 42
0.0000001
 43
0.0000001
 44
0.0000000001
 40
0.0
 40
0.0
 40
0.0
 40
0.0
 40
1.0
 40
1.0
 40
1.0
 40
1.0
 10
154.5006730786
 20
1169.8236818651
 30
0.0
 10
154.5006730786
 20
1169.6325276609
 30
0.0
 10
154.622533609
 20
1169.5369505259
 30
0.0
 10
154.8662557259
 20
1169.5369505259
 30
0.0
  0
SPLINE
  5
419
100
AcDbEntity
  8
0
100
AcDbSpline
 62
7
  6
CONTINUOUS
 70
0
 71
3
 72
8
 73
4
 74
0
 42
0.0000001
 43
0.0000001
 44
0.0000000001
 40
0.0
 40
0.0
 40
0.0
 40
0.0
 40
1.0
 40
1.0
 40
1.0
 40
1.0
 10
154.7874044839
 20
1170.1247498538
 30
0.0
 10
154.5962502137
 20
1170.1247498538
 30
0.0
 10
154.5006730786
 20
1170.0243938356
 30
0.0
 10
154.5006730786
 20
1169.8236818651
 30
0.0
  0
SPLINE
  5
41A
100
AcDbEntity
  8
0
100
AcDbSpline
 62
7
  6
CONTINUOUS
 70
0
 71
3
 72
8
 73
4
 74
0
 42
0.0000001
 43
0.0000001
 44
0.0000000001
 40
0.0
 40
0.0
 40
0.0
 40
0.0
 40
1.0
 40
1.0
 40
1.0
 40
1.0
 10
154.9928944793
 20
1170.0458987438
 30
0.0
 10
154.9522743025
 20
1170.0984661945
 30
0.0
 10
154.8829816189
 20
1170.1247498538
 30
0.0
 10
154.7874044839
 20
1170.1247498538
 30
0.0
  0
SPLINE
  5
41B
100
AcDbEntity
  8
0
100
AcDbSpline
 62
7
  6
CONTINUOUS
 70
0
 71
3
 72
8
 73
4
 74
0
 42
0.0000001
 43
0.0000001
 44
0.0000000001
 40
0.0
 40
0.0
 40
0.0
 40
0.0
 40
1.0
 40
1.0
 40
1.0
 40
1.0
 10
157.0430246606
 20
1170.2824520739
 30
0.0
 10
157.1386017957
 20
1170.2824520739
 30
0.0
 10
157.2126737586
 20
1170.2513895314
 30
0.0
 10
157.2652416053
 20
1170.1892644464
 30
0.0
  0
SPLINE
  5
41C
100
AcDbEntity
  8
0
100
AcDbSpline
 62
7
  6
CONTINUOUS
 70
0
 71
3
 72
8
 73
4
 74
0
 42
0.0000001
 43
0.0000001
 44
0.0000000001
 40
0.0
 40
0.0
 40
0.0
 40
0.0
 40
1.0
 40
1.0
 40
1.0
 40
1.0
 10
156.7873559299
 20
1170.0602352612
 30
0.0
 10
156.882933065
 20
1170.208379847
 30
0.0
 10
156.9665625301
 20
1170.2824520739
 30
0.0
 10
157.0430246606
 20
1170.2824520739
 30
0.0
  0
SPLINE
  5
41D
100
AcDbEntity
  8
0
100
AcDbSpline
 62
7
  6
CONTINUOUS
 70
0
 71
3
 72
8
 73
4
 74
0
 42
0.0000001
 43
0.0000001
 44
0.0000000001
 40
0.0
 40
0.0
 40
0.0
 40
0.0
 40
1.0
 40
1.0
 40
1.0
 40
1.0
 10
157.0095728746
 20
1170.1247498538
 30
0.0
 10
156.8614278927
 20
1170.1247498538
 30
0.0
 10
156.7873559299
 20
1170.0172255769
 30
0.0
 10
156.7873559299
 20
1169.8069559061
 30
0.0
  0
SPLINE
  5
41E
100
AcDbEntity
  8
0
100
AcDbSpline
 62
7
  6
CONTINUOUS
 70
0
 71
3
 72
8
 73
4
 74
0
 42
0.0000001
 43
0.0000001
 44
0.0000000001
 40
0.0
 40
0.0
 40
0.0
 40
0.0
 40
1.0
 40
1.0
 40
1.0
 40
1.0
 10
157.1696644703
 20
1170.0458987438
 30
0.0
 10
157.1003707305
 20
1170.0984661945
 30
0.0
 10
157.0478028837
 20
1170.1247498538
 30
0.0
 10
157.0095728746
 20
1170.1247498538
 30
0.0
  0
SPLINE
  5
41F
100
AcDbEntity
  8
0
100
AcDbSpline
 62
7
  6
CONTINUOUS
 70
0
 71
3
 72
8
 73
4
 74
0
 42
0.0000001
 43
0.0000001
 44
0.0000000001
 40
0.0
 40
0.0
 40
0.0
 40
0.0
 40
1.0
 40
1.0
 40
1.0
 40
1.0
 10
158.8685477296
 20
1170.2824520739
 30
0.0
 10
159.0169996446
 20
1170.2824520739
 30
0.0
 10
159.0907646742
 20
1170.2513895314
 30
0.0
 10
159.0907646742
 20
1170.2203269889
 30
0.0
  0
SPLINE
  5
420
100
AcDbEntity
  8
0
100
AcDbSpline
 62
7
  6
CONTINUOUS
 70
0
 71
3
 72
8
 73
4
 74
0
 42
0.0000001
 43
0.0000001
 44
0.0000000001
 40
0.0
 40
0.0
 40
0.0
 40
0.0
 40
1.0
 40
1.0
 40
1.0
 40
1.0
 10
158.3930511656
 20
1169.8380184486
 30
0.0
 10
158.3930511656
 20
1170.067403586
 30
0.0
 10
158.514911696
 20
1170.2155481058
 30
0.0
 10
158.758633813
 20
1170.2824520739
 30
0.0
  0
SPLINE
  5
421
100
AcDbEntity
  8
0
100
AcDbSpline
 62
7
  6
CONTINUOUS
 70
0
 71
3
 72
8
 73
4
 74
0
 42
0.0000001
 43
0.0000001
 44
0.0000000001
 40
0.0
 40
0.0
 40
0.0
 40
0.0
 40
1.0
 40
1.0
 40
1.0
 40
1.0
 10
158.837485055
 20
1169.3625222477
 30
0.0
 10
158.5411961475
 20
1169.400753082
 30
0.0
 10
158.3930511656
 20
1169.5441187846
 30
0.0
 10
158.3930511656
 20
1169.790229881
 30
0.0
  0
SPLINE
  5
422
100
AcDbEntity
  8
0
100
AcDbSpline
 62
7
  6
CONTINUOUS
 70
0
 71
3
 72
8
 73
4
 74
0
 42
0.0000001
 43
0.0000001
 44
0.0000000001
 40
0.0
 40
0.0
 40
0.0
 40
0.0
 40
1.0
 40
1.0
 40
1.0
 40
1.0
 10
159.1074905673
 20
1169.4270368073
 30
0.0
 10
159.1074905673
 20
1169.3840270899
 30
0.0
 10
159.0262502137
 20
1169.3625222477
 30
0.0
 10
158.837485055
 20
1169.3625222477
 30
0.0
  0
SPLINE
  5
423
100
AcDbEntity
  8
0
100
AcDbSpline
 62
7
  6
CONTINUOUS
 70
0
 71
3
 72
8
 73
4
 74
0
 42
0.0000001
 43
0.0000001
 44
0.0000000001
 40
0.0
 40
0.0
 40
0.0
 40
0.0
 40
1.0
 40
1.0
 40
1.0
 40
1.0
 10
158.5674795428
 20
1169.8236818651
 30
0.0
 10
158.5674795428
 20
1169.6325276609
 30
0.0
 10
158.6726141801
 20
1169.5369505259
 30
0.0
 10
158.8852736226
 20
1169.5369505259
 30
0.0
  0
SPLINE
  5
424
100
AcDbEntity
  8
0
100
AcDbSpline
 62
7
  6
CONTINUOUS
 70
0
 71
3
 72
8
 73
4
 74
0
 42
0.0000001
 43
0.0000001
 44
0.0000000001
 40
0.0
 40
0.0
 40
0.0
 40
0.0
 40
1.0
 40
1.0
 40
1.0
 40
1.0
 10
158.837485055
 20
1170.1247498538
 30
0.0
 10
158.6797825709
 20
1170.1247498538
 30
0.0
 10
158.5913738266
 20
1170.0291727187
 30
0.0
 10
158.5674795428
 20
1169.8236818651
 30
0.0
  0
SPLINE
  5
425
100
AcDbEntity
  8
0
100
AcDbSpline
 62
7
  6
CONTINUOUS
 70
0
 71
3
 72
8
 73
4
 74
0
 42
0.0000001
 43
0.0000001
 44
0.0000000001
 40
0.0
 40
0.0
 40
0.0
 40
0.0
 40
1.0
 40
1.0
 40
1.0
 40
1.0
 10
159.0907646742
 20
1170.0769612863
 30
0.0
 10
159.023860046
 20
1170.1080238288
 30
0.0
 10
158.9497880831
 20
1170.1247498538
 30
0.0
 10
158.837485055
 20
1170.1247498538
 30
0.0
  0
SPLINE
  5
426
100
AcDbEntity
  8
0
100
AcDbSpline
 62
7
  6
CONTINUOUS
 70
0
 71
3
 72
8
 73
4
 74
0
 42
0.0000001
 43
0.0000001
 44
0.0000000001
 40
0.0
 40
0.0
 40
0.0
 40
0.0
 40
1.0
 40
1.0
 40
1.0
 40
1.0
 10
150.0348311248
 20
1171.2573389574
 30
0.0
 10
150.3550148442
 20
1171.2573389574
 30
0.0
 10
150.5772312608
 20
1171.1187520059
 30
0.0
 10
150.7014819589
 20
1170.8439677425
 30
0.0
  0
SPLINE
  5
427
100
AcDbEntity
  8
0
100
AcDbSpline
 62
7
  6
CONTINUOUS
 70
0
 71
3
 72
8
 73
4
 74
0
 42
0.0000001
 43
0.0000001
 44
0.0000000001
 40
0.0
 40
0.0
 40
0.0
 40
0.0
 40
1.0
 40
1.0
 40
1.0
 40
1.0
 10
148.7493188164
 20
1170.5094477697
 30
0.0
 10
149.1268483415
 20
1171.0064488458
 30
0.0
 10
149.5545563379
 20
1171.2573389574
 30
0.0
 10
150.0348311248
 20
1171.2573389574
 30
0.0
  0
SPLINE
  5
428
100
AcDbEntity
  8
0
100
AcDbSpline
 62
7
  6
CONTINUOUS
 70
0
 71
3
 72
8
 73
4
 74
0
 42
0.0000001
 43
0.0000001
 44
0.0000000001
 40
0.0
 40
0.0
 40
0.0
 40
0.0
 40
1.0
 40
1.0
 40
1.0
 40
1.0
 10
148.5271021357
 20
1170.129528737
 30
0.0
 10
148.5318808869
 20
1170.1940433296
 30
0.0
 10
148.5629435614
 20
1170.2561684146
 30
0.0
 10
148.6226792708
 20
1170.3182934996
 30
0.0
  0
SPLINE
  5
429
100
AcDbEntity
  8
0
100
AcDbSpline
 62
7
  6
CONTINUOUS
 70
0
 71
3
 72
8
 73
4
 74
0
 42
0.0000001
 43
0.0000001
 44
0.0000000001
 40
0.0
 40
0.0
 40
0.0
 40
0.0
 40
1.0
 40
1.0
 40
1.0
 40
1.0
 10
148.4351291395
 20
1169.6993636503
 30
0.0
 10
148.4410827669
 20
1169.8571339152
 30
0.0
 10
148.4601980355
 20
1169.9383744668
 30
0.0
 10
148.4936500856
 20
1169.9383744668
 30
0.0
  0
SPLINE
  5
42A
100
AcDbEntity
  8
0
100
AcDbSpline
 62
7
  6
CONTINUOUS
 70
0
 71
3
 72
8
 73
4
 74
0
 42
0.0000001
 43
0.0000001
 44
0.0000000001
 40
0.0
 40
0.0
 40
0.0
 40
0.0
 40
1.0
 40
1.0
 40
1.0
 40
1.0
 10
148.4793135682
 20
1169.3983636734
 30
0.0
 10
148.4458615181
 20
1169.5034985088
 30
0.0
 10
148.4315250006
 20
1169.603854494
 30
0.0
 10
148.4351291395
 20
1169.6993636503
 30
0.0
  0
SPLINE
  5
42B
100
AcDbEntity
  8
0
100
AcDbSpline
 62
7
  6
CONTINUOUS
 70
0
 71
3
 72
8
 73
4
 74
0
 42
0.0000001
 43
0.0000001
 44
0.0000000001
 40
0.0
 40
0.0
 40
0.0
 40
0.0
 40
1.0
 40
1.0
 40
1.0
 40
1.0
 10
149.1292379811
 20
1168.9849925699
 30
0.0
 10
148.8329488096
 20
1168.9849925699
 30
0.0
 10
148.6155108801
 20
1169.1211899849
 30
0.0
 10
148.4793135682
 20
1169.3983636734
 30
0.0
  0
SPLINE
  5
42C
100
AcDbEntity
  8
0
100
AcDbSpline
 62
7
  6
CONTINUOUS
 70
0
 71
3
 72
8
 73
4
 74
0
 42
0.0000001
 43
0.0000001
 44
0.0000000001
 40
0.0
 40
0.0
 40
0.0
 40
0.0
 40
1.0
 40
1.0
 40
1.0
 40
1.0
 10
150.4482023397
 20
1169.7782827391
 30
0.0
 10
150.2785527137
 20
1169.4437627994
 30
0.0
 10
149.9392539898
 20
1169.1952622613
 30
0.0
 10
149.4326952794
 20
1169.0327811375
 30
0.0
  0
SPLINE
  5
42D
100
AcDbEntity
  8
0
100
AcDbSpline
 62
7
  6
CONTINUOUS
 70
0
 71
3
 72
8
 73
4
 74
0
 42
0.0000001
 43
0.0000001
 44
0.0000000001
 40
0.0
 40
0.0
 40
0.0
 40
0.0
 40
1.0
 40
1.0
 40
1.0
 40
1.0
 10
150.1614709344
 20
1169.9551004259
 30
0.0
 10
150.1423554018
 20
1169.9551004259
 30
0.0
 10
150.1160720065
 20
1169.8953647164
 30
0.0
 10
150.0826196924
 20
1169.7782827391
 30
0.0
  0
SPLINE
  5
42E
100
AcDbEntity
  8
0
100
AcDbSpline
 62
7
  6
CONTINUOUS
 70
0
 71
3
 72
8
 73
4
 74
0
 42
0.0000001
 43
0.0000001
 44
0.0000000001
 40
0.0
 40
0.0
 40
0.0
 40
0.0
 40
1.0
 40
1.0
 40
1.0
 40
1.0
 10
150.6536933914
 20
1170.1128027119
 30
0.0
 10
150.6154623261
 20
1170.0076678766
 30
0.0
 10
150.5843996516
 20
1169.9551004259
 30
0.0
 10
150.5581162563
 20
1169.9551004259
 30
0.0
  0
SPLINE
  5
42F
100
AcDbEntity
  8
0
100
AcDbSpline
 62
7
  6
CONTINUOUS
 70
0
 71
3
 72
8
 73
4
 74
0
 42
0.0000001
 43
0.0000001
 44
0.0000000001
 40
0.0
 40
0.0
 40
0.0
 40
0.0
 40
1.0
 40
1.0
 40
1.0
 40
1.0
 10
150.2570480695
 20
1170.3350195246
 30
0.0
 10
150.2331537858
 20
1170.3350195246
 30
0.0
 10
150.2116491416
 20
1170.270504932
 30
0.0
 10
150.1949232486
 20
1170.1438652544
 30
0.0
  0
SPLINE
  5
430
100
AcDbEntity
  8
0
100
AcDbSpline
 62
7
  6
CONTINUOUS
 70
0
 71
3
 72
8
 73
4
 74
0
 42
0.0000001
 43
0.0000001
 44
0.0000000001
 40
0.0
 40
0.0
 40
0.0
 40
0.0
 40
1.0
 40
1.0
 40
1.0
 40
1.0
 10
150.7492705265
 20
1170.5572363373
 30
0.0
 10
150.7492705265
 20
1170.4090917515
 30
0.0
 10
150.7325441054
 20
1170.3350195246
 30
0.0
 10
150.7014819589
 20
1170.3350195246
 30
0.0
  0
SPLINE
  5
431
100
AcDbEntity
  8
0
100
AcDbSpline
 62
7
  6
CONTINUOUS
 70
0
 71
3
 72
8
 73
4
 74
0
 42
0.0000001
 43
0.0000001
 44
0.0000000001
 40
0.0
 40
0.0
 40
0.0
 40
0.0
 40
1.0
 40
1.0
 40
1.0
 40
1.0
 10
150.7014819589
 20
1170.8439677425
 30
0.0
 10
150.7325441054
 20
1170.7388329732
 30
0.0
 10
150.7492705265
 20
1170.6432558381
 30
0.0
 10
150.7492705265
 20
1170.5572363373
 30
0.0
  0
SPLINE
  5
432
100
AcDbEntity
  8
0
100
AcDbSpline
 62
7
  6
CONTINUOUS
 70
0
 71
3
 72
8
 73
4
 74
0
 42
0.0000001
 43
0.0000001
 44
0.0000000001
 40
0.0
 40
0.0
 40
0.0
 40
0.0
 40
1.0
 40
1.0
 40
1.0
 40
1.0
 10
154.9140442935
 20
1171.8092968597
 30
0.0
 10
154.9570535818
 20
1171.4795556381
 30
0.0
 10
155.0884716144
 20
1171.3170746668
 30
0.0
 10
155.3106885591
 20
1171.3170746668
 30
0.0
  0
SPLINE
  5
433
100
AcDbEntity
  8
0
100
AcDbSpline
 62
7
  6
CONTINUOUS
 70
0
 71
3
 72
8
 73
4
 74
0
 42
0.0000001
 43
0.0000001
 44
0.0000000001
 40
0.0
 40
0.0
 40
0.0
 40
0.0
 40
1.0
 40
1.0
 40
1.0
 40
1.0
 10
155.3106885591
 20
1172.3015190526
 30
0.0
 10
155.0454623261
 20
1172.2537304851
 30
0.0
 10
154.9140442935
 20
1172.0912492498
 30
0.0
 10
154.9140442935
 20
1171.8092968597
 30
0.0
  0
SPLINE
  5
434
100
AcDbEntity
  8
0
100
AcDbSpline
 62
7
  6
CONTINUOUS
 70
0
 71
3
 72
8
 73
4
 74
0
 42
0.0000001
 43
0.0000001
 44
0.0000000001
 40
0.0
 40
0.0
 40
0.0
 40
0.0
 40
1.0
 40
1.0
 40
1.0
 40
1.0
 10
155.6141458574
 20
1172.220278435
 30
0.0
 10
155.5066221085
 20
1172.2632882514
 30
0.0
 10
155.4062656942
 20
1172.2895719107
 30
0.0
 10
155.3106885591
 20
1172.3015190526
 30
0.0
  0
SPLINE
  5
435
100
AcDbEntity
  8
0
100
AcDbSpline
 62
7
  6
CONTINUOUS
 70
0
 71
3
 72
8
 73
4
 74
0
 42
0.0000001
 43
0.0000001
 44
0.0000000001
 40
0.0
 40
0.0
 40
0.0
 40
0.0
 40
1.0
 40
1.0
 40
1.0
 40
1.0
 10
155.3106885591
 20
1171.3170746668
 30
0.0
 10
155.413434085
 20
1171.3170746668
 30
0.0
 10
155.5137904993
 20
1171.3624735948
 30
0.0
 10
155.6141458574
 20
1171.4580507299
 30
0.0
  0
SPLINE
  5
436
100
AcDbEntity
  8
0
100
AcDbSpline
 62
7
  6
CONTINUOUS
 70
0
 71
3
 72
8
 73
4
 74
0
 42
0.0000001
 43
0.0000001
 44
0.0000000001
 40
0.0
 40
0.0
 40
0.0
 40
0.0
 40
1.0
 40
1.0
 40
1.0
 40
1.0
 10
142.1754886866
 20
1162.4250738491
 30
0.0
 10
142.2626464708
 20
1162.0533648335
 30
0.0
 10
142.4015171623
 20
1161.6890388269
 30
0.0
 10
142.5917688927
 20
1161.3580277234
 30
0.0
  0
SPLINE
  5
437
100
AcDbEntity
  8
0
100
AcDbSpline
 62
7
  6
CONTINUOUS
 70
0
 71
3
 72
9
 73
5
 74
0
 42
0.0000001
 43
0.0000001
 44
0.0000000001
 40
0.0
 40
0.0
 40
0.0
 40
0.0
 40
0.4999631164
 40
1.0
 40
1.0
 40
1.0
 40
1.0
 10
142.5917688927
 20
1161.3580277234
 30
0.0
 10
142.6705809342
 20
1161.2209059177
 30
0.0
 10
142.8662061932
 20
1160.9668392792
 30
0.0
 10
143.1213661426
 20
1160.7731915459
 30
0.0
 10
143.2584129353
 20
1160.6942023952
 30
0.0
  0
SPLINE
  5
438
100
AcDbEntity
  8
0
100
AcDbSpline
 62
7
  6
CONTINUOUS
 70
0
 71
3
 72
9
 73
5
 74
0
 42
0.0000001
 43
0.0000001
 44
0.0000000001
 40
0.0
 40
0.0
 40
0.0
 40
0.0
 40
0.5000369728
 40
1.0
 40
1.0
 40
1.0
 40
1.0
 10
165.0683819034
 20
1160.6942036004
 30
0.0
 10
165.2054293107
 20
1160.7731931047
 30
0.0
 10
165.4605897988
 20
1160.9668423975
 30
0.0
 10
165.6562159009
 20
1161.2209101537
 30
0.0
 10
165.7350277871
 20
1161.3580328011
 30
0.0
  0
SPLINE
  5
439
100
AcDbEntity
  8
0
100
AcDbSpline
 62
7
  6
CONTINUOUS
 70
0
 71
3
 72
8
 73
4
 74
0
 42
0.0000001
 43
0.0000001
 44
0.0000000001
 40
0.0
 40
0.0
 40
0.0
 40
0.0
 40
1.0
 40
1.0
 40
1.0
 40
1.0
 10
165.7350277871
 20
1161.3580328011
 30
0.0
 10
165.9252779657
 20
1161.6890424966
 30
0.0
 10
166.0641471079
 20
1162.0533668188
 30
0.0
 10
166.1513044368
 20
1162.425073893
 30
0.0
  0
SPLINE
  5
43A
100
AcDbEntity
  8
0
100
AcDbSpline
 62
7
  6
CONTINUOUS
 70
0
 71
3
 72
8
 73
4
 74
0
 42
0.0000001
 43
0.0000001
 44
0.0000000001
 40
0.0
 40
0.0
 40
0.0
 40
0.0
 40
1.0
 40
1.0
 40
1.0
 40
1.0
 10
149.2558777907
 20
1169.4461522409
 30
0.0
 10
149.5187149122
 20
1169.4461522409
 30
0.0
 10
149.7146479335
 20
1169.5775707687
 30
0.0
 10
149.8436768547
 20
1169.8427973317
 30
0.0
  0
SPLINE
  5
43B
100
AcDbEntity
  8
0
100
AcDbSpline
 62
7
  6
CONTINUOUS
 70
0
 71
3
 72
8
 73
4
 74
0
 42
0.0000001
 43
0.0000001
 44
0.0000000001
 40
0.0
 40
0.0
 40
0.0
 40
0.0
 40
1.0
 40
1.0
 40
1.0
 40
1.0
 10
149.8436768547
 20
1169.8427973317
 30
0.0
 10
149.9416436294
 20
1170.2872309571
 30
0.0
 10
150.0109368411
 20
1170.5094477697
 30
0.0
 10
150.051557546
 20
1170.5094477697
 30
0.0
  0
SPLINE
  5
43C
100
AcDbEntity
  8
0
100
AcDbSpline
 62
7
  6
CONTINUOUS
 70
0
 71
3
 72
8
 73
4
 74
0
 42
0.0000001
 43
0.0000001
 44
0.0000000001
 40
0.0
 40
0.0
 40
0.0
 40
0.0
 40
1.0
 40
1.0
 40
1.0
 40
1.0
 10
150.051557546
 20
1170.8105158245
 30
0.0
 10
149.6381863311
 20
1170.8105158245
 30
0.0
 10
149.3944647422
 20
1170.6313086962
 30
0.0
 10
149.323161357
 20
1170.2723332925
 30
0.0
  0
SPLINE
  5
43D
100
AcDbEntity
  8
0
100
AcDbSpline
 62
7
  6
CONTINUOUS
 70
0
 71
3
 72
8
 73
4
 74
0
 42
0.0000001
 43
0.0000001
 44
0.0000000001
 40
0.0
 40
0.0
 40
0.0
 40
0.0
 40
1.0
 40
1.0
 40
1.0
 40
1.0
 10
149.323161357
 20
1170.2723332925
 30
0.0
 10
149.2558777907
 20
1169.9335955837
 30
0.0
 10
149.2033104721
 20
1169.7639461557
 30
0.0
 10
149.1626897672
 20
1169.7639461557
 30
0.0
  0
SPLINE
  5
43E
100
AcDbEntity
  8
0
100
AcDbSpline
 62
7
  6
CONTINUOUS
 70
0
 71
3
 72
8
 73
4
 74
0
 42
0.0000001
 43
0.0000001
 44
0.0000000001
 40
0.0
 40
0.0
 40
0.0
 40
0.0
 40
1.0
 40
1.0
 40
1.0
 40
1.0
 10
153.6906565419
 20
1169.9192590002
 30
0.0
 10
153.6643731466
 20
1170.067403586
 30
0.0
 10
153.5903001276
 20
1170.1414758789
 30
0.0
 10
153.4684395972
 20
1170.1414758789
 30
0.0
  0
SPLINE
  5
43F
100
AcDbEntity
  8
0
100
AcDbSpline
 62
7
  6
CONTINUOUS
 70
0
 71
3
 72
8
 73
4
 74
0
 42
0.0000001
 43
0.0000001
 44
0.0000000001
 40
0.0
 40
0.0
 40
0.0
 40
0.0
 40
1.0
 40
1.0
 40
1.0
 40
1.0
 10
153.4684395972
 20
1170.1414758789
 30
0.0
 10
153.3202951434
 20
1170.1414758789
 30
0.0
 10
153.2462226525
 20
1170.067403586
 30
0.0
 10
153.2462226525
 20
1169.9192590002
 30
0.0
  0
SPLINE
  5
440
100
AcDbEntity
  8
0
100
AcDbSpline
 62
7
  6
CONTINUOUS
 70
0
 71
3
 72
8
 73
4
 74
0
 42
0.0000001
 43
0.0000001
 44
0.0000000001
 40
0.0
 40
0.0
 40
0.0
 40
0.0
 40
1.0
 40
1.0
 40
1.0
 40
1.0
 10
157.5185201684
 20
1171.9837249728
 30
0.0
 10
157.4850683823
 20
1172.2274468257
 30
0.0
 10
157.3727653542
 20
1172.3493076202
 30
0.0
 10
157.1863903633
 20
1172.3493076202
 30
0.0
  0
SPLINE
  5
441
100
AcDbEntity
  8
0
100
AcDbSpline
 62
7
  6
CONTINUOUS
 70
0
 71
3
 72
8
 73
4
 74
0
 42
0.0000001
 43
0.0000001
 44
0.0000000001
 40
0.0
 40
0.0
 40
0.0
 40
0.0
 40
1.0
 40
1.0
 40
1.0
 40
1.0
 10
157.1863903633
 20
1172.3493076202
 30
0.0
 10
156.9976252046
 20
1172.3493076202
 30
0.0
 10
156.8805428973
 20
1172.2274468257
 30
0.0
 10
156.8351444975
 20
1171.9837249728
 30
0.0
  0
SPLINE
  5
442
100
AcDbEntity
  8
0
100
AcDbSpline
 62
7
  6
CONTINUOUS
 70
0
 71
3
 72
8
 73
4
 74
0
 42
0.0000001
 43
0.0000001
 44
0.0000000001
 40
0.0
 40
0.0
 40
0.0
 40
0.0
 40
1.0
 40
1.0
 40
1.0
 40
1.0
 10
153.0885206965
 20
1171.9837249728
 30
0.0
 10
153.0359533778
 20
1172.2274468257
 30
0.0
 10
152.9212607101
 20
1172.3493076202
 30
0.0
 10
152.7396639422
 20
1172.3493076202
 30
0.0
  0
SPLINE
  5
443
100
AcDbEntity
  8
0
100
AcDbSpline
 62
7
  6
CONTINUOUS
 70
0
 71
3
 72
8
 73
4
 74
0
 42
0.0000001
 43
0.0000001
 44
0.0000000001
 40
0.0
 40
0.0
 40
0.0
 40
0.0
 40
1.0
 40
1.0
 40
1.0
 40
1.0
 10
152.7396639422
 20
1172.3493076202
 30
0.0
 10
152.5580677024
 20
1172.3493076202
 30
0.0
 10
152.440985395
 20
1172.2274468257
 30
0.0
 10
152.3884180763
 20
1171.9837249728
 30
0.0
  0
SPLINE
  5
444
100
AcDbEntity
  8
0
100
AcDbSpline
 62
7
  6
CONTINUOUS
 70
0
 71
3
 72
9
 73
5
 74
0
 42
0.0000001
 43
0.0000001
 44
0.0000000001
 40
0.0
 40
0.0
 40
0.0
 40
0.0
 40
0.4070057701
 40
1.0
 40
1.0
 40
1.0
 40
1.0
 10
142.5917628137
 20
1197.8706371724
 30
0.0
 10
142.6846117498
 20
1197.9589806679
 30
0.0
 10
142.9346118715
 20
1198.1524088797
 30
0.0
 10
143.2013162355
 20
1198.3203394997
 30
0.0
 10
143.3631664743
 20
1198.413462015
 30
0.0
  0
SPLINE
  5
445
100
AcDbEntity
  8
0
100
AcDbSpline
 62
7
  6
CONTINUOUS
 70
0
 71
3
 72
9
 73
5
 74
0
 42
0.0000001
 43
0.0000001
 44
0.0000000001
 40
0.0
 40
0.0
 40
0.0
 40
0.0
 40
0.2347090696
 40
1.0
 40
1.0
 40
1.0
 40
1.0
 10
143.3631664743
 20
1198.413462015
 30
0.0
 10
143.4181412643
 20
1198.445092433
 30
0.0
 10
143.6541019624
 20
1198.5768110502
 30
0.0
 10
143.8949203788
 20
1198.6998782784
 30
0.0
 10
144.0819281097
 20
1198.7881700992
 30
0.0
  0
SPLINE
  5
446
100
AcDbEntity
  8
0
100
AcDbSpline
 62
7
  6
CONTINUOUS
 70
0
 71
3
 72
9
 73
5
 74
0
 42
0.0000001
 43
0.0000001
 44
0.0000000001
 40
0.0
 40
0.0
 40
0.0
 40
0.0
 40
0.2616872684
 40
1.0
 40
1.0
 40
1.0
 40
1.0
 10
164.2448337366
 20
1198.7881855547
 30
0.0
 10
164.3082132915
 20
1198.7582756147
 30
0.0
 10
164.548959028
 20
1198.6409484337
 30
0.0
 10
164.7858279843
 20
1198.5155430761
 30
0.0
 10
164.9573059857
 20
1198.417096982
 30
0.0
  0
SPLINE
  5
447
100
AcDbEntity
  8
0
100
AcDbSpline
 62
7
  6
CONTINUOUS
 70
0
 71
3
 72
9
 73
5
 74
0
 42
0.0000001
 43
0.0000001
 44
0.0000000001
 40
0.0
 40
0.0
 40
0.0
 40
0.0
 40
0.5932800254
 40
1.0
 40
1.0
 40
1.0
 40
1.0
 10
164.9573059857
 20
1198.417096982
 30
0.0
 10
165.1205704312
 20
1198.3233663177
 30
0.0
 10
165.3894724501
 20
1198.1543764859
 30
0.0
 10
165.6415451847
 20
1197.9596213884
 30
0.0
 10
165.7350271906
 20
1197.8706425012
 30
0.0
  0
SPLINE
  5
448
100
AcDbEntity
  8
0
100
AcDbSpline
 62
7
  6
CONTINUOUS
 70
0
 71
3
 72
9
 73
5
 74
0
 42
0.0000001
 43
0.0000001
 44
0.0000000001
 40
0.0
 40
0.0
 40
0.0
 40
0.0
 40
0.6339284968
 40
1.0
 40
1.0
 40
1.0
 40
1.0
 10
164.3143442089
 20
1198.9205955875
 30
0.0
 10
164.4728018269
 20
1198.8372793936
 30
0.0
 10
164.7225843045
 20
1198.7058446782
 30
0.0
 10
164.9734751456
 20
1198.5754657924
 30
0.0
 10
165.0683793377
 20
1198.5344669129
 30
0.0
  0
SPLINE
  5
449
100
AcDbEntity
  8
0
100
AcDbSpline
 62
7
  6
CONTINUOUS
 70
0
 71
3
 72
9
 73
5
 74
0
 42
0.0000001
 43
0.0000001
 44
0.0000000001
 40
0.0
 40
0.0
 40
0.0
 40
0.0
 40
0.3660714483
 40
1.0
 40
1.0
 40
1.0
 40
1.0
 10
143.2584137666
 20
1198.5344669094
 30
0.0
 10
143.3533179092
 20
1198.5754657691
 30
0.0
 10
143.6042086621
 20
1198.7058446004
 30
0.0
 10
143.853991048
 20
1198.8372792693
 30
0.0
 10
144.0124486217
 20
1198.9205954403
 30
0.0
  0
SPLINE
  5
44A
100
AcDbEntity
  8
0
100
AcDbSpline
 62
7
  6
CONTINUOUS
 70
0
 71
3
 72
11
 73
7
 74
0
 42
0.0000001
 43
0.0000001
 44
0.0000000001
 40
0.0
 40
0.0
 40
0.0
 40
0.0
 40
0.1739571401
 40
0.4144926983
 40
0.697253182
 40
1.0
 40
1.0
 40
1.0
 40
1.0
 10
164.24484291
 20
1198.7882333163
 30
0.0
 10
164.2099550943
 20
1198.4107156927
 30
0.0
 10
164.1361099492
 20
1197.510370334
 30
0.0
 10
163.9898877391
 20
1195.9977067232
 30
0.0
 10
163.7708576124
 20
1194.2105221287
 30
0.0
 10
163.5700952635
 20
1192.949902523
 30
0.0
 10
163.4517613134
 20
1192.3007870398
 30
0.0
  0
SPLINE
  5
44B
100
AcDbEntity
  8
0
100
AcDbSpline
 62
7
  6
CONTINUOUS
 70
0
 71
3
 72
11
 73
7
 74
0
 42
0.0000001
 43
0.0000001
 44
0.0000000001
 40
0.0
 40
0.0
 40
0.0
 40
0.0
 40
0.3027308149
 40
0.585502749
 40
0.8260502521
 40
1.0
 40
1.0
 40
1.0
 40
1.0
 10
144.8750317976
 20
1192.3007870398
 30
0.0
 10
144.7567041317
 20
1192.9498681275
 30
0.0
 10
144.5559406487
 20
1194.2104772831
 30
0.0
 10
144.3369078487
 20
1195.9976776203
 30
0.0
 10
144.1906836786
 20
1197.5103758579
 30
0.0
 10
144.1168344392
 20
1198.4107307003
 30
0.0
 10
144.0819481437
 20
1198.7882322346
 30
0.0
  0
SPLINE
  5
44C
100
AcDbEntity
  8
0
100
AcDbSpline
 62
7
  6
CONTINUOUS
 70
0
 71
3
 72
11
 73
7
 74
0
 42
0.0000001
 43
0.0000001
 44
0.0000000001
 40
0.0
 40
0.0
 40
0.0
 40
0.0
 40
0.1691442811
 40
0.4093702733
 40
0.6932384325
 40
1.0
 40
1.0
 40
1.0
 40
1.0
 10
166.1513047734
 20
1196.8035930589
 30
0.0
 10
166.1879500271
 20
1196.5836541301
 30
0.0
 10
166.2908078024
 20
1196.053810075
 30
0.0
 10
166.4672920174
 20
1195.1572176239
 30
0.0
 10
166.6756283039
 20
1194.0819329827
 30
0.0
 10
166.8171375536
 20
1193.3163045965
 30
0.0
 10
166.888647127
 20
1192.9182956353
 30
0.0
  0
SPLINE
  5
44D
100
AcDbEntity
  8
0
100
AcDbSpline
 62
7
  6
CONTINUOUS
 70
0
 71
3
 72
11
 73
7
 74
0
 42
0.0000001
 43
0.0000001
 44
0.0000000001
 40
0.0
 40
0.0
 40
0.0
 40
0.0
 40
0.3067615722
 40
0.5906297291
 40
0.8308557193
 40
1.0
 40
1.0
 40
1.0
 40
1.0
 10
166.8886471267
 20
1166.3103728539
 30
0.0
 10
166.8171375524
 20
1165.9123638865
 30
0.0
 10
166.6756283022
 20
1165.1467354973
 30
0.0
 10
166.4672920155
 20
1164.0714508554
 30
0.0
 10
166.2908078017
 20
1163.1748584105
 30
0.0
 10
166.1879500269
 20
1162.6450143585
 30
0.0
 10
166.1513047734
 20
1162.4250754303
 30
0.0
  0
SPLINE
  5
44E
100
AcDbEntity
  8
0
100
AcDbSpline
 62
7
  6
CONTINUOUS
 70
0
 71
3
 72
9
 73
5
 74
0
 42
0.0000001
 43
0.0000001
 44
0.0000000001
 40
0.0
 40
0.0
 40
0.0
 40
0.0
 40
0.3660714544
 40
1.0
 40
1.0
 40
1.0
 40
1.0
 10
165.068379344
 20
1160.69420158
 30
0.0
 10
164.9734752004
 20
1160.6532027181
 30
0.0
 10
164.7225844474
 20
1160.5228238879
 30
0.0
 10
164.4728020618
 20
1160.3913892188
 30
0.0
 10
164.3143444895
 20
1160.308073049
 30
0.0
  0
SPLINE
  5
44F
100
AcDbEntity
  8
0
100
AcDbSpline
 62
7
  6
CONTINUOUS
 70
0
 71
3
 72
9
 73
5
 74
0
 42
0.0000001
 43
0.0000001
 44
0.0000000001
 40
0.0
 40
0.0
 40
0.0
 40
0.0
 40
0.6339284919
 40
1.0
 40
1.0
 40
1.0
 40
1.0
 10
144.012448902
 20
1160.3080729016
 30
0.0
 10
143.8539912847
 20
1160.3913890937
 30
0.0
 10
143.604208808
 20
1160.5228238107
 30
0.0
 10
143.3533179664
 20
1160.6532026949
 30
0.0
 10
143.2584137737
 20
1160.6942015765
 30
0.0
  0
SPLINE
  5
450
100
AcDbEntity
  8
0
100
AcDbSpline
 62
7
  6
CONTINUOUS
 70
0
 71
3
 72
11
 73
7
 74
0
 42
0.0000001
 43
0.0000001
 44
0.0000000001
 40
0.0
 40
0.0
 40
0.0
 40
0.0
 40
0.1691442811
 40
0.4093702733
 40
0.6932384325
 40
1.0
 40
1.0
 40
1.0
 40
1.0
 10
142.1754883376
 20
1162.4250754303
 30
0.0
 10
142.1388430839
 20
1162.6450143591
 30
0.0
 10
142.0359853086
 20
1163.1748584142
 30
0.0
 10
141.8595010935
 20
1164.0714508653
 30
0.0
 10
141.651164807
 20
1165.1467355065
 30
0.0
 10
141.5096555573
 20
1165.9123638927
 30
0.0
 10
141.438145984
 20
1166.3103728539
 30
0.0
  0
SPLINE
  5
451
100
AcDbEntity
  8
0
100
AcDbSpline
 62
7
  6
CONTINUOUS
 70
0
 71
3
 72
11
 73
7
 74
0
 42
0.0000001
 43
0.0000001
 44
0.0000000001
 40
0.0
 40
0.0
 40
0.0
 40
0.0
 40
0.3067615722
 40
0.5906297291
 40
0.8308557193
 40
1.0
 40
1.0
 40
1.0
 40
1.0
 10
141.4381459843
 20
1192.9182956353
 30
0.0
 10
141.5096555586
 20
1193.3163046027
 30
0.0
 10
141.6511648087
 20
1194.0819329919
 30
0.0
 10
141.8595010954
 20
1195.1572176338
 30
0.0
 10
142.0359853093
 20
1196.0538100787
 30
0.0
 10
142.1388430841
 20
1196.5836541307
 30
0.0
 10
142.1754883376
 20
1196.8035930589
 30
0.0
  0
SPLINE
  5
452
100
AcDbEntity
  8
0
100
AcDbSpline
 62
7
  6
CONTINUOUS
 70
0
 71
3
 72
11
 73
7
 74
0
 42
0.0000001
 43
0.0000001
 44
0.0000000001
 40
0.0
 40
0.0
 40
0.0
 40
0.0
 40
0.1739571401
 40
0.4144926983
 40
0.697253182
 40
1.0
 40
1.0
 40
1.0
 40
1.0
 10
144.081950201
 20
1160.4404351729
 30
0.0
 10
144.1168380166
 20
1160.8179527959
 30
0.0
 10
144.1906831611
 20
1161.7182981534
 30
0.0
 10
144.3369053738
 20
1163.2309617615
 30
0.0
 10
144.5559354863
 20
1165.0181463555
 30
0.0
 10
144.7566978642
 20
1166.2787659548
 30
0.0
 10
144.8750318144
 20
1166.9278814371
 30
0.0
  0
SPLINE
  5
453
100
AcDbEntity
  8
0
100
AcDbSpline
 62
7
  6
CONTINUOUS
 70
0
 71
3
 72
9
 73
5
 74
0
 42
0.0000001
 43
0.0000001
 44
0.0000000001
 40
0.0
 40
0.0
 40
0.0
 40
0.0
 40
0.2616872072
 40
1.0
 40
1.0
 40
1.0
 40
1.0
 10
144.081959372
 20
1160.44048293
 30
0.0
 10
144.0185800865
 20
1160.4703927464
 30
0.0
 10
143.7778353245
 20
1160.587719485
 30
0.0
 10
143.5409672687
 20
1160.7131242475
 30
0.0
 10
143.3694898864
 20
1160.8115698665
 30
0.0
  0
SPLINE
  5
454
100
AcDbEntity
  8
0
100
AcDbSpline
 62
7
  6
CONTINUOUS
 70
0
 71
3
 72
9
 73
5
 74
0
 42
0.0000001
 43
0.0000001
 44
0.0000000001
 40
0.0
 40
0.0
 40
0.0
 40
0.0
 40
0.5932802242
 40
1.0
 40
1.0
 40
1.0
 40
1.0
 10
143.3694898864
 20
1160.8115698665
 30
0.0
 10
143.2062247825
 20
1160.9053007948
 30
0.0
 10
142.9373218477
 20
1161.0742911997
 30
0.0
 10
142.685248192
 20
1161.2690468725
 30
0.0
 10
142.5917658997
 20
1161.3580260031
 30
0.0
  0
SPLINE
  5
455
100
AcDbEntity
  8
0
100
AcDbSpline
 62
7
  6
CONTINUOUS
 70
0
 71
3
 72
9
 73
5
 74
0
 42
0.0000001
 43
0.0000001
 44
0.0000000001
 40
0.0
 40
0.0
 40
0.0
 40
0.0
 40
0.4070055959
 40
1.0
 40
1.0
 40
1.0
 40
1.0
 10
165.7350303242
 20
1161.3580313429
 30
0.0
 10
165.642181154
 20
1161.2696876514
 30
0.0
 10
165.3921802811
 20
1161.0762589644
 30
0.0
 10
165.1254751732
 20
1160.9083278633
 30
0.0
 10
164.9636243948
 20
1160.8152051253
 30
0.0
  0
SPLINE
  5
456
100
AcDbEntity
  8
0
100
AcDbSpline
 62
7
  6
CONTINUOUS
 70
0
 71
3
 72
9
 73
5
 74
0
 42
0.0000001
 43
0.0000001
 44
0.0000000001
 40
0.0
 40
0.0
 40
0.0
 40
0.0
 40
0.2347089693
 40
1.0
 40
1.0
 40
1.0
 40
1.0
 10
164.9636243948
 20
1160.8152051253
 30
0.0
 10
164.9086487807
 20
1160.7835742629
 30
0.0
 10
164.6726844232
 20
1160.6518537764
 30
0.0
 10
164.4318621547
 20
1160.5287850867
 30
0.0
 10
164.2448516271
 20
1160.4404917709
 30
0.0
  0
SPLINE
  5
457
100
AcDbEntity
  8
0
100
AcDbSpline
 62
7
  6
CONTINUOUS
 70
0
 71
3
 72
11
 73
7
 74
0
 42
0.0000001
 43
0.0000001
 44
0.0000000001
 40
0.0
 40
0.0
 40
0.0
 40
0.0
 40
0.3027308149
 40
0.585502749
 40
0.8260502521
 40
1.0
 40
1.0
 40
1.0
 40
1.0
 10
163.4517612966
 20
1166.9278814371
 30
0.0
 10
163.5700889626
 20
1166.2788003503
 30
0.0
 10
163.7708524742
 20
1165.0181912011
 30
0.0
 10
163.9898852604
 20
1163.2309908645
 30
0.0
 10
164.136109433
 20
1161.7182926295
 30
0.0
 10
164.2099586718
 20
1160.8179377884
 30
0.0
 10
164.2448449673
 20
1160.4404362546
 30
0.0
  0
SPLINE
  5
458
100
AcDbEntity
  8
0
100
AcDbSpline
 62
7
  6
CONTINUOUS
 70
0
 71
3
 72
8
 73
4
 74
0
 42
0.0000001
 43
0.0000001
 44
0.0000000001
 40
0.0
 40
0.0
 40
0.0
 40
0.0
 40
1.0
 40
1.0
 40
1.0
 40
1.0
 10
166.1513044244
 20
229.8035946401
 30
0.0
 10
166.0641466385
 20
230.175303663
 30
0.0
 10
165.9252759399
 20
230.5396296755
 30
0.0
 10
165.7350242036
 20
230.8706407844
 30
0.0
  0
SPLINE
  5
459
100
AcDbEntity
  8
0
100
AcDbSpline
 62
7
  6
CONTINUOUS
 70
0
 71
3
 72
8
 73
4
 74
0
 42
0.0000001
 43
0.0000001
 44
0.0000000001
 40
0.0
 40
0.0
 40
0.0
 40
0.0
 40
1.0
 40
1.0
 40
1.0
 40
1.0
 10
142.5917653458
 20
230.870635717
 30
0.0
 10
142.4015151581
 20
230.5396260133
 30
0.0
 10
142.2626460057
 20
230.1753016817
 30
0.0
 10
142.1754886741
 20
229.8035945962
 30
0.0
  0
SPLINE
  5
45A
100
AcDbEntity
  8
0
100
AcDbSpline
 62
7
  6
CONTINUOUS
 70
0
 71
3
 72
9
 73
5
 74
0
 42
0.0000001
 43
0.0000001
 44
0.0000000001
 40
0.0
 40
0.0
 40
0.0
 40
0.0
 40
0.5000369803
 40
1.0
 40
1.0
 40
1.0
 40
1.0
 10
143.2584129293
 20
231.5344660907
 30
0.0
 10
143.1213652226
 20
231.455476414
 30
0.0
 10
142.8662040432
 20
231.261826914
 30
0.0
 10
142.6705774036
 20
231.0077586588
 30
0.0
 10
142.5917653458
 20
230.870635717
 30
0.0
  0
SPLINE
  5
45B
100
AcDbEntity
  8
0
100
AcDbSpline
 62
7
  6
CONTINUOUS
 70
0
 71
3
 72
9
 73
5
 74
0
 42
0.0000001
 43
0.0000001
 44
0.0000000001
 40
0.0
 40
0.0
 40
0.0
 40
0.0
 40
0.4999631248
 40
1.0
 40
1.0
 40
1.0
 40
1.0
 10
165.7350242036
 20
230.8706407844
 30
0.0
 10
165.6562123359
 20
231.0077622859
 30
0.0
 10
165.460587618
 20
231.2618284018
 30
0.0
 10
165.2054283804
 20
231.4554759204
 30
0.0
 10
165.0683818958
 20
231.5344648935
 30
0.0
  0
SPLINE
  5
45C
100
AcDbEntity
  8
0
100
AcDbSpline
 62
7
  6
CONTINUOUS
 70
0
 71
3
 72
8
 73
4
 74
0
 42
0.0000001
 43
0.0000001
 44
0.0000000001
 40
0.0
 40
0.0
 40
0.0
 40
0.0
 40
1.0
 40
1.0
 40
1.0
 40
1.0
 10
145.5761581559
 20
206.3958770909
 30
0.0
 10
145.8151009277
 20
206.3958770909
 30
0.0
 10
146.0851063079
 20
206.3313626304
 30
0.0
 10
146.3861743626
 20
206.2047228207
 30
0.0
  0
SPLINE
  5
45D
100
AcDbEntity
  8
0
100
AcDbSpline
 62
7
  6
CONTINUOUS
 70
0
 71
3
 72
8
 73
4
 74
0
 42
0.0000001
 43
0.0000001
 44
0.0000000001
 40
0.0
 40
0.0
 40
0.0
 40
0.0
 40
1.0
 40
1.0
 40
1.0
 40
1.0
 10
145.2105756406
 20
206.3480885234
 30
0.0
 10
145.3491624601
 20
206.3791511979
 30
0.0
 10
145.4710233206
 20
206.3958770909
 30
0.0
 10
145.5761581559
 20
206.3958770909
 30
0.0
  0
SPLINE
  5
45E
100
AcDbEntity
  8
0
100
AcDbSpline
 62
7
  6
CONTINUOUS
 70
0
 71
3
 72
8
 73
4
 74
0
 42
0.0000001
 43
0.0000001
 44
0.0000000001
 40
0.0
 40
0.0
 40
0.0
 40
0.0
 40
1.0
 40
1.0
 40
1.0
 40
1.0
 10
144.6872908372
 20
205.7292267849
 30
0.0
 10
144.6872908372
 20
206.0207369413
 30
0.0
 10
144.8617191009
 20
206.2286171045
 30
0.0
 10
145.2105756406
 20
206.3480885234
 30
0.0
  0
SPLINE
  5
45F
100
AcDbEntity
  8
0
100
AcDbSpline
 62
7
  6
CONTINUOUS
 70
0
 71
3
 72
8
 73
4
 74
0
 42
0.0000001
 43
0.0000001
 44
0.0000000001
 40
0.0
 40
0.0
 40
0.0
 40
0.0
 40
1.0
 40
1.0
 40
1.0
 40
1.0
 10
145.2105756406
 20
205.0315135404
 30
0.0
 10
144.8617191009
 20
205.1796582582
 30
0.0
 10
144.6872908372
 20
205.4138220807
 30
0.0
 10
144.6872908372
 20
205.7292267849
 30
0.0
  0
SPLINE
  5
460
100
AcDbEntity
  8
0
100
AcDbSpline
 62
7
  6
CONTINUOUS
 70
0
 71
3
 72
8
 73
4
 74
0
 42
0.0000001
 43
0.0000001
 44
0.0000000001
 40
0.0
 40
0.0
 40
0.0
 40
0.0
 40
1.0
 40
1.0
 40
1.0
 40
1.0
 10
145.8772261447
 20
204.6659311571
 30
0.0
 10
145.8772261447
 20
204.7662870433
 30
0.0
 10
145.655009266
 20
204.8881478377
 30
0.0
 10
145.2105756406
 20
205.0315135404
 30
0.0
  0
SPLINE
  5
461
100
AcDbEntity
  8
0
100
AcDbSpline
 62
7
  6
CONTINUOUS
 70
0
 71
3
 72
8
 73
4
 74
0
 42
0.0000001
 43
0.0000001
 44
0.0000000001
 40
0.0
 40
0.0
 40
0.0
 40
0.0
 40
1.0
 40
1.0
 40
1.0
 40
1.0
 10
145.5283695884
 20
204.4102621623
 30
0.0
 10
145.7601441014
 20
204.4102621623
 30
0.0
 10
145.8772261447
 20
204.4938921555
 30
0.0
 10
145.8772261447
 20
204.6659311571
 30
0.0
  0
SPLINE
  5
462
100
AcDbEntity
  8
0
100
AcDbSpline
 62
7
  6
CONTINUOUS
 70
0
 71
3
 72
8
 73
4
 74
0
 42
0.0000001
 43
0.0000001
 44
0.0000000001
 40
0.0
 40
0.0
 40
0.0
 40
0.0
 40
1.0
 40
1.0
 40
1.0
 40
1.0
 10
144.766141974
 20
204.6969935676
 30
0.0
 10
145.0528733546
 20
204.5058392974
 30
0.0
 10
145.3085422173
 20
204.4102621623
 30
0.0
 10
145.5283695884
 20
204.4102621623
 30
0.0
  0
SPLINE
  5
463
100
AcDbEntity
  8
0
100
AcDbSpline
 62
7
  6
CONTINUOUS
 70
0
 71
3
 72
8
 73
4
 74
0
 42
0.0000001
 43
0.0000001
 44
0.0000000001
 40
0.0
 40
0.0
 40
0.0
 40
0.0
 40
1.0
 40
1.0
 40
1.0
 40
1.0
 10
145.4973070459
 20
203.9992805871
 30
0.0
 10
145.2010179073
 20
203.9992805871
 30
0.0
 10
144.9453490776
 20
204.0781316971
 30
0.0
 10
144.7350794068
 20
204.2358340492
 30
0.0
  0
SPLINE
  5
464
100
AcDbEntity
  8
0
100
AcDbSpline
 62
7
  6
CONTINUOUS
 70
0
 71
3
 72
8
 73
4
 74
0
 42
0.0000001
 43
0.0000001
 44
0.0000000001
 40
0.0
 40
0.0
 40
0.0
 40
0.0
 40
1.0
 40
1.0
 40
1.0
 40
1.0
 10
146.4817514977
 20
204.7137197246
 30
0.0
 10
146.4817514977
 20
204.2931803831
 30
0.0
 10
146.2045777267
 20
204.0566269209
 30
0.0
 10
145.655009266
 20
203.9992805871
 30
0.0
  0
SPLINE
  5
465
100
AcDbEntity
  8
0
100
AcDbSpline
 62
7
  6
CONTINUOUS
 70
0
 71
3
 72
8
 73
4
 74
0
 42
0.0000001
 43
0.0000001
 44
0.0000000001
 40
0.0
 40
0.0
 40
0.0
 40
0.0
 40
1.0
 40
1.0
 40
1.0
 40
1.0
 10
146.0540437654
 20
205.3325814631
 30
0.0
 10
146.3383857951
 20
205.1653214767
 30
0.0
 10
146.4817514977
 20
204.9574413135
 30
0.0
 10
146.4817514977
 20
204.7137197246
 30
0.0
  0
SPLINE
  5
466
100
AcDbEntity
  8
0
100
AcDbSpline
 62
7
  6
CONTINUOUS
 70
0
 71
3
 72
8
 73
4
 74
0
 42
0.0000001
 43
0.0000001
 44
0.0000000001
 40
0.0
 40
0.0
 40
0.0
 40
0.0
 40
1.0
 40
1.0
 40
1.0
 40
1.0
 10
145.2918161923
 20
205.7125006279
 30
0.0
 10
145.2918161923
 20
205.6503755429
 30
0.0
 10
145.5450956134
 20
205.5237357333
 30
0.0
 10
146.0540437654
 20
205.3325814631
 30
0.0
  0
SPLINE
  5
467
100
AcDbEntity
  8
0
100
AcDbSpline
 62
7
  6
CONTINUOUS
 70
0
 71
3
 72
8
 73
4
 74
0
 42
0.0000001
 43
0.0000001
 44
0.0000000001
 40
0.0
 40
0.0
 40
0.0
 40
0.0
 40
1.0
 40
1.0
 40
1.0
 40
1.0
 10
145.5450956134
 20
205.9514434656
 30
0.0
 10
145.3993404692
 20
205.9514434656
 30
0.0
 10
145.315710476
 20
205.8917077561
 30
0.0
 10
145.2918161923
 20
205.7770153525
 30
0.0
  0
SPLINE
  5
468
100
AcDbEntity
  8
0
100
AcDbSpline
 62
7
  6
CONTINUOUS
 70
0
 71
3
 72
8
 73
4
 74
0
 42
0.0000001
 43
0.0000001
 44
0.0000000001
 40
0.0
 40
0.0
 40
0.0
 40
0.0
 40
1.0
 40
1.0
 40
1.0
 40
1.0
 10
146.3551118201
 20
205.7602891954
 30
0.0
 10
146.0779380491
 20
205.886929005
 30
0.0
 10
145.8557212365
 20
205.9514434656
 30
0.0
 10
145.6884612501
 20
205.9514434656
 30
0.0
  0
SPLINE
  5
469
100
AcDbEntity
  8
0
100
AcDbSpline
 62
7
  6
CONTINUOUS
 70
0
 71
3
 72
8
 73
4
 74
0
 42
0.0000001
 43
0.0000001
 44
0.0000000001
 40
0.0
 40
0.0
 40
0.0
 40
0.0
 40
1.0
 40
1.0
 40
1.0
 40
1.0
 10
154.0896909752
 20
206.3815405735
 30
0.0
 10
154.1470370451
 20
206.3815405735
 30
0.0
 10
154.1996048918
 20
206.3433097722
 30
0.0
 10
154.2473934594
 20
206.2692375454
 30
0.0
  0
SPLINE
  5
46A
100
AcDbEntity
  8
0
100
AcDbSpline
 62
7
  6
CONTINUOUS
 70
0
 71
3
 72
8
 73
4
 74
0
 42
0.0000001
 43
0.0000001
 44
0.0000000001
 40
0.0
 40
0.0
 40
0.0
 40
0.0
 40
1.0
 40
1.0
 40
1.0
 40
1.0
 10
153.6906565419
 20
205.9681693586
 30
0.0
 10
153.6906565419
 20
206.1760497858
 30
0.0
 10
153.7910129562
 20
206.3146364733
 30
0.0
 10
153.9941138402
 20
206.3815405735
 30
0.0
  0
SPLINE
  5
46B
100
AcDbEntity
  8
0
100
AcDbSpline
 62
7
  6
CONTINUOUS
 70
0
 71
3
 72
8
 73
4
 74
0
 42
0.0000001
 43
0.0000001
 44
0.0000000001
 40
0.0
 40
0.0
 40
0.0
 40
0.0
 40
1.0
 40
1.0
 40
1.0
 40
1.0
 10
153.8674740306
 20
205.841529813
 30
0.0
 10
153.7957911792
 20
205.841529813
 30
0.0
 10
153.7360559979
 20
205.8821499898
 30
0.0
 10
153.6906565419
 20
205.9681693586
 30
0.0
  0
SPLINE
  5
46C
100
AcDbEntity
  8
0
100
AcDbSpline
 62
7
  6
CONTINUOUS
 70
0
 71
3
 72
8
 73
4
 74
0
 42
0.0000001
 43
0.0000001
 44
0.0000000001
 40
0.0
 40
0.0
 40
0.0
 40
0.0
 40
1.0
 40
1.0
 40
1.0
 40
1.0
 10
154.2473934594
 20
206.1903863033
 30
0.0
 10
154.2473934594
 20
206.0302947076
 30
0.0
 10
154.1207536498
 20
205.9132126643
 30
0.0
 10
153.8674740306
 20
205.841529813
 30
0.0
  0
SPLINE
  5
46D
100
AcDbEntity
  8
0
100
AcDbSpline
 62
7
  6
CONTINUOUS
 70
0
 71
3
 72
8
 73
4
 74
0
 42
0.0000001
 43
0.0000001
 44
0.0000000001
 40
0.0
 40
0.0
 40
0.0
 40
0.0
 40
1.0
 40
1.0
 40
1.0
 40
1.0
 10
149.1029540578
 20
205.2680670025
 30
0.0
 10
148.9834829029
 20
205.2680670025
 30
0.0
 10
148.8664008597
 20
205.1892157605
 30
0.0
 10
148.7517081919
 20
205.0315135404
 30
0.0
  0
SPLINE
  5
46E
100
AcDbEntity
  8
0
100
AcDbSpline
 62
7
  6
CONTINUOUS
 70
0
 71
3
 72
8
 73
4
 74
0
 42
0.0000001
 43
0.0000001
 44
0.0000000001
 40
0.0
 40
0.0
 40
0.0
 40
0.0
 40
1.0
 40
1.0
 40
1.0
 40
1.0
 10
149.3395077839
 20
204.9837249728
 30
0.0
 10
149.3060554698
 20
205.1724898674
 30
0.0
 10
149.2272047558
 20
205.2680670025
 30
0.0
 10
149.1029540578
 20
205.2680670025
 30
0.0
  0
SPLINE
  5
46F
100
AcDbEntity
  8
0
100
AcDbSpline
 62
7
  6
CONTINUOUS
 70
0
 71
3
 72
8
 73
4
 74
0
 42
0.0000001
 43
0.0000001
 44
0.0000000001
 40
0.0
 40
0.0
 40
0.0
 40
0.0
 40
1.0
 40
1.0
 40
1.0
 40
1.0
 10
149.8484561339
 20
204.5536278649
 30
0.0
 10
149.8197825709
 20
204.52495483
 30
0.0
 10
149.650133473
 20
204.4652191206
 30
0.0
 10
149.3395077839
 20
204.3791997518
 30
0.0
  0
SPLINE
  5
470
100
AcDbEntity
  8
0
100
AcDbSpline
 62
7
  6
CONTINUOUS
 70
0
 71
3
 72
8
 73
4
 74
0
 42
0.0000001
 43
0.0000001
 44
0.0000000001
 40
0.0
 40
0.0
 40
0.0
 40
0.0
 40
1.0
 40
1.0
 40
1.0
 40
1.0
 10
149.8190208619
 20
205.2375870022
 30
0.0
 10
149.836508992
 20
205.1892157605
 30
0.0
 10
149.8484561339
 20
205.1199225488
 30
0.0
 10
149.8484561339
 20
205.0315135404
 30
0.0
  0
SPLINE
  5
471
100
AcDbEntity
  8
0
100
AcDbSpline
 62
7
  6
CONTINUOUS
 70
0
 71
3
 72
8
 73
4
 74
0
 42
0.0000001
 43
0.0000001
 44
0.0000000001
 40
0.0
 40
0.0
 40
0.0
 40
0.0
 40
1.0
 40
1.0
 40
1.0
 40
1.0
 10
149.3084451094
 20
205.6336496498
 30
0.0
 10
149.5545563379
 20
205.6336496498
 30
0.0
 10
149.7242054358
 20
205.4998414495
 30
0.0
 10
149.8190208619
 20
205.2375870022
 30
0.0
  0
SPLINE
  5
472
100
AcDbEntity
  8
0
100
AcDbSpline
 62
7
  6
CONTINUOUS
 70
0
 71
3
 72
8
 73
4
 74
0
 42
0.0000001
 43
0.0000001
 44
0.0000000001
 40
0.0
 40
0.0
 40
0.0
 40
0.0
 40
1.0
 40
1.0
 40
1.0
 40
1.0
 10
148.7517081919
 20
205.3803700306
 30
0.0
 10
148.9189681783
 20
205.547630017
 30
0.0
 10
149.0671128961
 20
205.6336496498
 30
0.0
 10
149.1985311928
 20
205.6336496498
 30
0.0
  0
SPLINE
  5
473
100
AcDbEntity
  8
0
100
AcDbSpline
 62
7
  6
CONTINUOUS
 70
0
 71
3
 72
8
 73
4
 74
0
 42
0.0000001
 43
0.0000001
 44
0.0000000001
 40
0.0
 40
0.0
 40
0.0
 40
0.0
 40
1.0
 40
1.0
 40
1.0
 40
1.0
 10
155.215111424
 20
205.6336496498
 30
0.0
 10
155.3130787268
 20
205.6336496498
 30
0.0
 10
155.446885871
 20
205.6001975998
 30
0.0
 10
155.6141458574
 20
205.5380725148
 30
0.0
  0
SPLINE
  5
474
100
AcDbEntity
  8
0
100
AcDbSpline
 62
7
  6
CONTINUOUS
 70
0
 71
3
 72
8
 73
4
 74
0
 42
0.0000001
 43
0.0000001
 44
0.0000000001
 40
0.0
 40
0.0
 40
0.0
 40
0.0
 40
1.0
 40
1.0
 40
1.0
 40
1.0
 10
154.4218218365
 20
204.8546957877
 30
0.0
 10
154.4218218365
 20
205.203552542
 30
0.0
 10
154.5914709345
 20
205.4544425216
 30
0.0
 10
154.9307701865
 20
205.6025869753
 30
0.0
  0
SPLINE
  5
475
100
AcDbEntity
  8
0
100
AcDbSpline
 62
7
  6
CONTINUOUS
 70
0
 71
3
 72
8
 73
4
 74
0
 42
0.0000001
 43
0.0000001
 44
0.0000000001
 40
0.0
 40
0.0
 40
0.0
 40
0.0
 40
1.0
 40
1.0
 40
1.0
 40
1.0
 10
155.1219244567
 20
203.9992805871
 30
0.0
 10
154.8017402092
 20
203.9992805871
 30
0.0
 10
154.5747450414
 20
204.1928242328
 30
0.0
 10
154.4385477296
 20
204.5846905395
 30
0.0
  0
SPLINE
  5
476
100
AcDbEntity
  8
0
100
AcDbSpline
 62
7
  6
CONTINUOUS
 70
0
 71
3
 72
8
 73
4
 74
0
 42
0.0000001
 43
0.0000001
 44
0.0000000001
 40
0.0
 40
0.0
 40
0.0
 40
0.0
 40
1.0
 40
1.0
 40
1.0
 40
1.0
 10
155.5974199644
 20
204.1402569141
 30
0.0
 10
155.4683910432
 20
204.044679779
 30
0.0
 10
155.3082994476
 20
203.9992805871
 30
0.0
 10
155.1219244567
 20
203.9992805871
 30
0.0
  0
SPLINE
  5
477
100
AcDbEntity
  8
0
100
AcDbSpline
 62
7
  6
CONTINUOUS
 70
0
 71
3
 72
8
 73
4
 74
0
 42
0.0000001
 43
0.0000001
 44
0.0000000001
 40
0.0
 40
0.0
 40
0.0
 40
0.0
 40
1.0
 40
1.0
 40
1.0
 40
1.0
 10
146.9572477975
 20
205.4902839472
 30
0.0
 10
147.1292865351
 20
205.5858610823
 30
0.0
 10
147.2774309888
 20
205.6336496498
 30
0.0
 10
147.4040707985
 20
205.6336496498
 30
0.0
  0
SPLINE
  5
478
100
AcDbEntity
  8
0
100
AcDbSpline
 62
7
  6
CONTINUOUS
 70
0
 71
3
 72
8
 73
4
 74
0
 42
0.0000001
 43
0.0000001
 44
0.0000000001
 40
0.0
 40
0.0
 40
0.0
 40
0.0
 40
1.0
 40
1.0
 40
1.0
 40
1.0
 10
146.6083911753
 20
204.9192105123
 30
0.0
 10
146.6083911753
 20
205.1055857673
 30
0.0
 10
146.723083711
 20
205.2967400374
 30
0.0
 10
146.9572477975
 20
205.4902839472
 30
0.0
  0
SPLINE
  5
479
100
AcDbEntity
  8
0
100
AcDbSpline
 62
7
  6
CONTINUOUS
 70
0
 71
3
 72
8
 73
4
 74
0
 42
0.0000001
 43
0.0000001
 44
0.0000000001
 40
0.0
 40
0.0
 40
0.0
 40
0.0
 40
1.0
 40
1.0
 40
1.0
 40
1.0
 10
147.4184073159
 20
203.9992805871
 30
0.0
 10
147.0026467255
 20
203.9992805871
 30
0.0
 10
146.7326414773
 20
204.2214975318
 30
0.0
 10
146.6083911753
 20
204.6659311571
 30
0.0
  0
SPLINE
  5
47A
100
AcDbEntity
  8
0
100
AcDbSpline
 62
7
  6
CONTINUOUS
 70
0
 71
3
 72
8
 73
4
 74
0
 42
0.0000001
 43
0.0000001
 44
0.0000000001
 40
0.0
 40
0.0
 40
0.0
 40
0.0
 40
1.0
 40
1.0
 40
1.0
 40
1.0
 10
148.0372693184
 20
204.1259202646
 30
0.0
 10
147.9631970915
 20
204.0399008959
 30
0.0
 10
147.7577060398
 20
203.9992805871
 30
0.0
 10
147.4184073159
 20
203.9992805871
 30
0.0
  0
SPLINE
  5
47B
100
AcDbEntity
  8
0
100
AcDbSpline
 62
7
  6
CONTINUOUS
 70
0
 71
3
 72
8
 73
4
 74
0
 42
0.0000001
 43
0.0000001
 44
0.0000000001
 40
0.0
 40
0.0
 40
0.0
 40
0.0
 40
1.0
 40
1.0
 40
1.0
 40
1.0
 10
147.6095615861
 20
204.3314111843
 30
0.0
 10
147.7577060398
 20
204.3505264529
 30
0.0
 10
147.8986823669
 20
204.383978503
 30
0.0
 10
148.0372693184
 20
204.4269883194
 30
0.0
  0
SPLINE
  5
47C
100
AcDbEntity
  8
0
100
AcDbSpline
 62
7
  6
CONTINUOUS
 70
0
 71
3
 72
8
 73
4
 74
0
 42
0.0000001
 43
0.0000001
 44
0.0000000001
 40
0.0
 40
0.0
 40
0.0
 40
0.0
 40
1.0
 40
1.0
 40
1.0
 40
1.0
 10
147.1340652862
 20
204.7925707027
 30
0.0
 10
147.1340652862
 20
204.5823011639
 30
0.0
 10
147.2535367051
 20
204.4341564461
 30
0.0
 10
147.497258558
 20
204.3481370773
 30
0.0
  0
SPLINE
  5
47D
100
AcDbEntity
  8
0
100
AcDbSpline
 62
7
  6
CONTINUOUS
 70
0
 71
3
 72
8
 73
4
 74
0
 42
0.0000001
 43
0.0000001
 44
0.0000000001
 40
0.0
 40
0.0
 40
0.0
 40
0.0
 40
1.0
 40
1.0
 40
1.0
 40
1.0
 10
147.6095615861
 20
205.2680670025
 30
0.0
 10
147.3682293728
 20
205.2680670025
 30
0.0
 10
147.2153059039
 20
205.1462062081
 30
0.0
 10
147.1484020677
 20
204.9024843552
 30
0.0
  0
SPLINE
  5
47E
100
AcDbEntity
  8
0
100
AcDbSpline
 62
7
  6
CONTINUOUS
 70
0
 71
3
 72
8
 73
4
 74
0
 42
0.0000001
 43
0.0000001
 44
0.0000000001
 40
0.0
 40
0.0
 40
0.0
 40
0.0
 40
1.0
 40
1.0
 40
1.0
 40
1.0
 10
148.0229328009
 20
205.1724898674
 30
0.0
 10
147.8389466575
 20
205.2346149524
 30
0.0
 10
147.70035997
 20
205.2680670025
 30
0.0
 10
147.6095615861
 20
205.2680670025
 30
0.0
  0
SPLINE
  5
47F
100
AcDbEntity
  8
0
100
AcDbSpline
 62
7
  6
CONTINUOUS
 70
0
 71
3
 72
8
 73
4
 74
0
 42
0.0000001
 43
0.0000001
 44
0.0000000001
 40
0.0
 40
0.0
 40
0.0
 40
0.0
 40
1.0
 40
1.0
 40
1.0
 40
1.0
 10
147.530710344
 20
205.6336496498
 30
0.0
 10
147.7362013957
 20
205.6336496498
 30
0.0
 10
147.8986823669
 20
205.5906398334
 30
0.0
 10
148.0229328009
 20
205.5070098402
 30
0.0
  0
SPLINE
  5
480
100
AcDbEntity
  8
0
100
AcDbSpline
 62
7
  6
CONTINUOUS
 70
0
 71
3
 72
8
 73
4
 74
0
 42
0.0000001
 43
0.0000001
 44
0.0000000001
 40
0.0
 40
0.0
 40
0.0
 40
0.0
 40
1.0
 40
1.0
 40
1.0
 40
1.0
 10
150.593957682
 20
205.3947068121
 30
0.0
 10
150.768385531
 20
205.5524090322
 30
0.0
 10
150.9021937314
 20
205.6336496498
 30
0.0
 10
150.9929921153
 20
205.6336496498
 30
0.0
  0
SPLINE
  5
481
100
AcDbEntity
  8
0
100
AcDbSpline
 62
7
  6
CONTINUOUS
 70
0
 71
3
 72
8
 73
4
 74
0
 42
0.0000001
 43
0.0000001
 44
0.0000000001
 40
0.0
 40
0.0
 40
0.0
 40
0.0
 40
1.0
 40
1.0
 40
1.0
 40
1.0
 10
150.593957682
 20
204.3170746668
 30
0.0
 10
150.4959909073
 20
204.4102621623
 30
0.0
 10
150.3263412812
 20
204.4843346532
 30
0.0
 10
150.0873989716
 20
204.5392913475
 30
0.0
  0
SPLINE
  5
482
100
AcDbEntity
  8
0
100
AcDbSpline
 62
7
  6
CONTINUOUS
 70
0
 71
3
 72
8
 73
4
 74
0
 42
0.0000001
 43
0.0000001
 44
0.0000000001
 40
0.0
 40
0.0
 40
0.0
 40
0.0
 40
1.0
 40
1.0
 40
1.0
 40
1.0
 10
150.9452035478
 20
205.3015190526
 30
0.0
 10
150.7851119521
 20
205.3015190526
 30
0.0
 10
150.6680296448
 20
205.2059419175
 30
0.0
 10
150.593957682
 20
205.0147876473
 30
0.0
  0
SPLINE
  5
483
100
AcDbEntity
  8
0
100
AcDbSpline
 62
7
  6
CONTINUOUS
 70
0
 71
3
 72
8
 73
4
 74
0
 42
0.0000001
 43
0.0000001
 44
0.0000000001
 40
0.0
 40
0.0
 40
0.0
 40
0.0
 40
1.0
 40
1.0
 40
1.0
 40
1.0
 10
151.1817567459
 20
204.9502729227
 30
0.0
 10
151.1817567459
 20
205.1844370093
 30
0.0
 10
151.1029055038
 20
205.3015190526
 30
0.0
 10
150.9452035478
 20
205.3015190526
 30
0.0
  0
SPLINE
  5
484
100
AcDbEntity
  8
0
100
AcDbSpline
 62
7
  6
CONTINUOUS
 70
0
 71
3
 72
8
 73
4
 74
0
 42
0.0000001
 43
0.0000001
 44
0.0000000001
 40
0.0
 40
0.0
 40
0.0
 40
0.0
 40
1.0
 40
1.0
 40
1.0
 40
1.0
 10
151.1339681783
 20
205.6336496498
 30
0.0
 10
151.4923824349
 20
205.6336496498
 30
0.0
 10
151.6739792028
 20
205.3851490458
 30
0.0
 10
151.6739792028
 20
204.8881478377
 30
0.0
  0
SPLINE
  5
485
100
AcDbEntity
  8
0
100
AcDbSpline
 62
7
  6
CONTINUOUS
 70
0
 71
3
 72
8
 73
4
 74
0
 42
0.0000001
 43
0.0000001
 44
0.0000000001
 40
0.0
 40
0.0
 40
0.0
 40
0.0
 40
1.0
 40
1.0
 40
1.0
 40
1.0
 10
152.8185151842
 20
205.6336496498
 30
0.0
 10
153.0550683823
 20
205.6336496498
 30
0.0
 10
153.260559434
 20
205.4902839472
 30
0.0
 10
153.4373769227
 20
205.2059419175
 30
0.0
  0
SPLINE
  5
486
100
AcDbEntity
  8
0
100
AcDbSpline
 62
7
  6
CONTINUOUS
 70
0
 71
3
 72
8
 73
4
 74
0
 42
0.0000001
 43
0.0000001
 44
0.0000000001
 40
0.0
 40
0.0
 40
0.0
 40
0.0
 40
1.0
 40
1.0
 40
1.0
 40
1.0
 10
151.881859366
 20
204.8714219447
 30
0.0
 10
151.881859366
 20
205.2537304851
 30
0.0
 10
152.1088550618
 20
205.5093992158
 30
0.0
 10
152.565235565
 20
205.6336496498
 30
0.0
  0
SPLINE
  5
487
100
AcDbEntity
  8
0
100
AcDbSpline
 62
7
  6
CONTINUOUS
 70
0
 71
3
 72
8
 73
4
 74
0
 42
0.0000001
 43
0.0000001
 44
0.0000000001
 40
0.0
 40
0.0
 40
0.0
 40
0.0
 40
1.0
 40
1.0
 40
1.0
 40
1.0
 10
152.7229380491
 20
203.9992805871
 30
0.0
 10
152.3215139762
 20
203.9992805871
 30
0.0
 10
152.051508992
 20
204.1832665985
 30
0.0
 10
151.9129220405
 20
204.5536278649
 30
0.0
  0
SPLINE
  5
488
100
AcDbEntity
  8
0
100
AcDbSpline
 62
7
  6
CONTINUOUS
 70
0
 71
3
 72
8
 73
4
 74
0
 42
0.0000001
 43
0.0000001
 44
0.0000000001
 40
0.0
 40
0.0
 40
0.0
 40
0.0
 40
1.0
 40
1.0
 40
1.0
 40
1.0
 10
153.5018919113
 20
204.2047713747
 30
0.0
 10
153.322684783
 20
204.0661845552
 30
0.0
 10
153.0622367731
 20
203.9992805871
 30
0.0
 10
152.7229380491
 20
203.9992805871
 30
0.0
  0
SPLINE
  5
489
100
AcDbEntity
  8
0
100
AcDbSpline
 62
7
  6
CONTINUOUS
 70
0
 71
3
 72
8
 73
4
 74
0
 42
0.0000001
 43
0.0000001
 44
0.0000000001
 40
0.0
 40
0.0
 40
0.0
 40
0.0
 40
1.0
 40
1.0
 40
1.0
 40
1.0
 10
152.9284291008
 20
204.3003485098
 30
0.0
 10
153.0902756868
 20
204.2860075613
 30
0.0
 10
153.2820640782
 20
204.3624735948
 30
0.0
 10
153.5018919113
 20
204.4915027799
 30
0.0
  0
SPLINE
  5
48A
100
AcDbEntity
  8
0
100
AcDbSpline
 62
7
  6
CONTINUOUS
 70
0
 71
3
 72
8
 73
4
 74
0
 42
0.0000001
 43
0.0000001
 44
0.0000000001
 40
0.0
 40
0.0
 40
0.0
 40
0.0
 40
1.0
 40
1.0
 40
1.0
 40
1.0
 10
152.3884180763
 20
204.7280562421
 30
0.0
 10
152.3884180763
 20
204.5321232208
 30
0.0
 10
152.5054998556
 20
204.3935362693
 30
0.0
 10
152.7396639422
 20
204.3170746668
 30
0.0
  0
SPLINE
  5
48B
100
AcDbEntity
  8
0
100
AcDbSpline
 62
7
  6
CONTINUOUS
 70
0
 71
3
 72
8
 73
4
 74
0
 42
0.0000001
 43
0.0000001
 44
0.0000000001
 40
0.0
 40
0.0
 40
0.0
 40
0.0
 40
1.0
 40
1.0
 40
1.0
 40
1.0
 10
153.4373769227
 20
205.2059419175
 30
0.0
 10
153.4899447694
 20
205.0721339812
 30
0.0
 10
153.5162281647
 20
204.9622200646
 30
0.0
 10
153.5162281647
 20
204.8714219447
 30
0.0
  0
SPLINE
  5
48C
100
AcDbEntity
  8
0
100
AcDbSpline
 62
7
  6
CONTINUOUS
 70
0
 71
3
 72
8
 73
4
 74
0
 42
0.0000001
 43
0.0000001
 44
0.0000000001
 40
0.0
 40
0.0
 40
0.0
 40
0.0
 40
1.0
 40
1.0
 40
1.0
 40
1.0
 10
156.311859366
 20
204.8092968597
 30
0.0
 10
156.311859366
 20
205.1820476338
 30
0.0
 10
156.4958452454
 20
205.4472741308
 30
0.0
 10
156.8685962835
 20
205.6025869753
 30
0.0
  0
SPLINE
  5
48D
100
AcDbEntity
  8
0
100
AcDbSpline
 62
7
  6
CONTINUOUS
 70
0
 71
3
 72
8
 73
4
 74
0
 42
0.0000001
 43
0.0000001
 44
0.0000000001
 40
0.0
 40
0.0
 40
0.0
 40
0.0
 40
1.0
 40
1.0
 40
1.0
 40
1.0
 10
157.2007271448
 20
203.9992805871
 30
0.0
 10
156.7132829109
 20
203.9992805871
 30
0.0
 10
156.4217732826
 20
204.2262762829
 30
0.0
 10
156.328585259
 20
204.6802676745
 30
0.0
  0
SPLINE
  5
48E
100
AcDbEntity
  8
0
100
AcDbSpline
 62
7
  6
CONTINUOUS
 70
0
 71
3
 72
8
 73
4
 74
0
 42
0.0000001
 43
0.0000001
 44
0.0000000001
 40
0.0
 40
0.0
 40
0.0
 40
0.0
 40
1.0
 40
1.0
 40
1.0
 40
1.0
 10
157.9318913832
 20
204.2214975318
 30
0.0
 10
157.7861365691
 20
204.0733528139
 30
0.0
 10
157.5424144521
 20
203.9992805871
 30
0.0
 10
157.2007271448
 20
203.9992805871
 30
0.0
  0
SPLINE
  5
48F
100
AcDbEntity
  8
0
100
AcDbSpline
 62
7
  6
CONTINUOUS
 70
0
 71
3
 72
8
 73
4
 74
0
 42
0.0000001
 43
0.0000001
 44
0.0000000001
 40
0.0
 40
0.0
 40
0.0
 40
0.0
 40
1.0
 40
1.0
 40
1.0
 40
1.0
 10
157.4229430333
 20
204.3003485098
 30
0.0
 10
157.5782564059
 20
204.3003485098
 30
0.0
 10
157.7479055038
 20
204.3624735948
 30
0.0
 10
157.9318913832
 20
204.4915027799
 30
0.0
  0
SPLINE
  5
490
100
AcDbEntity
  8
0
100
AcDbSpline
 62
7
  6
CONTINUOUS
 70
0
 71
3
 72
8
 73
4
 74
0
 42
0.0000001
 43
0.0000001
 44
0.0000000001
 40
0.0
 40
0.0
 40
0.0
 40
0.0
 40
1.0
 40
1.0
 40
1.0
 40
1.0
 10
156.8351444975
 20
204.7137197246
 30
0.0
 10
156.8351444975
 20
204.4986711707
 30
0.0
 10
156.9785102001
 20
204.3600842192
 30
0.0
 10
157.2652416053
 20
204.3003485098
 30
0.0
  0
SPLINE
  5
491
100
AcDbEntity
  8
0
100
AcDbSpline
 62
7
  6
CONTINUOUS
 70
0
 71
3
 72
8
 73
4
 74
0
 42
0.0000001
 43
0.0000001
 44
0.0000000001
 40
0.0
 40
0.0
 40
0.0
 40
0.0
 40
1.0
 40
1.0
 40
1.0
 40
1.0
 10
157.2174530378
 20
205.6336496498
 30
0.0
 10
157.5663087359
 20
205.6336496498
 30
0.0
 10
157.8100308529
 20
205.4209904715
 30
0.0
 10
157.9486172763
 20
204.9980614903
 30
0.0
  0
SPLINE
  5
492
100
AcDbEntity
  8
0
100
AcDbSpline
 62
7
  6
CONTINUOUS
 70
0
 71
3
 72
8
 73
4
 74
0
 42
0.0000001
 43
0.0000001
 44
0.0000000001
 40
0.0
 40
0.0
 40
0.0
 40
0.0
 40
1.0
 40
1.0
 40
1.0
 40
1.0
 10
159.2819189444
 20
205.6336496498
 30
0.0
 10
159.3488225165
 20
205.6288706347
 30
0.0
 10
159.4396214285
 20
205.576303316
 30
0.0
 10
159.5519244567
 20
205.4759471657
 30
0.0
  0
SPLINE
  5
493
100
AcDbEntity
  8
0
100
AcDbSpline
 62
7
  6
CONTINUOUS
 70
0
 71
3
 72
8
 73
4
 74
0
 42
0.0000001
 43
0.0000001
 44
0.0000000001
 40
0.0
 40
0.0
 40
0.0
 40
0.0
 40
1.0
 40
1.0
 40
1.0
 40
1.0
 10
158.7108452454
 20
205.15815335
 30
0.0
 10
158.7968648782
 20
205.3588653865
 30
0.0
 10
158.9235046878
 20
205.5117885914
 30
0.0
 10
159.0907646742
 20
205.6169234928
 30
0.0
  0
SPLINE
  5
494
100
AcDbEntity
  8
0
100
AcDbSpline
 62
7
  6
CONTINUOUS
 70
0
 71
3
 72
8
 73
4
 74
0
 42
0.0000001
 43
0.0000001
 44
0.0000000001
 40
0.0
 40
0.0
 40
0.0
 40
0.0
 40
1.0
 40
1.0
 40
1.0
 40
1.0
 10
159.1074905673
 20
205.1724898674
 30
0.0
 10
158.9450088039
 20
205.1724898674
 30
0.0
 10
158.8112016597
 20
204.9908933636
 30
0.0
 10
158.7108452454
 20
204.632479107
 30
0.0
  0
SPLINE
  5
495
100
AcDbEntity
  8
0
100
AcDbSpline
 62
7
  6
CONTINUOUS
 70
0
 71
3
 72
8
 73
4
 74
0
 42
0.0000001
 43
0.0000001
 44
0.0000000001
 40
0.0
 40
0.0
 40
0.0
 40
0.0
 40
1.0
 40
1.0
 40
1.0
 40
1.0
 10
159.408558754
 20
205.0625762149
 30
0.0
 10
159.2890873352
 20
205.1342590662
 30
0.0
 10
159.1887309209
 20
205.1724898674
 30
0.0
 10
159.1074905673
 20
205.1724898674
 30
0.0
  0
SPLINE
  5
496
100
AcDbEntity
  8
0
100
AcDbSpline
 62
7
  6
CONTINUOUS
 70
0
 71
3
 72
8
 73
4
 74
0
 42
0.0000001
 43
0.0000001
 44
0.0000000001
 40
0.0
 40
0.0
 40
0.0
 40
0.0
 40
1.0
 40
1.0
 40
1.0
 40
1.0
 10
159.5519244567
 20
205.4759471657
 30
0.0
 10
159.4754623261
 20
205.1987735268
 30
0.0
 10
159.4276737586
 20
205.0625762149
 30
0.0
 10
159.408558754
 20
205.0625762149
 30
0.0
  0
SPLINE
  5
497
100
AcDbEntity
  8
0
100
AcDbSpline
 62
7
  6
CONTINUOUS
 70
0
 71
3
 72
8
 73
4
 74
0
 42
0.0000001
 43
0.0000001
 44
0.0000000001
 40
0.0
 40
0.0
 40
0.0
 40
0.0
 40
1.0
 40
1.0
 40
1.0
 40
1.0
 10
157.7264013878
 20
203.5213949116
 30
0.0
 10
157.7550738946
 20
203.5954672705
 30
0.0
 10
157.8148101321
 20
203.6336980718
 30
0.0
 10
157.9008287087
 20
203.6336980718
 30
0.0
  0
SPLINE
  5
498
100
AcDbEntity
  8
0
100
AcDbSpline
 62
7
  6
CONTINUOUS
 70
0
 71
3
 72
8
 73
4
 74
0
 42
0.0000001
 43
0.0000001
 44
0.0000000001
 40
0.0
 40
0.0
 40
0.0
 40
0.0
 40
1.0
 40
1.0
 40
1.0
 40
1.0
 10
157.9318913832
 20
203.5381209367
 30
0.0
 10
157.8936613742
 20
203.4736063441
 30
0.0
 10
157.8458728066
 20
203.4425438016
 30
0.0
 10
157.7885256806
 20
203.4425438016
 30
0.0
  0
SPLINE
  5
499
100
AcDbEntity
  8
0
100
AcDbSpline
 62
7
  6
CONTINUOUS
 70
0
 71
3
 72
8
 73
4
 74
0
 42
0.0000001
 43
0.0000001
 44
0.0000000001
 40
0.0
 40
0.0
 40
0.0
 40
0.0
 40
1.0
 40
1.0
 40
1.0
 40
1.0
 10
155.9319399372
 20
202.3625222477
 30
0.0
 10
155.7503431693
 20
202.3816376483
 30
0.0
 10
155.6619344249
 20
202.4700464917
 30
0.0
 10
155.6619344249
 20
202.6325276609
 30
0.0
  0
SPLINE
  5
49A
100
AcDbEntity
  8
0
100
AcDbSpline
 62
7
  6
CONTINUOUS
 70
0
 71
3
 72
8
 73
4
 74
0
 42
0.0000001
 43
0.0000001
 44
0.0000000001
 40
0.0
 40
0.0
 40
0.0
 40
0.0
 40
1.0
 40
1.0
 40
1.0
 40
1.0
 10
156.1541568819
 20
202.4413733578
 30
0.0
 10
156.1541568819
 20
202.4079213737
 30
0.0
 10
156.080084919
 20
202.3816376483
 30
0.0
 10
155.9319399372
 20
202.3625222477
 30
0.0
  0
SPLINE
  5
49B
100
AcDbEntity
  8
0
100
AcDbSpline
 62
7
  6
CONTINUOUS
 70
0
 71
3
 72
8
 73
4
 74
0
 42
0.0000001
 43
0.0000001
 44
0.0000000001
 40
0.0
 40
0.0
 40
0.0
 40
0.0
 40
1.0
 40
1.0
 40
1.0
 40
1.0
 10
153.4541033438
 20
203.2824520739
 30
0.0
 10
153.6595938674
 20
203.2824520739
 30
0.0
 10
153.7910129562
 20
203.1820961877
 30
0.0
 10
153.8507481375
 20
202.9813841512
 30
0.0
  0
SPLINE
  5
49C
100
AcDbEntity
  8
0
100
AcDbSpline
 62
7
  6
CONTINUOUS
 70
0
 71
3
 72
8
 73
4
 74
0
 42
0.0000001
 43
0.0000001
 44
0.0000000001
 40
0.0
 40
0.0
 40
0.0
 40
0.0
 40
1.0
 40
1.0
 40
1.0
 40
1.0
 10
153.0574580219
 20
202.8858070161
 30
0.0
 10
153.1100253406
 20
203.1486441376
 30
0.0
 10
153.2414439014
 20
203.2824520739
 30
0.0
 10
153.4541033438
 20
203.2824520739
 30
0.0
  0
SPLINE
  5
49D
100
AcDbEntity
  8
0
100
AcDbSpline
 62
7
  6
CONTINUOUS
 70
0
 71
3
 72
8
 73
4
 74
0
 42
0.0000001
 43
0.0000001
 44
0.0000000001
 40
0.0
 40
0.0
 40
0.0
 40
0.0
 40
1.0
 40
1.0
 40
1.0
 40
1.0
 10
153.4541033438
 20
202.3625222477
 30
0.0
 10
153.2294967595
 20
202.3625222477
 30
0.0
 10
153.0980781987
 20
202.5202245008
 30
0.0
 10
153.0574580219
 20
202.8380184486
 30
0.0
  0
SPLINE
  5
49E
100
AcDbEntity
  8
0
100
AcDbSpline
 62
7
  6
CONTINUOUS
 70
0
 71
3
 72
8
 73
4
 74
0
 42
0.0000001
 43
0.0000001
 44
0.0000000001
 40
0.0
 40
0.0
 40
0.0
 40
0.0
 40
1.0
 40
1.0
 40
1.0
 40
1.0
 10
153.8507481375
 20
202.4891619253
 30
0.0
 10
153.7838445655
 20
202.4031425235
 30
0.0
 10
153.6763197604
 20
202.3625222477
 30
0.0
 10
153.5329540578
 20
202.3625222477
 30
0.0
  0
SPLINE
  5
49F
100
AcDbEntity
  8
0
100
AcDbSpline
 62
7
  6
CONTINUOUS
 70
0
 71
3
 72
8
 73
4
 74
0
 42
0.0000001
 43
0.0000001
 44
0.0000000001
 40
0.0
 40
0.0
 40
0.0
 40
0.0
 40
1.0
 40
1.0
 40
1.0
 40
1.0
 10
153.5162281647
 20
202.5369505259
 30
0.0
 10
153.6476472536
 20
202.5369505259
 30
0.0
 10
153.7599502817
 20
202.5632341852
 30
0.0
 10
153.8507481375
 20
202.6158016359
 30
0.0
  0
SPLINE
  5
4A0
100
AcDbEntity
  8
0
100
AcDbSpline
 62
7
  6
CONTINUOUS
 70
0
 71
3
 72
8
 73
4
 74
0
 42
0.0000001
 43
0.0000001
 44
0.0000000001
 40
0.0
 40
0.0
 40
0.0
 40
0.0
 40
1.0
 40
1.0
 40
1.0
 40
1.0
 10
153.2462226525
 20
202.790229881
 30
0.0
 10
153.2462226525
 20
202.6444748028
 30
0.0
 10
153.3346319249
 20
202.5608448096
 30
0.0
 10
153.5162281647
 20
202.5369505259
 30
0.0
  0
SPLINE
  5
4A1
100
AcDbEntity
  8
0
100
AcDbSpline
 62
7
  6
CONTINUOUS
 70
0
 71
3
 72
8
 73
4
 74
0
 42
0.0000001
 43
0.0000001
 44
0.0000000001
 40
0.0
 40
0.0
 40
0.0
 40
0.0
 40
1.0
 40
1.0
 40
1.0
 40
1.0
 10
154.8041303769
 20
203.2824520739
 30
0.0
 10
154.9525822919
 20
203.2824520739
 30
0.0
 10
155.0263473216
 20
203.2513895314
 30
0.0
 10
155.0263473216
 20
203.2203269889
 30
0.0
  0
SPLINE
  5
4A2
100
AcDbEntity
  8
0
100
AcDbSpline
 62
7
  6
CONTINUOUS
 70
0
 71
3
 72
8
 73
4
 74
0
 42
0.0000001
 43
0.0000001
 44
0.0000000001
 40
0.0
 40
0.0
 40
0.0
 40
0.0
 40
1.0
 40
1.0
 40
1.0
 40
1.0
 10
154.3262447014
 20
202.8380184486
 30
0.0
 10
154.3262447014
 20
203.067403586
 30
0.0
 10
154.4481052318
 20
203.2155481058
 30
0.0
 10
154.6918273488
 20
203.2824520739
 30
0.0
  0
SPLINE
  5
4A3
100
AcDbEntity
  8
0
100
AcDbSpline
 62
7
  6
CONTINUOUS
 70
0
 71
3
 72
8
 73
4
 74
0
 42
0.0000001
 43
0.0000001
 44
0.0000000001
 40
0.0
 40
0.0
 40
0.0
 40
0.0
 40
1.0
 40
1.0
 40
1.0
 40
1.0
 10
154.8041303769
 20
202.3625222477
 30
0.0
 10
154.4839471856
 20
202.400753082
 30
0.0
 10
154.3262447014
 20
202.5441187846
 30
0.0
 10
154.3262447014
 20
202.790229881
 30
0.0
  0
SPLINE
  5
4A4
100
AcDbEntity
  8
0
100
AcDbSpline
 62
7
  6
CONTINUOUS
 70
0
 71
3
 72
8
 73
4
 74
0
 42
0.0000001
 43
0.0000001
 44
0.0000000001
 40
0.0
 40
0.0
 40
0.0
 40
0.0
 40
1.0
 40
1.0
 40
1.0
 40
1.0
 10
155.0406830469
 20
202.4270368073
 30
0.0
 10
155.0406830469
 20
202.3840270899
 30
0.0
 10
154.961832861
 20
202.3625222477
 30
0.0
 10
154.8041303769
 20
202.3625222477
 30
0.0
  0
SPLINE
  5
4A5
100
AcDbEntity
  8
0
100
AcDbSpline
 62
7
  6
CONTINUOUS
 70
0
 71
3
 72
8
 73
4
 74
0
 42
0.0000001
 43
0.0000001
 44
0.0000000001
 40
0.0
 40
0.0
 40
0.0
 40
0.0
 40
1.0
 40
1.0
 40
1.0
 40
1.0
 10
154.5006730786
 20
202.8236818651
 30
0.0
 10
154.5006730786
 20
202.6325276609
 30
0.0
 10
154.622533609
 20
202.5369505259
 30
0.0
 10
154.8662557259
 20
202.5369505259
 30
0.0
  0
SPLINE
  5
4A6
100
AcDbEntity
  8
0
100
AcDbSpline
 62
7
  6
CONTINUOUS
 70
0
 71
3
 72
8
 73
4
 74
0
 42
0.0000001
 43
0.0000001
 44
0.0000000001
 40
0.0
 40
0.0
 40
0.0
 40
0.0
 40
1.0
 40
1.0
 40
1.0
 40
1.0
 10
154.7874044839
 20
203.1247498538
 30
0.0
 10
154.5962502137
 20
203.1247498538
 30
0.0
 10
154.5006730786
 20
203.0243938356
 30
0.0
 10
154.5006730786
 20
202.8236818651
 30
0.0
  0
SPLINE
  5
4A7
100
AcDbEntity
  8
0
100
AcDbSpline
 62
7
  6
CONTINUOUS
 70
0
 71
3
 72
8
 73
4
 74
0
 42
0.0000001
 43
0.0000001
 44
0.0000000001
 40
0.0
 40
0.0
 40
0.0
 40
0.0
 40
1.0
 40
1.0
 40
1.0
 40
1.0
 10
154.9928944793
 20
203.0458987438
 30
0.0
 10
154.9522743025
 20
203.0984661945
 30
0.0
 10
154.8829816189
 20
203.1247498538
 30
0.0
 10
154.7874044839
 20
203.1247498538
 30
0.0
  0
SPLINE
  5
4A8
100
AcDbEntity
  8
0
100
AcDbSpline
 62
7
  6
CONTINUOUS
 70
0
 71
3
 72
8
 73
4
 74
0
 42
0.0000001
 43
0.0000001
 44
0.0000000001
 40
0.0
 40
0.0
 40
0.0
 40
0.0
 40
1.0
 40
1.0
 40
1.0
 40
1.0
 10
157.0430246606
 20
203.2824520739
 30
0.0
 10
157.1386017957
 20
203.2824520739
 30
0.0
 10
157.2126737586
 20
203.2513895314
 30
0.0
 10
157.2652416053
 20
203.1892644464
 30
0.0
  0
SPLINE
  5
4A9
100
AcDbEntity
  8
0
100
AcDbSpline
 62
7
  6
CONTINUOUS
 70
0
 71
3
 72
8
 73
4
 74
0
 42
0.0000001
 43
0.0000001
 44
0.0000000001
 40
0.0
 40
0.0
 40
0.0
 40
0.0
 40
1.0
 40
1.0
 40
1.0
 40
1.0
 10
156.7873559299
 20
203.0602352612
 30
0.0
 10
156.882933065
 20
203.208379847
 30
0.0
 10
156.9665625301
 20
203.2824520739
 30
0.0
 10
157.0430246606
 20
203.2824520739
 30
0.0
  0
SPLINE
  5
4AA
100
AcDbEntity
  8
0
100
AcDbSpline
 62
7
  6
CONTINUOUS
 70
0
 71
3
 72
8
 73
4
 74
0
 42
0.0000001
 43
0.0000001
 44
0.0000000001
 40
0.0
 40
0.0
 40
0.0
 40
0.0
 40
1.0
 40
1.0
 40
1.0
 40
1.0
 10
157.0095728746
 20
203.1247498538
 30
0.0
 10
156.8614278927
 20
203.1247498538
 30
0.0
 10
156.7873559299
 20
203.0172255769
 30
0.0
 10
156.7873559299
 20
202.8069559061
 30
0.0
  0
SPLINE
  5
4AB
100
AcDbEntity
  8
0
100
AcDbSpline
 62
7
  6
CONTINUOUS
 70
0
 71
3
 72
8
 73
4
 74
0
 42
0.0000001
 43
0.0000001
 44
0.0000000001
 40
0.0
 40
0.0
 40
0.0
 40
0.0
 40
1.0
 40
1.0
 40
1.0
 40
1.0
 10
157.1696644703
 20
203.0458987438
 30
0.0
 10
157.1003707305
 20
203.0984661945
 30
0.0
 10
157.0478028837
 20
203.1247498538
 30
0.0
 10
157.0095728746
 20
203.1247498538
 30
0.0
  0
SPLINE
  5
4AC
100
AcDbEntity
  8
0
100
AcDbSpline
 62
7
  6
CONTINUOUS
 70
0
 71
3
 72
8
 73
4
 74
0
 42
0.0000001
 43
0.0000001
 44
0.0000000001
 40
0.0
 40
0.0
 40
0.0
 40
0.0
 40
1.0
 40
1.0
 40
1.0
 40
1.0
 10
158.8685477296
 20
203.2824520739
 30
0.0
 10
159.0169996446
 20
203.2824520739
 30
0.0
 10
159.0907646742
 20
203.2513895314
 30
0.0
 10
159.0907646742
 20
203.2203269889
 30
0.0
  0
SPLINE
  5
4AD
100
AcDbEntity
  8
0
100
AcDbSpline
 62
7
  6
CONTINUOUS
 70
0
 71
3
 72
8
 73
4
 74
0
 42
0.0000001
 43
0.0000001
 44
0.0000000001
 40
0.0
 40
0.0
 40
0.0
 40
0.0
 40
1.0
 40
1.0
 40
1.0
 40
1.0
 10
158.3930511656
 20
202.8380184486
 30
0.0
 10
158.3930511656
 20
203.067403586
 30
0.0
 10
158.514911696
 20
203.2155481058
 30
0.0
 10
158.758633813
 20
203.2824520739
 30
0.0
  0
SPLINE
  5
4AE
100
AcDbEntity
  8
0
100
AcDbSpline
 62
7
  6
CONTINUOUS
 70
0
 71
3
 72
8
 73
4
 74
0
 42
0.0000001
 43
0.0000001
 44
0.0000000001
 40
0.0
 40
0.0
 40
0.0
 40
0.0
 40
1.0
 40
1.0
 40
1.0
 40
1.0
 10
158.837485055
 20
202.3625222477
 30
0.0
 10
158.5411961475
 20
202.400753082
 30
0.0
 10
158.3930511656
 20
202.5441187846
 30
0.0
 10
158.3930511656
 20
202.790229881
 30
0.0
  0
SPLINE
  5
4AF
100
AcDbEntity
  8
0
100
AcDbSpline
 62
7
  6
CONTINUOUS
 70
0
 71
3
 72
8
 73
4
 74
0
 42
0.0000001
 43
0.0000001
 44
0.0000000001
 40
0.0
 40
0.0
 40
0.0
 40
0.0
 40
1.0
 40
1.0
 40
1.0
 40
1.0
 10
159.1074905673
 20
202.4270368073
 30
0.0
 10
159.1074905673
 20
202.3840270899
 30
0.0
 10
159.0262502137
 20
202.3625222477
 30
0.0
 10
158.837485055
 20
202.3625222477
 30
0.0
  0
SPLINE
  5
4B0
100
AcDbEntity
  8
0
100
AcDbSpline
 62
7
  6
CONTINUOUS
 70
0
 71
3
 72
8
 73
4
 74
0
 42
0.0000001
 43
0.0000001
 44
0.0000000001
 40
0.0
 40
0.0
 40
0.0
 40
0.0
 40
1.0
 40
1.0
 40
1.0
 40
1.0
 10
158.5674795428
 20
202.8236818651
 30
0.0
 10
158.5674795428
 20
202.6325276609
 30
0.0
 10
158.6726141801
 20
202.5369505259
 30
0.0
 10
158.8852736226
 20
202.5369505259
 30
0.0
  0
SPLINE
  5
4B1
100
AcDbEntity
  8
0
100
AcDbSpline
 62
7
  6
CONTINUOUS
 70
0
 71
3
 72
8
 73
4
 74
0
 42
0.0000001
 43
0.0000001
 44
0.0000000001
 40
0.0
 40
0.0
 40
0.0
 40
0.0
 40
1.0
 40
1.0
 40
1.0
 40
1.0
 10
158.837485055
 20
203.1247498538
 30
0.0
 10
158.6797825709
 20
203.1247498538
 30
0.0
 10
158.5913738266
 20
203.0291727187
 30
0.0
 10
158.5674795428
 20
202.8236818651
 30
0.0
  0
SPLINE
  5
4B2
100
AcDbEntity
  8
0
100
AcDbSpline
 62
7
  6
CONTINUOUS
 70
0
 71
3
 72
8
 73
4
 74
0
 42
0.0000001
 43
0.0000001
 44
0.0000000001
 40
0.0
 40
0.0
 40
0.0
 40
0.0
 40
1.0
 40
1.0
 40
1.0
 40
1.0
 10
159.0907646742
 20
203.0769612863
 30
0.0
 10
159.023860046
 20
203.1080238288
 30
0.0
 10
158.9497880831
 20
203.1247498538
 30
0.0
 10
158.837485055
 20
203.1247498538
 30
0.0
  0
SPLINE
  5
4B3
100
AcDbEntity
  8
0
100
AcDbSpline
 62
7
  6
CONTINUOUS
 70
0
 71
3
 72
8
 73
4
 74
0
 42
0.0000001
 43
0.0000001
 44
0.0000000001
 40
0.0
 40
0.0
 40
0.0
 40
0.0
 40
1.0
 40
1.0
 40
1.0
 40
1.0
 10
150.0348311248
 20
204.2573389574
 30
0.0
 10
150.3550148442
 20
204.2573389574
 30
0.0
 10
150.5772312608
 20
204.1187520059
 30
0.0
 10
150.7014819589
 20
203.8439677425
 30
0.0
  0
SPLINE
  5
4B4
100
AcDbEntity
  8
0
100
AcDbSpline
 62
7
  6
CONTINUOUS
 70
0
 71
3
 72
8
 73
4
 74
0
 42
0.0000001
 43
0.0000001
 44
0.0000000001
 40
0.0
 40
0.0
 40
0.0
 40
0.0
 40
1.0
 40
1.0
 40
1.0
 40
1.0
 10
148.7493188164
 20
203.5094477697
 30
0.0
 10
149.1268483415
 20
204.0064488458
 30
0.0
 10
149.5545563379
 20
204.2573389574
 30
0.0
 10
150.0348311248
 20
204.2573389574
 30
0.0
  0
SPLINE
  5
4B5
100
AcDbEntity
  8
0
100
AcDbSpline
 62
7
  6
CONTINUOUS
 70
0
 71
3
 72
8
 73
4
 74
0
 42
0.0000001
 43
0.0000001
 44
0.0000000001
 40
0.0
 40
0.0
 40
0.0
 40
0.0
 40
1.0
 40
1.0
 40
1.0
 40
1.0
 10
148.5271021357
 20
203.129528737
 30
0.0
 10
148.5318808869
 20
203.1940433296
 30
0.0
 10
148.5629435614
 20
203.2561684146
 30
0.0
 10
148.6226792708
 20
203.3182934996
 30
0.0
  0
SPLINE
  5
4B6
100
AcDbEntity
  8
0
100
AcDbSpline
 62
7
  6
CONTINUOUS
 70
0
 71
3
 72
8
 73
4
 74
0
 42
0.0000001
 43
0.0000001
 44
0.0000000001
 40
0.0
 40
0.0
 40
0.0
 40
0.0
 40
1.0
 40
1.0
 40
1.0
 40
1.0
 10
148.4351291395
 20
202.6993636503
 30
0.0
 10
148.4410827669
 20
202.8571339152
 30
0.0
 10
148.4601980355
 20
202.9383744668
 30
0.0
 10
148.4936500856
 20
202.9383744668
 30
0.0
  0
SPLINE
  5
4B7
100
AcDbEntity
  8
0
100
AcDbSpline
 62
7
  6
CONTINUOUS
 70
0
 71
3
 72
8
 73
4
 74
0
 42
0.0000001
 43
0.0000001
 44
0.0000000001
 40
0.0
 40
0.0
 40
0.0
 40
0.0
 40
1.0
 40
1.0
 40
1.0
 40
1.0
 10
148.4793135682
 20
202.3983636734
 30
0.0
 10
148.4458615181
 20
202.5034985088
 30
0.0
 10
148.4315250006
 20
202.603854494
 30
0.0
 10
148.4351291395
 20
202.6993636503
 30
0.0
  0
SPLINE
  5
4B8
100
AcDbEntity
  8
0
100
AcDbSpline
 62
7
  6
CONTINUOUS
 70
0
 71
3
 72
8
 73
4
 74
0
 42
0.0000001
 43
0.0000001
 44
0.0000000001
 40
0.0
 40
0.0
 40
0.0
 40
0.0
 40
1.0
 40
1.0
 40
1.0
 40
1.0
 10
149.1292379811
 20
201.9849925699
 30
0.0
 10
148.8329488096
 20
201.9849925699
 30
0.0
 10
148.6155108801
 20
202.1211899849
 30
0.0
 10
148.4793135682
 20
202.3983636734
 30
0.0
  0
SPLINE
  5
4B9
100
AcDbEntity
  8
0
100
AcDbSpline
 62
7
  6
CONTINUOUS
 70
0
 71
3
 72
8
 73
4
 74
0
 42
0.0000001
 43
0.0000001
 44
0.0000000001
 40
0.0
 40
0.0
 40
0.0
 40
0.0
 40
1.0
 40
1.0
 40
1.0
 40
1.0
 10
150.4482023397
 20
202.7782827391
 30
0.0
 10
150.2785527137
 20
202.4437627994
 30
0.0
 10
149.9392539898
 20
202.1952622613
 30
0.0
 10
149.4326952794
 20
202.0327811375
 30
0.0
  0
SPLINE
  5
4BA
100
AcDbEntity
  8
0
100
AcDbSpline
 62
7
  6
CONTINUOUS
 70
0
 71
3
 72
8
 73
4
 74
0
 42
0.0000001
 43
0.0000001
 44
0.0000000001
 40
0.0
 40
0.0
 40
0.0
 40
0.0
 40
1.0
 40
1.0
 40
1.0
 40
1.0
 10
150.1614709344
 20
202.9551004259
 30
0.0
 10
150.1423554018
 20
202.9551004259
 30
0.0
 10
150.1160720065
 20
202.8953647164
 30
0.0
 10
150.0826196924
 20
202.7782827391
 30
0.0
  0
SPLINE
  5
4BB
100
AcDbEntity
  8
0
100
AcDbSpline
 62
7
  6
CONTINUOUS
 70
0
 71
3
 72
8
 73
4
 74
0
 42
0.0000001
 43
0.0000001
 44
0.0000000001
 40
0.0
 40
0.0
 40
0.0
 40
0.0
 40
1.0
 40
1.0
 40
1.0
 40
1.0
 10
150.6536933914
 20
203.1128027119
 30
0.0
 10
150.6154623261
 20
203.0076678766
 30
0.0
 10
150.5843996516
 20
202.9551004259
 30
0.0
 10
150.5581162563
 20
202.9551004259
 30
0.0
  0
SPLINE
  5
4BC
100
AcDbEntity
  8
0
100
AcDbSpline
 62
7
  6
CONTINUOUS
 70
0
 71
3
 72
8
 73
4
 74
0
 42
0.0000001
 43
0.0000001
 44
0.0000000001
 40
0.0
 40
0.0
 40
0.0
 40
0.0
 40
1.0
 40
1.0
 40
1.0
 40
1.0
 10
150.2570480695
 20
203.3350195246
 30
0.0
 10
150.2331537858
 20
203.3350195246
 30
0.0
 10
150.2116491416
 20
203.270504932
 30
0.0
 10
150.1949232486
 20
203.1438652544
 30
0.0
  0
SPLINE
  5
4BD
100
AcDbEntity
  8
0
100
AcDbSpline
 62
7
  6
CONTINUOUS
 70
0
 71
3
 72
8
 73
4
 74
0
 42
0.0000001
 43
0.0000001
 44
0.0000000001
 40
0.0
 40
0.0
 40
0.0
 40
0.0
 40
1.0
 40
1.0
 40
1.0
 40
1.0
 10
150.7492705265
 20
203.5572363373
 30
0.0
 10
150.7492705265
 20
203.4090917515
 30
0.0
 10
150.7325441054
 20
203.3350195246
 30
0.0
 10
150.7014819589
 20
203.3350195246
 30
0.0
  0
SPLINE
  5
4BE
100
AcDbEntity
  8
0
100
AcDbSpline
 62
7
  6
CONTINUOUS
 70
0
 71
3
 72
8
 73
4
 74
0
 42
0.0000001
 43
0.0000001
 44
0.0000000001
 40
0.0
 40
0.0
 40
0.0
 40
0.0
 40
1.0
 40
1.0
 40
1.0
 40
1.0
 10
150.7014819589
 20
203.8439677425
 30
0.0
 10
150.7325441054
 20
203.7388329732
 30
0.0
 10
150.7492705265
 20
203.6432558381
 30
0.0
 10
150.7492705265
 20
203.5572363373
 30
0.0
  0
SPLINE
  5
4BF
100
AcDbEntity
  8
0
100
AcDbSpline
 62
7
  6
CONTINUOUS
 70
0
 71
3
 72
8
 73
4
 74
0
 42
0.0000001
 43
0.0000001
 44
0.0000000001
 40
0.0
 40
0.0
 40
0.0
 40
0.0
 40
1.0
 40
1.0
 40
1.0
 40
1.0
 10
154.9140442935
 20
204.8092968597
 30
0.0
 10
154.9570535818
 20
204.4795556381
 30
0.0
 10
155.0884716144
 20
204.3170746668
 30
0.0
 10
155.3106885591
 20
204.3170746668
 30
0.0
  0
SPLINE
  5
4C0
100
AcDbEntity
  8
0
100
AcDbSpline
 62
7
  6
CONTINUOUS
 70
0
 71
3
 72
8
 73
4
 74
0
 42
0.0000001
 43
0.0000001
 44
0.0000000001
 40
0.0
 40
0.0
 40
0.0
 40
0.0
 40
1.0
 40
1.0
 40
1.0
 40
1.0
 10
155.3106885591
 20
205.3015190526
 30
0.0
 10
155.0454623261
 20
205.2537304851
 30
0.0
 10
154.9140442935
 20
205.0912492498
 30
0.0
 10
154.9140442935
 20
204.8092968597
 30
0.0
  0
SPLINE
  5
4C1
100
AcDbEntity
  8
0
100
AcDbSpline
 62
7
  6
CONTINUOUS
 70
0
 71
3
 72
8
 73
4
 74
0
 42
0.0000001
 43
0.0000001
 44
0.0000000001
 40
0.0
 40
0.0
 40
0.0
 40
0.0
 40
1.0
 40
1.0
 40
1.0
 40
1.0
 10
155.6141458574
 20
205.220278435
 30
0.0
 10
155.5066221085
 20
205.2632882514
 30
0.0
 10
155.4062656942
 20
205.2895719107
 30
0.0
 10
155.3106885591
 20
205.3015190526
 30
0.0
  0
SPLINE
  5
4C2
100
AcDbEntity
  8
0
100
AcDbSpline
 62
7
  6
CONTINUOUS
 70
0
 71
3
 72
8
 73
4
 74
0
 42
0.0000001
 43
0.0000001
 44
0.0000000001
 40
0.0
 40
0.0
 40
0.0
 40
0.0
 40
1.0
 40
1.0
 40
1.0
 40
1.0
 10
155.3106885591
 20
204.3170746668
 30
0.0
 10
155.413434085
 20
204.3170746668
 30
0.0
 10
155.5137904993
 20
204.3624735948
 30
0.0
 10
155.6141458574
 20
204.4580507299
 30
0.0
  0
SPLINE
  5
4C3
100
AcDbEntity
  8
0
100
AcDbSpline
 62
7
  6
CONTINUOUS
 70
0
 71
3
 72
8
 73
4
 74
0
 42
0.0000001
 43
0.0000001
 44
0.0000000001
 40
0.0
 40
0.0
 40
0.0
 40
0.0
 40
1.0
 40
1.0
 40
1.0
 40
1.0
 10
142.1754886866
 20
195.4250738491
 30
0.0
 10
142.2626464708
 20
195.0533648335
 30
0.0
 10
142.4015171623
 20
194.6890388269
 30
0.0
 10
142.5917688927
 20
194.3580277234
 30
0.0
  0
SPLINE
  5
4C4
100
AcDbEntity
  8
0
100
AcDbSpline
 62
7
  6
CONTINUOUS
 70
0
 71
3
 72
9
 73
5
 74
0
 42
0.0000001
 43
0.0000001
 44
0.0000000001
 40
0.0
 40
0.0
 40
0.0
 40
0.0
 40
0.4999631164
 40
1.0
 40
1.0
 40
1.0
 40
1.0
 10
142.5917688927
 20
194.3580277234
 30
0.0
 10
142.6705809342
 20
194.2209059177
 30
0.0
 10
142.8662061932
 20
193.9668392792
 30
0.0
 10
143.1213661426
 20
193.7731915459
 30
0.0
 10
143.2584129353
 20
193.6942023952
 30
0.0
  0
SPLINE
  5
4C5
100
AcDbEntity
  8
0
100
AcDbSpline
 62
7
  6
CONTINUOUS
 70
0
 71
3
 72
9
 73
5
 74
0
 42
0.0000001
 43
0.0000001
 44
0.0000000001
 40
0.0
 40
0.0
 40
0.0
 40
0.0
 40
0.5000369728
 40
1.0
 40
1.0
 40
1.0
 40
1.0
 10
165.0683819034
 20
193.6942036004
 30
0.0
 10
165.2054293107
 20
193.7731931047
 30
0.0
 10
165.4605897988
 20
193.9668423975
 30
0.0
 10
165.6562159009
 20
194.2209101537
 30
0.0
 10
165.7350277871
 20
194.3580328011
 30
0.0
  0
SPLINE
  5
4C6
100
AcDbEntity
  8
0
100
AcDbSpline
 62
7
  6
CONTINUOUS
 70
0
 71
3
 72
8
 73
4
 74
0
 42
0.0000001
 43
0.0000001
 44
0.0000000001
 40
0.0
 40
0.0
 40
0.0
 40
0.0
 40
1.0
 40
1.0
 40
1.0
 40
1.0
 10
165.7350277871
 20
194.3580328011
 30
0.0
 10
165.9252779657
 20
194.6890424966
 30
0.0
 10
166.0641471079
 20
195.0533668188
 30
0.0
 10
166.1513044368
 20
195.425073893
 30
0.0
  0
SPLINE
  5
4C7
100
AcDbEntity
  8
0
100
AcDbSpline
 62
7
  6
CONTINUOUS
 70
0
 71
3
 72
8
 73
4
 74
0
 42
0.0000001
 43
0.0000001
 44
0.0000000001
 40
0.0
 40
0.0
 40
0.0
 40
0.0
 40
1.0
 40
1.0
 40
1.0
 40
1.0
 10
149.2558777907
 20
202.4461522409
 30
0.0
 10
149.5187149122
 20
202.4461522409
 30
0.0
 10
149.7146479335
 20
202.5775707687
 30
0.0
 10
149.8436768547
 20
202.8427973317
 30
0.0
  0
SPLINE
  5
4C8
100
AcDbEntity
  8
0
100
AcDbSpline
 62
7
  6
CONTINUOUS
 70
0
 71
3
 72
8
 73
4
 74
0
 42
0.0000001
 43
0.0000001
 44
0.0000000001
 40
0.0
 40
0.0
 40
0.0
 40
0.0
 40
1.0
 40
1.0
 40
1.0
 40
1.0
 10
149.8436768547
 20
202.8427973317
 30
0.0
 10
149.9416436294
 20
203.2872309571
 30
0.0
 10
150.0109368411
 20
203.5094477697
 30
0.0
 10
150.051557546
 20
203.5094477697
 30
0.0
  0
SPLINE
  5
4C9
100
AcDbEntity
  8
0
100
AcDbSpline
 62
7
  6
CONTINUOUS
 70
0
 71
3
 72
8
 73
4
 74
0
 42
0.0000001
 43
0.0000001
 44
0.0000000001
 40
0.0
 40
0.0
 40
0.0
 40
0.0
 40
1.0
 40
1.0
 40
1.0
 40
1.0
 10
150.051557546
 20
203.8105158245
 30
0.0
 10
149.6381863311
 20
203.8105158245
 30
0.0
 10
149.3944647422
 20
203.6313086962
 30
0.0
 10
149.323161357
 20
203.2723332925
 30
0.0
  0
SPLINE
  5
4CA
100
AcDbEntity
  8
0
100
AcDbSpline
 62
7
  6
CONTINUOUS
 70
0
 71
3
 72
8
 73
4
 74
0
 42
0.0000001
 43
0.0000001
 44
0.0000000001
 40
0.0
 40
0.0
 40
0.0
 40
0.0
 40
1.0
 40
1.0
 40
1.0
 40
1.0
 10
149.323161357
 20
203.2723332925
 30
0.0
 10
149.2558777907
 20
202.9335955837
 30
0.0
 10
149.2033104721
 20
202.7639461557
 30
0.0
 10
149.1626897672
 20
202.7639461557
 30
0.0
  0
SPLINE
  5
4CB
100
AcDbEntity
  8
0
100
AcDbSpline
 62
7
  6
CONTINUOUS
 70
0
 71
3
 72
8
 73
4
 74
0
 42
0.0000001
 43
0.0000001
 44
0.0000000001
 40
0.0
 40
0.0
 40
0.0
 40
0.0
 40
1.0
 40
1.0
 40
1.0
 40
1.0
 10
153.6906565419
 20
202.9192590002
 30
0.0
 10
153.6643731466
 20
203.067403586
 30
0.0
 10
153.5903001276
 20
203.1414758789
 30
0.0
 10
153.4684395972
 20
203.1414758789
 30
0.0
  0
SPLINE
  5
4CC
100
AcDbEntity
  8
0
100
AcDbSpline
 62
7
  6
CONTINUOUS
 70
0
 71
3
 72
8
 73
4
 74
0
 42
0.0000001
 43
0.0000001
 44
0.0000000001
 40
0.0
 40
0.0
 40
0.0
 40
0.0
 40
1.0
 40
1.0
 40
1.0
 40
1.0
 10
153.4684395972
 20
203.1414758789
 30
0.0
 10
153.3202951434
 20
203.1414758789
 30
0.0
 10
153.2462226525
 20
203.067403586
 30
0.0
 10
153.2462226525
 20
202.9192590002
 30
0.0
  0
SPLINE
  5
4CD
100
AcDbEntity
  8
0
100
AcDbSpline
 62
7
  6
CONTINUOUS
 70
0
 71
3
 72
8
 73
4
 74
0
 42
0.0000001
 43
0.0000001
 44
0.0000000001
 40
0.0
 40
0.0
 40
0.0
 40
0.0
 40
1.0
 40
1.0
 40
1.0
 40
1.0
 10
157.5185201684
 20
204.9837249728
 30
0.0
 10
157.4850683823
 20
205.2274468257
 30
0.0
 10
157.3727653542
 20
205.3493076202
 30
0.0
 10
157.1863903633
 20
205.3493076202
 30
0.0
  0
SPLINE
  5
4CE
100
AcDbEntity
  8
0
100
AcDbSpline
 62
7
  6
CONTINUOUS
 70
0
 71
3
 72
8
 73
4
 74
0
 42
0.0000001
 43
0.0000001
 44
0.0000000001
 40
0.0
 40
0.0
 40
0.0
 40
0.0
 40
1.0
 40
1.0
 40
1.0
 40
1.0
 10
157.1863903633
 20
205.3493076202
 30
0.0
 10
156.9976252046
 20
205.3493076202
 30
0.0
 10
156.8805428973
 20
205.2274468257
 30
0.0
 10
156.8351444975
 20
204.9837249728
 30
0.0
  0
SPLINE
  5
4CF
100
AcDbEntity
  8
0
100
AcDbSpline
 62
7
  6
CONTINUOUS
 70
0
 71
3
 72
8
 73
4
 74
0
 42
0.0000001
 43
0.0000001
 44
0.0000000001
 40
0.0
 40
0.0
 40
0.0
 40
0.0
 40
1.0
 40
1.0
 40
1.0
 40
1.0
 10
153.0885206965
 20
204.9837249728
 30
0.0
 10
153.0359533778
 20
205.2274468257
 30
0.0
 10
152.9212607101
 20
205.3493076202
 30
0.0
 10
152.7396639422
 20
205.3493076202
 30
0.0
  0
SPLINE
  5
4D0
100
AcDbEntity
  8
0
100
AcDbSpline
 62
7
  6
CONTINUOUS
 70
0
 71
3
 72
8
 73
4
 74
0
 42
0.0000001
 43
0.0000001
 44
0.0000000001
 40
0.0
 40
0.0
 40
0.0
 40
0.0
 40
1.0
 40
1.0
 40
1.0
 40
1.0
 10
152.7396639422
 20
205.3493076202
 30
0.0
 10
152.5580677024
 20
205.3493076202
 30
0.0
 10
152.440985395
 20
205.2274468257
 30
0.0
 10
152.3884180763
 20
204.9837249728
 30
0.0
  0
SPLINE
  5
4D1
100
AcDbEntity
  8
0
100
AcDbSpline
 62
7
  6
CONTINUOUS
 70
0
 71
3
 72
9
 73
5
 74
0
 42
0.0000001
 43
0.0000001
 44
0.0000000001
 40
0.0
 40
0.0
 40
0.0
 40
0.0
 40
0.4070057701
 40
1.0
 40
1.0
 40
1.0
 40
1.0
 10
142.5917628137
 20
230.8706371724
 30
0.0
 10
142.6846117498
 20
230.9589806679
 30
0.0
 10
142.9346118715
 20
231.1524088797
 30
0.0
 10
143.2013162355
 20
231.3203394997
 30
0.0
 10
143.3631664743
 20
231.413462015
 30
0.0
  0
SPLINE
  5
4D2
100
AcDbEntity
  8
0
100
AcDbSpline
 62
7
  6
CONTINUOUS
 70
0
 71
3
 72
9
 73
5
 74
0
 42
0.0000001
 43
0.0000001
 44
0.0000000001
 40
0.0
 40
0.0
 40
0.0
 40
0.0
 40
0.2347090696
 40
1.0
 40
1.0
 40
1.0
 40
1.0
 10
143.3631664743
 20
231.413462015
 30
0.0
 10
143.4181412643
 20
231.445092433
 30
0.0
 10
143.6541019624
 20
231.5768110502
 30
0.0
 10
143.8949203788
 20
231.6998782784
 30
0.0
 10
144.0819281097
 20
231.7881700992
 30
0.0
  0
SPLINE
  5
4D3
100
AcDbEntity
  8
0
100
AcDbSpline
 62
7
  6
CONTINUOUS
 70
0
 71
3
 72
9
 73
5
 74
0
 42
0.0000001
 43
0.0000001
 44
0.0000000001
 40
0.0
 40
0.0
 40
0.0
 40
0.0
 40
0.2616872684
 40
1.0
 40
1.0
 40
1.0
 40
1.0
 10
164.2448337366
 20
231.7881855547
 30
0.0
 10
164.3082132915
 20
231.7582756147
 30
0.0
 10
164.548959028
 20
231.6409484337
 30
0.0
 10
164.7858279843
 20
231.5155430761
 30
0.0
 10
164.9573059857
 20
231.417096982
 30
0.0
  0
SPLINE
  5
4D4
100
AcDbEntity
  8
0
100
AcDbSpline
 62
7
  6
CONTINUOUS
 70
0
 71
3
 72
9
 73
5
 74
0
 42
0.0000001
 43
0.0000001
 44
0.0000000001
 40
0.0
 40
0.0
 40
0.0
 40
0.0
 40
0.5932800254
 40
1.0
 40
1.0
 40
1.0
 40
1.0
 10
164.9573059857
 20
231.417096982
 30
0.0
 10
165.1205704312
 20
231.3233663177
 30
0.0
 10
165.3894724501
 20
231.1543764859
 30
0.0
 10
165.6415451847
 20
230.9596213884
 30
0.0
 10
165.7350271906
 20
230.8706425012
 30
0.0
  0
SPLINE
  5
4D5
100
AcDbEntity
  8
0
100
AcDbSpline
 62
7
  6
CONTINUOUS
 70
0
 71
3
 72
9
 73
5
 74
0
 42
0.0000001
 43
0.0000001
 44
0.0000000001
 40
0.0
 40
0.0
 40
0.0
 40
0.0
 40
0.6339284968
 40
1.0
 40
1.0
 40
1.0
 40
1.0
 10
164.3143442089
 20
231.9205955875
 30
0.0
 10
164.4728018269
 20
231.8372793936
 30
0.0
 10
164.7225843045
 20
231.7058446782
 30
0.0
 10
164.9734751456
 20
231.5754657924
 30
0.0
 10
165.0683793377
 20
231.5344669129
 30
0.0
  0
SPLINE
  5
4D6
100
AcDbEntity
  8
0
100
AcDbSpline
 62
7
  6
CONTINUOUS
 70
0
 71
3
 72
9
 73
5
 74
0
 42
0.0000001
 43
0.0000001
 44
0.0000000001
 40
0.0
 40
0.0
 40
0.0
 40
0.0
 40
0.3660714483
 40
1.0
 40
1.0
 40
1.0
 40
1.0
 10
143.2584137666
 20
231.5344669094
 30
0.0
 10
143.3533179092
 20
231.5754657691
 30
0.0
 10
143.6042086621
 20
231.7058446004
 30
0.0
 10
143.853991048
 20
231.8372792693
 30
0.0
 10
144.0124486217
 20
231.9205954403
 30
0.0
  0
SPLINE
  5
4D7
100
AcDbEntity
  8
0
100
AcDbSpline
 62
7
  6
CONTINUOUS
 70
0
 71
3
 72
11
 73
7
 74
0
 42
0.0000001
 43
0.0000001
 44
0.0000000001
 40
0.0
 40
0.0
 40
0.0
 40
0.0
 40
0.1739571401
 40
0.4144926983
 40
0.697253182
 40
1.0
 40
1.0
 40
1.0
 40
1.0
 10
164.24484291
 20
231.7882333163
 30
0.0
 10
164.2099550943
 20
231.4107156927
 30
0.0
 10
164.1361099492
 20
230.510370334
 30
0.0
 10
163.9898877391
 20
228.9977067232
 30
0.0
 10
163.7708576124
 20
227.2105221287
 30
0.0
 10
163.5700952635
 20
225.949902523
 30
0.0
 10
163.4517613134
 20
225.3007870398
 30
0.0
  0
SPLINE
  5
4D8
100
AcDbEntity
  8
0
100
AcDbSpline
 62
7
  6
CONTINUOUS
 70
0
 71
3
 72
11
 73
7
 74
0
 42
0.0000001
 43
0.0000001
 44
0.0000000001
 40
0.0
 40
0.0
 40
0.0
 40
0.0
 40
0.3027308149
 40
0.585502749
 40
0.8260502521
 40
1.0
 40
1.0
 40
1.0
 40
1.0
 10
144.8750317976
 20
225.3007870398
 30
0.0
 10
144.7567041317
 20
225.9498681275
 30
0.0
 10
144.5559406487
 20
227.2104772831
 30
0.0
 10
144.3369078487
 20
228.9976776203
 30
0.0
 10
144.1906836786
 20
230.5103758579
 30
0.0
 10
144.1168344392
 20
231.4107307003
 30
0.0
 10
144.0819481437
 20
231.7882322346
 30
0.0
  0
SPLINE
  5
4D9
100
AcDbEntity
  8
0
100
AcDbSpline
 62
7
  6
CONTINUOUS
 70
0
 71
3
 72
11
 73
7
 74
0
 42
0.0000001
 43
0.0000001
 44
0.0000000001
 40
0.0
 40
0.0
 40
0.0
 40
0.0
 40
0.1691442811
 40
0.4093702733
 40
0.6932384325
 40
1.0
 40
1.0
 40
1.0
 40
1.0
 10
166.1513047734
 20
229.8035930589
 30
0.0
 10
166.1879500271
 20
229.5836541301
 30
0.0
 10
166.2908078024
 20
229.053810075
 30
0.0
 10
166.4672920175
 20
228.1572176239
 30
0.0
 10
166.6756283039
 20
227.0819329827
 30
0.0
 10
166.8171375536
 20
226.3163045965
 30
0.0
 10
166.888647127
 20
225.9182956353
 30
0.0
  0
SPLINE
  5
4DA
100
AcDbEntity
  8
0
100
AcDbSpline
 62
7
  6
CONTINUOUS
 70
0
 71
3
 72
11
 73
7
 74
0
 42
0.0000001
 43
0.0000001
 44
0.0000000001
 40
0.0
 40
0.0
 40
0.0
 40
0.0
 40
0.3067615722
 40
0.5906297291
 40
0.8308557193
 40
1.0
 40
1.0
 40
1.0
 40
1.0
 10
166.8886471267
 20
199.3103728539
 30
0.0
 10
166.8171375524
 20
198.9123638865
 30
0.0
 10
166.6756283022
 20
198.1467354973
 30
0.0
 10
166.4672920155
 20
197.0714508554
 30
0.0
 10
166.2908078017
 20
196.1748584105
 30
0.0
 10
166.1879500269
 20
195.6450143585
 30
0.0
 10
166.1513047734
 20
195.4250754303
 30
0.0
  0
SPLINE
  5
4DB
100
AcDbEntity
  8
0
100
AcDbSpline
 62
7
  6
CONTINUOUS
 70
0
 71
3
 72
9
 73
5
 74
0
 42
0.0000001
 43
0.0000001
 44
0.0000000001
 40
0.0
 40
0.0
 40
0.0
 40
0.0
 40
0.3660714544
 40
1.0
 40
1.0
 40
1.0
 40
1.0
 10
165.068379344
 20
193.69420158
 30
0.0
 10
164.9734752004
 20
193.6532027181
 30
0.0
 10
164.7225844474
 20
193.5228238879
 30
0.0
 10
164.4728020618
 20
193.3913892188
 30
0.0
 10
164.3143444895
 20
193.308073049
 30
0.0
  0
SPLINE
  5
4DC
100
AcDbEntity
  8
0
100
AcDbSpline
 62
7
  6
CONTINUOUS
 70
0
 71
3
 72
9
 73
5
 74
0
 42
0.0000001
 43
0.0000001
 44
0.0000000001
 40
0.0
 40
0.0
 40
0.0
 40
0.0
 40
0.6339284919
 40
1.0
 40
1.0
 40
1.0
 40
1.0
 10
144.012448902
 20
193.3080729016
 30
0.0
 10
143.8539912847
 20
193.3913890937
 30
0.0
 10
143.604208808
 20
193.5228238107
 30
0.0
 10
143.3533179664
 20
193.6532026949
 30
0.0
 10
143.2584137737
 20
193.6942015765
 30
0.0
  0
SPLINE
  5
4DD
100
AcDbEntity
  8
0
100
AcDbSpline
 62
7
  6
CONTINUOUS
 70
0
 71
3
 72
11
 73
7
 74
0
 42
0.0000001
 43
0.0000001
 44
0.0000000001
 40
0.0
 40
0.0
 40
0.0
 40
0.0
 40
0.1691442811
 40
0.4093702733
 40
0.6932384325
 40
1.0
 40
1.0
 40
1.0
 40
1.0
 10
142.1754883376
 20
195.4250754303
 30
0.0
 10
142.1388430839
 20
195.6450143591
 30
0.0
 10
142.0359853086
 20
196.1748584142
 30
0.0
 10
141.8595010935
 20
197.0714508653
 30
0.0
 10
141.651164807
 20
198.1467355065
 30
0.0
 10
141.5096555573
 20
198.9123638927
 30
0.0
 10
141.438145984
 20
199.3103728539
 30
0.0
  0
SPLINE
  5
4DE
100
AcDbEntity
  8
0
100
AcDbSpline
 62
7
  6
CONTINUOUS
 70
0
 71
3
 72
11
 73
7
 74
0
 42
0.0000001
 43
0.0000001
 44
0.0000000001
 40
0.0
 40
0.0
 40
0.0
 40
0.0
 40
0.3067615722
 40
0.5906297291
 40
0.8308557193
 40
1.0
 40
1.0
 40
1.0
 40
1.0
 10
141.4381459843
 20
225.9182956353
 30
0.0
 10
141.5096555586
 20
226.3163046027
 30
0.0
 10
141.6511648087
 20
227.0819329919
 30
0.0
 10
141.8595010954
 20
228.1572176338
 30
0.0
 10
142.0359853093
 20
229.0538100787
 30
0.0
 10
142.1388430841
 20
229.5836541307
 30
0.0
 10
142.1754883376
 20
229.8035930589
 30
0.0
  0
SPLINE
  5
4DF
100
AcDbEntity
  8
0
100
AcDbSpline
 62
7
  6
CONTINUOUS
 70
0
 71
3
 72
11
 73
7
 74
0
 42
0.0000001
 43
0.0000001
 44
0.0000000001
 40
0.0
 40
0.0
 40
0.0
 40
0.0
 40
0.1739571401
 40
0.4144926983
 40
0.697253182
 40
1.0
 40
1.0
 40
1.0
 40
1.0
 10
144.081950201
 20
193.4404351729
 30
0.0
 10
144.1168380166
 20
193.8179527959
 30
0.0
 10
144.1906831611
 20
194.7182981534
 30
0.0
 10
144.3369053738
 20
196.2309617615
 30
0.0
 10
144.5559354863
 20
198.0181463555
 30
0.0
 10
144.7566978642
 20
199.2787659548
 30
0.0
 10
144.8750318144
 20
199.9278814371
 30
0.0
  0
SPLINE
  5
4E0
100
AcDbEntity
  8
0
100
AcDbSpline
 62
7
  6
CONTINUOUS
 70
0
 71
3
 72
9
 73
5
 74
0
 42
0.0000001
 43
0.0000001
 44
0.0000000001
 40
0.0
 40
0.0
 40
0.0
 40
0.0
 40
0.2616872072
 40
1.0
 40
1.0
 40
1.0
 40
1.0
 10
144.081959372
 20
193.44048293
 30
0.0
 10
144.0185800865
 20
193.4703927464
 30
0.0
 10
143.7778353245
 20
193.587719485
 30
0.0
 10
143.5409672687
 20
193.7131242475
 30
0.0
 10
143.3694898864
 20
193.8115698665
 30
0.0
  0
SPLINE
  5
4E1
100
AcDbEntity
  8
0
100
AcDbSpline
 62
7
  6
CONTINUOUS
 70
0
 71
3
 72
9
 73
5
 74
0
 42
0.0000001
 43
0.0000001
 44
0.0000000001
 40
0.0
 40
0.0
 40
0.0
 40
0.0
 40
0.5932802242
 40
1.0
 40
1.0
 40
1.0
 40
1.0
 10
143.3694898864
 20
193.8115698665
 30
0.0
 10
143.2062247825
 20
193.9053007948
 30
0.0
 10
142.9373218477
 20
194.0742911997
 30
0.0
 10
142.685248192
 20
194.2690468725
 30
0.0
 10
142.5917658997
 20
194.3580260031
 30
0.0
  0
SPLINE
  5
4E2
100
AcDbEntity
  8
0
100
AcDbSpline
 62
7
  6
CONTINUOUS
 70
0
 71
3
 72
9
 73
5
 74
0
 42
0.0000001
 43
0.0000001
 44
0.0000000001
 40
0.0
 40
0.0
 40
0.0
 40
0.0
 40
0.4070055959
 40
1.0
 40
1.0
 40
1.0
 40
1.0
 10
165.7350303242
 20
194.3580313429
 30
0.0
 10
165.642181154
 20
194.2696876514
 30
0.0
 10
165.3921802811
 20
194.0762589644
 30
0.0
 10
165.1254751732
 20
193.9083278633
 30
0.0
 10
164.9636243948
 20
193.8152051253
 30
0.0
  0
SPLINE
  5
4E3
100
AcDbEntity
  8
0
100
AcDbSpline
 62
7
  6
CONTINUOUS
 70
0
 71
3
 72
9
 73
5
 74
0
 42
0.0000001
 43
0.0000001
 44
0.0000000001
 40
0.0
 40
0.0
 40
0.0
 40
0.0
 40
0.2347089693
 40
1.0
 40
1.0
 40
1.0
 40
1.0
 10
164.9636243948
 20
193.8152051253
 30
0.0
 10
164.9086487807
 20
193.7835742629
 30
0.0
 10
164.6726844232
 20
193.6518537764
 30
0.0
 10
164.4318621547
 20
193.5287850867
 30
0.0
 10
164.2448516271
 20
193.4404917709
 30
0.0
  0
SPLINE
  5
4E4
100
AcDbEntity
  8
0
100
AcDbSpline
 62
7
  6
CONTINUOUS
 70
0
 71
3
 72
11
 73
7
 74
0
 42
0.0000001
 43
0.0000001
 44
0.0000000001
 40
0.0
 40
0.0
 40
0.0
 40
0.0
 40
0.3027308149
 40
0.585502749
 40
0.8260502521
 40
1.0
 40
1.0
 40
1.0
 40
1.0
 10
163.4517612966
 20
199.9278814371
 30
0.0
 10
163.5700889626
 20
199.2788003503
 30
0.0
 10
163.7708524742
 20
198.0181912011
 30
0.0
 10
163.9898852604
 20
196.2309908645
 30
0.0
 10
164.136109433
 20
194.7182926295
 30
0.0
 10
164.2099586718
 20
193.8179377884
 30
0.0
 10
164.2448449673
 20
193.4404362546
 30
0.0
  0
SPLINE
  5
4E5
100
AcDbEntity
  8
0
100
AcDbSpline
 62
7
  6
CONTINUOUS
 70
0
 71
3
 72
9
 73
5
 74
0
 42
0.0000001
 43
0.0000001
 44
0.0000000001
 40
0.0
 40
0.0
 40
0.0
 40
0.0
 40
0.4009488816
 40
1.0
 40
1.0
 40
1.0
 40
1.0
 10
910.1633965555
 20
1299.5071942427
 30
0.0
 10
909.9702130691
 20
1299.5071942427
 30
0.0
 10
909.5496458687
 20
1299.1503239973
 30
0.0
 10
909.3184005306
 20
1298.7506739189
 30
0.0
 10
909.1633965555
 20
1298.5071942446
 30
0.0
  0
SPLINE
  5
4E6
100
AcDbEntity
  8
0
100
AcDbSpline
 62
7
  6
CONTINUOUS
 70
0
 71
3
 72
9
 73
5
 74
0
 42
0.0000001
 43
0.0000001
 44
0.0000000001
 40
0.0
 40
0.0
 40
0.0
 40
0.0
 40
0.5990511184
 40
1.0
 40
1.0
 40
1.0
 40
1.0
 10
114.1633965555
 20
1298.5071942446
 30
0.0
 10
114.0083925804
 20
1298.7506739189
 30
0.0
 10
113.7771472423
 20
1299.1503239973
 30
0.0
 10
113.3565800419
 20
1299.5071942427
 30
0.0
 10
113.1633965555
 20
1299.5071942427
 30
0.0
  0
SPLINE
  5
4E7
100
AcDbEntity
  8
0
100
AcDbSpline
 62
7
  6
CONTINUOUS
 70
0
 71
3
 72
9
 73
5
 74
0
 42
0.0000001
 43
0.0000001
 44
0.0000000001
 40
0.0
 40
0.0
 40
0.0
 40
0.0
 40
0.4009488816
 40
1.0
 40
1.0
 40
1.0
 40
1.0
 10
113.1633965555
 20
102.5071942465
 30
0.0
 10
113.3565800419
 20
102.5071942465
 30
0.0
 10
113.7771472423
 20
102.8640644919
 30
0.0
 10
114.0083925804
 20
103.2637145703
 30
0.0
 10
114.1633965555
 20
103.5071942446
 30
0.0
  0
SPLINE
  5
4E8
100
AcDbEntity
  8
0
100
AcDbSpline
 62
7
  6
CONTINUOUS
 70
0
 71
3
 72
9
 73
5
 74
0
 42
0.0000001
 43
0.0000001
 44
0.0000000001
 40
0.0
 40
0.0
 40
0.0
 40
0.0
 40
0.3143606919
 40
1.0
 40
1.0
 40
1.0
 40
1.0
 10
909.4967006863
 20
103.0072339492
 30
0.0
 10
909.5491830011
 20
102.9358780102
 30
0.0
 10
909.7175648167
 20
102.7195704214
 30
0.0
 10
909.9702026693
 20
102.5071942465
 30
0.0
 10
910.1633965555
 20
102.5071942465
 30
0.0
  0
SPLINE
  5
4E9
100
AcDbEntity
  8
0
100
AcDbSpline
 62
7
  6
CONTINUOUS
 70
0
 71
3
 72
9
 73
5
 74
0
 42
0.0000001
 43
0.0000001
 44
0.0000000001
 40
0.0
 40
0.0
 40
0.0
 40
0.0
 40
0.4009488816
 40
1.0
 40
1.0
 40
1.0
 40
1.0
 10
910.1633965536
 20
102.5071942446
 30
0.0
 10
910.1633965536
 20
102.700377731
 30
0.0
 10
909.8065263082
 20
103.1209449314
 30
0.0
 10
909.4068762298
 20
103.3521902695
 30
0.0
 10
909.1633965555
 20
103.5071942446
 30
0.0
  0
SPLINE
  5
4EA
100
AcDbEntity
  8
0
100
AcDbSpline
 62
7
  6
CONTINUOUS
 70
0
 71
3
 72
9
 73
5
 74
0
 42
0.0000001
 43
0.0000001
 44
0.0000000001
 40
0.0
 40
0.0
 40
0.0
 40
0.0
 40
0.5990511184
 40
1.0
 40
1.0
 40
1.0
 40
1.0
 10
909.1633965555
 20
1298.5071942446
 30
0.0
 10
909.4068762298
 20
1298.6621982197
 30
0.0
 10
909.8065263082
 20
1298.8934435578
 30
0.0
 10
910.1633965536
 20
1299.3140107582
 30
0.0
 10
910.1633965536
 20
1299.5071942446
 30
0.0
  0
SPLINE
  5
4EB
100
AcDbEntity
  8
0
100
AcDbSpline
 62
7
  6
CONTINUOUS
 70
0
 71
3
 72
9
 73
5
 74
0
 42
0.0000001
 43
0.0000001
 44
0.0000000001
 40
0.0
 40
0.0
 40
0.0
 40
0.0
 40
0.4009488816
 40
1.0
 40
1.0
 40
1.0
 40
1.0
 10
113.1633965574
 20
1299.5071942446
 30
0.0
 10
113.1633965574
 20
1299.3140107582
 30
0.0
 10
113.5202668028
 20
1298.8934435578
 30
0.0
 10
113.9199168812
 20
1298.6621982197
 30
0.0
 10
114.1633965555
 20
1298.5071942446
 30
0.0
  0
SPLINE
  5
4EC
100
AcDbEntity
  8
0
100
AcDbSpline
 62
7
  6
CONTINUOUS
 70
0
 71
3
 72
9
 73
5
 74
0
 42
0.0000001
 43
0.0000001
 44
0.0000000001
 40
0.0
 40
0.0
 40
0.0
 40
0.0
 40
0.3143606919
 40
1.0
 40
1.0
 40
1.0
 40
1.0
 10
113.6634362601
 20
103.1738901137
 30
0.0
 10
113.592080321
 20
103.1214077989
 30
0.0
 10
113.3757727323
 20
102.9530259834
 30
0.0
 10
113.1633965574
 20
102.7003881308
 30
0.0
 10
113.1633965574
 20
102.5071942446
 30
0.0
  0
SPLINE
  5
4ED
100
AcDbEntity
  8
0
100
AcDbSpline
 62
7
  6
CONTINUOUS
 70
0
 71
3
 72
8
 73
4
 74
0
 42
0.0000001
 43
0.0000001
 44
0.0000000001
 40
0.0
 40
0.0
 40
0.0
 40
0.0
 40
1.0
 40
1.0
 40
1.0
 40
1.0
 10
114.1633965555
 20
103.5071942446
 30
0.0
 10
114.0765112304
 20
103.1659963706
 30
0.0
 10
113.9899911623
 20
102.8246400928
 30
0.0
 10
113.8953841691
 20
102.4855021183
 30
0.0
  0
SPLINE
  5
4EE
100
AcDbEntity
  8
0
100
AcDbSpline
 62
7
  6
CONTINUOUS
 70
0
 71
3
 72
9
 73
5
 74
0
 42
0.0000001
 43
0.0000001
 44
0.0000000001
 40
0.0
 40
0.0
 40
0.0
 40
0.0
 40
0.2949158605
 40
1.0
 40
1.0
 40
1.0
 40
1.0
 10
113.8953841691
 20
102.4855021183
 30
0.0
 10
113.8633795528
 20
102.3707750736
 30
0.0
 10
113.7503304156
 20
101.9836124017
 30
0.0
 10
113.6259931904
 20
101.5958358273
 30
0.0
 10
113.4967186931
 20
101.3421087609
 30
0.0
  0
SPLINE
  5
4EF
100
AcDbEntity
  8
0
100
AcDbSpline
 62
7
  6
CONTINUOUS
 70
0
 71
3
 72
9
 73
5
 74
0
 42
0.0000001
 43
0.0000001
 44
0.0000000001
 40
0.0
 40
0.0
 40
0.0
 40
0.0
 40
0.3464730339
 40
1.0
 40
1.0
 40
1.0
 40
1.0
 10
113.4967186931
 20
101.3421087609
 30
0.0
 10
113.4714992641
 20
101.2926105858
 30
0.0
 10
113.3970741037
 20
101.1588640832
 30
0.0
 10
113.2681813564
 20
101.0071942446
 30
0.0
 10
113.1633965555
 20
101.0071942446
 30
0.0
  0
SPLINE
  5
4F0
100
AcDbEntity
  8
0
100
AcDbSpline
 62
7
  6
CONTINUOUS
 70
0
 71
3
 72
8
 73
4
 74
0
 42
0.0000001
 43
0.0000001
 44
0.0000000001
 40
0.0
 40
0.0
 40
0.0
 40
0.0
 40
1.0
 40
1.0
 40
1.0
 40
1.0
 10
114.1633965555
 20
1298.5071942446
 30
0.0
 10
113.8221986815
 20
1298.5940795697
 30
0.0
 10
113.4808424037
 20
1298.6805996378
 30
0.0
 10
113.1417044292
 20
1298.775206631
 30
0.0
  0
SPLINE
  5
4F1
100
AcDbEntity
  8
0
100
AcDbSpline
 62
7
  6
CONTINUOUS
 70
0
 71
3
 72
9
 73
5
 74
0
 42
0.0000001
 43
0.0000001
 44
0.0000000001
 40
0.0
 40
0.0
 40
0.0
 40
0.0
 40
0.2949158605
 40
1.0
 40
1.0
 40
1.0
 40
1.0
 10
113.1417044292
 20
1298.775206631
 30
0.0
 10
113.0269773845
 20
1298.8072112473
 30
0.0
 10
112.6398147126
 20
1298.9202603845
 30
0.0
 10
112.2520381381
 20
1299.0445976096
 30
0.0
 10
111.9983110718
 20
1299.173872107
 30
0.0
  0
SPLINE
  5
4F2
100
AcDbEntity
  8
0
100
AcDbSpline
 62
7
  6
CONTINUOUS
 70
0
 71
3
 72
9
 73
5
 74
0
 42
0.0000001
 43
0.0000001
 44
0.0000000001
 40
0.0
 40
0.0
 40
0.0
 40
0.0
 40
0.3464730339
 40
1.0
 40
1.0
 40
1.0
 40
1.0
 10
111.9983110718
 20
1299.173872107
 30
0.0
 10
111.9488128966
 20
1299.199091536
 30
0.0
 10
111.8150663941
 20
1299.2735166963
 30
0.0
 10
111.6633965555
 20
1299.4024094437
 30
0.0
 10
111.6633965555
 20
1299.5071942446
 30
0.0
  0
SPLINE
  5
4F3
100
AcDbEntity
  8
0
100
AcDbSpline
 62
7
  6
CONTINUOUS
 70
0
 71
3
 72
9
 73
5
 74
0
 42
0.0000001
 43
0.0000001
 44
0.0000000001
 40
0.0
 40
0.0
 40
0.0
 40
0.0
 40
0.3256580369
 40
1.0
 40
1.0
 40
1.0
 40
1.0
 10
111.6633965555
 20
102.5071942446
 30
0.0
 10
111.6633965555
 20
102.6708290358
 30
0.0
 10
112.2276173304
 20
102.9740594871
 30
0.0
 10
112.6473575242
 20
103.0969295796
 30
0.0
 10
112.9728174528
 20
103.1912059902
 30
0.0
  0
SPLINE
  5
4F4
100
AcDbEntity
  8
0
100
AcDbSpline
 62
7
  6
CONTINUOUS
 70
0
 71
3
 72
8
 73
4
 74
0
 42
0.0000001
 43
0.0000001
 44
0.0000000001
 40
0.0
 40
0.0
 40
0.0
 40
0.0
 40
1.0
 40
1.0
 40
1.0
 40
1.0
 10
113.1417044485
 20
103.2391818636
 30
0.0
 10
113.4808424167
 20
103.3337888547
 30
0.0
 10
113.822198688
 20
103.4203089211
 30
0.0
 10
114.1633965555
 20
103.5071942446
 30
0.0
  0
SPLINE
  5
4F5
100
AcDbEntity
  8
0
100
AcDbSpline
 62
7
  6
CONTINUOUS
 70
0
 71
3
 72
9
 73
5
 74
0
 42
0.0000001
 43
0.0000001
 44
0.0000000001
 40
0.0
 40
0.0
 40
0.0
 40
0.0
 40
0.3256580369
 40
1.0
 40
1.0
 40
1.0
 40
1.0
 10
911.6633965555
 20
1299.5071942446
 30
0.0
 10
911.6633965555
 20
1299.3435594534
 30
0.0
 10
911.0991757806
 20
1299.0403290021
 30
0.0
 10
910.6794355868
 20
1298.9174589096
 30
0.0
 10
910.3539756582
 20
1298.823182499
 30
0.0
  0
SPLINE
  5
4F6
100
AcDbEntity
  8
0
100
AcDbSpline
 62
7
  6
CONTINUOUS
 70
0
 71
3
 72
8
 73
4
 74
0
 42
0.0000001
 43
0.0000001
 44
0.0000000001
 40
0.0
 40
0.0
 40
0.0
 40
0.0
 40
1.0
 40
1.0
 40
1.0
 40
1.0
 10
910.1850886625
 20
1298.7752066256
 30
0.0
 10
909.8459506943
 20
1298.6805996345
 30
0.0
 10
909.504594423
 20
1298.5940795681
 30
0.0
 10
909.1633965555
 20
1298.5071942446
 30
0.0
  0
SPLINE
  5
4F7
100
AcDbEntity
  8
0
100
AcDbSpline
 62
7
  6
CONTINUOUS
 70
0
 71
3
 72
8
 73
4
 74
0
 42
0.0000001
 43
0.0000001
 44
0.0000000001
 40
0.0
 40
0.0
 40
0.0
 40
0.0
 40
1.0
 40
1.0
 40
1.0
 40
1.0
 10
909.1633965555
 20
1298.5071942446
 30
0.0
 10
909.2502818806
 20
1298.8483921186
 30
0.0
 10
909.3368019487
 20
1299.1897483964
 30
0.0
 10
909.4314089419
 20
1299.5288863709
 30
0.0
  0
SPLINE
  5
4F8
100
AcDbEntity
  8
0
100
AcDbSpline
 62
7
  6
CONTINUOUS
 70
0
 71
3
 72
9
 73
5
 74
0
 42
0.0000001
 43
0.0000001
 44
0.0000000001
 40
0.0
 40
0.0
 40
0.0
 40
0.0
 40
0.2949158605
 40
1.0
 40
1.0
 40
1.0
 40
1.0
 10
909.4314089419
 20
1299.5288863709
 30
0.0
 10
909.4634135582
 20
1299.6436134156
 30
0.0
 10
909.5764626954
 20
1300.0307760875
 30
0.0
 10
909.7007999205
 20
1300.418552662
 30
0.0
 10
909.8300744179
 20
1300.6722797283
 30
0.0
  0
SPLINE
  5
4F9
100
AcDbEntity
  8
0
100
AcDbSpline
 62
7
  6
CONTINUOUS
 70
0
 71
3
 72
9
 73
5
 74
0
 42
0.0000001
 43
0.0000001
 44
0.0000000001
 40
0.0
 40
0.0
 40
0.0
 40
0.0
 40
0.3464730339
 40
1.0
 40
1.0
 40
1.0
 40
1.0
 10
909.8300744179
 20
1300.6722797283
 30
0.0
 10
909.8552938468
 20
1300.7217779034
 30
0.0
 10
909.9297190072
 20
1300.855524406
 30
0.0
 10
910.0586117546
 20
1301.0071942446
 30
0.0
 10
910.1633965555
 20
1301.0071942446
 30
0.0
  0
SPLINE
  5
4FA
100
AcDbEntity
  8
0
100
AcDbSpline
 62
7
  6
CONTINUOUS
 70
0
 71
3
 72
9
 73
5
 74
0
 42
0.0000001
 43
0.0000001
 44
0.0000000001
 40
0.0
 40
0.0
 40
0.0
 40
0.0
 40
0.3256580369
 40
1.0
 40
1.0
 40
1.0
 40
1.0
 10
113.1633965555
 20
1301.0071942446
 30
0.0
 10
113.3270313467
 20
1301.0071942446
 30
0.0
 10
113.630261798
 20
1300.4429734697
 30
0.0
 10
113.7531318905
 20
1300.0232332759
 30
0.0
 10
113.8474083011
 20
1299.6977733473
 30
0.0
  0
SPLINE
  5
4FB
100
AcDbEntity
  8
0
100
AcDbSpline
 62
7
  6
CONTINUOUS
 70
0
 71
3
 72
8
 73
4
 74
0
 42
0.0000001
 43
0.0000001
 44
0.0000000001
 40
0.0
 40
0.0
 40
0.0
 40
0.0
 40
1.0
 40
1.0
 40
1.0
 40
1.0
 10
113.8953841745
 20
1299.5288863516
 30
0.0
 10
113.9899911656
 20
1299.1897483834
 30
0.0
 10
114.076511232
 20
1298.8483921121
 30
0.0
 10
114.1633965555
 20
1298.5071942446
 30
0.0
  0
SPLINE
  5
4FC
100
AcDbEntity
  8
0
100
AcDbSpline
 62
7
  6
CONTINUOUS
 70
0
 71
3
 72
8
 73
4
 74
0
 42
0.0000001
 43
0.0000001
 44
0.0000000001
 40
0.0
 40
0.0
 40
0.0
 40
0.0
 40
1.0
 40
1.0
 40
1.0
 40
1.0
 10
909.1633965555
 20
103.5071942446
 30
0.0
 10
909.5045944294
 20
103.4203089195
 30
0.0
 10
909.8459507073
 20
103.3337888514
 30
0.0
 10
910.1850886818
 20
103.2391818582
 30
0.0
  0
SPLINE
  5
4FD
100
AcDbEntity
  8
0
100
AcDbSpline
 62
7
  6
CONTINUOUS
 70
0
 71
3
 72
9
 73
5
 74
0
 42
0.0000001
 43
0.0000001
 44
0.0000000001
 40
0.0
 40
0.0
 40
0.0
 40
0.0
 40
0.2915932749
 40
1.0
 40
1.0
 40
1.0
 40
1.0
 10
910.4133587089
 20
103.173872046
 30
0.0
 10
910.5042254375
 20
103.1471385958
 30
0.0
 10
910.8143911414
 20
103.051729565
 30
0.0
 10
911.1234502446
 20
102.9449805317
 30
0.0
 10
911.3284820391
 20
102.8405163822
 30
0.0
  0
SPLINE
  5
4FE
100
AcDbEntity
  8
0
100
AcDbSpline
 62
7
  6
CONTINUOUS
 70
0
 71
3
 72
9
 73
5
 74
0
 42
0.0000001
 43
0.0000001
 44
0.0000000001
 40
0.0
 40
0.0
 40
0.0
 40
0.0
 40
0.3464730339
 40
1.0
 40
1.0
 40
1.0
 40
1.0
 10
911.3284820391
 20
102.8405163822
 30
0.0
 10
911.3779802143
 20
102.8152969532
 30
0.0
 10
911.5117267169
 20
102.7408717929
 30
0.0
 10
911.6633965555
 20
102.6119790455
 30
0.0
 10
911.6633965555
 20
102.5071942446
 30
0.0
  0
SPLINE
  5
4FF
100
AcDbEntity
  8
0
100
AcDbSpline
 62
7
  6
CONTINUOUS
 70
0
 71
3
 72
9
 73
5
 74
0
 42
0.0000001
 43
0.0000001
 44
0.0000000001
 40
0.0
 40
0.0
 40
0.0
 40
0.0
 40
0.3256580369
 40
1.0
 40
1.0
 40
1.0
 40
1.0
 10
910.1633965555
 20
101.0071942446
 30
0.0
 10
909.9997617642
 20
101.0071942446
 30
0.0
 10
909.696531313
 20
101.5714150195
 30
0.0
 10
909.5736612204
 20
101.9911552133
 30
0.0
 10
909.4793848099
 20
102.3166151419
 30
0.0
  0
SPLINE
  5
500
100
AcDbEntity
  8
0
100
AcDbSpline
 62
7
  6
CONTINUOUS
 70
0
 71
3
 72
8
 73
4
 74
0
 42
0.0000001
 43
0.0000001
 44
0.0000000001
 40
0.0
 40
0.0
 40
0.0
 40
0.0
 40
1.0
 40
1.0
 40
1.0
 40
1.0
 10
909.4314089365
 20
102.4855021376
 30
0.0
 10
909.3368019454
 20
102.8246401058
 30
0.0
 10
909.250281879
 20
103.1659963771
 30
0.0
 10
909.1633965555
 20
103.5071942446
 30
0.0
  0
SPLINE
  5
501
100
AcDbEntity
  8
0
100
AcDbSpline
 62
7
  6
CONTINUOUS
 70
0
 71
3
 72
9
 73
5
 74
0
 42
0.0000001
 43
0.0000001
 44
0.0000000001
 40
0.0
 40
0.0
 40
0.0
 40
0.0
 40
0.4009488816
 40
1.0
 40
1.0
 40
1.0
 40
1.0
 10
907.6633965555
 20
1296.3071942427
 30
0.0
 10
907.4702130691
 20
1296.3071942427
 30
0.0
 10
907.0496458687
 20
1295.9503239973
 30
0.0
 10
906.8184005306
 20
1295.5506739189
 30
0.0
 10
906.6633965555
 20
1295.3071942446
 30
0.0
  0
SPLINE
  5
502
100
AcDbEntity
  8
0
100
AcDbSpline
 62
7
  6
CONTINUOUS
 70
0
 71
3
 72
9
 73
5
 74
0
 42
0.0000001
 43
0.0000001
 44
0.0000000001
 40
0.0
 40
0.0
 40
0.0
 40
0.0
 40
0.5990511184
 40
1.0
 40
1.0
 40
1.0
 40
1.0
 10
116.6633965555
 20
1295.3071942446
 30
0.0
 10
116.5083925804
 20
1295.5506739189
 30
0.0
 10
116.2771472423
 20
1295.9503239973
 30
0.0
 10
115.8565800419
 20
1296.3071942427
 30
0.0
 10
115.6633965555
 20
1296.3071942427
 30
0.0
  0
SPLINE
  5
503
100
AcDbEntity
  8
0
100
AcDbSpline
 62
7
  6
CONTINUOUS
 70
0
 71
3
 72
9
 73
5
 74
0
 42
0.0000001
 43
0.0000001
 44
0.0000000001
 40
0.0
 40
0.0
 40
0.0
 40
0.0
 40
0.4009488816
 40
1.0
 40
1.0
 40
1.0
 40
1.0
 10
907.6633965536
 20
104.3071942446
 30
0.0
 10
907.6633965536
 20
104.500377731
 30
0.0
 10
907.3065263082
 20
104.9209449314
 30
0.0
 10
906.9068762298
 20
105.1521902695
 30
0.0
 10
906.6633965555
 20
105.3071942446
 30
0.0
  0
SPLINE
  5
504
100
AcDbEntity
  8
0
100
AcDbSpline
 62
7
  6
CONTINUOUS
 70
0
 71
3
 72
9
 73
5
 74
0
 42
0.0000001
 43
0.0000001
 44
0.0000000001
 40
0.0
 40
0.0
 40
0.0
 40
0.0
 40
0.5990511184
 40
1.0
 40
1.0
 40
1.0
 40
1.0
 10
906.6633965555
 20
1295.3071942446
 30
0.0
 10
906.9068762298
 20
1295.4621982197
 30
0.0
 10
907.3065263082
 20
1295.6934435578
 30
0.0
 10
907.6633965536
 20
1296.1140107582
 30
0.0
 10
907.6633965536
 20
1296.3071942446
 30
0.0
  0
SPLINE
  5
505
100
AcDbEntity
  8
0
100
AcDbSpline
 62
7
  6
CONTINUOUS
 70
0
 71
3
 72
9
 73
5
 74
0
 42
0.0000001
 43
0.0000001
 44
0.0000000001
 40
0.0
 40
0.0
 40
0.0
 40
0.0
 40
0.4009488816
 40
1.0
 40
1.0
 40
1.0
 40
1.0
 10
115.6633965555
 20
104.3071942465
 30
0.0
 10
115.8565800419
 20
104.3071942465
 30
0.0
 10
116.2771472423
 20
104.6640644919
 30
0.0
 10
116.5083925804
 20
105.0637145703
 30
0.0
 10
116.6633965555
 20
105.3071942446
 30
0.0
  0
SPLINE
  5
506
100
AcDbEntity
  8
0
100
AcDbSpline
 62
7
  6
CONTINUOUS
 70
0
 71
3
 72
9
 73
5
 74
0
 42
0.0000001
 43
0.0000001
 44
0.0000000001
 40
0.0
 40
0.0
 40
0.0
 40
0.0
 40
0.5990511184
 40
1.0
 40
1.0
 40
1.0
 40
1.0
 10
906.6633965555
 20
105.3071942446
 30
0.0
 10
906.8184005306
 20
105.0637145703
 30
0.0
 10
907.0496458687
 20
104.6640644919
 30
0.0
 10
907.4702130691
 20
104.3071942465
 30
0.0
 10
907.6633965555
 20
104.3071942465
 30
0.0
  0
SPLINE
  5
507
100
AcDbEntity
  8
0
100
AcDbSpline
 62
7
  6
CONTINUOUS
 70
0
 71
3
 72
9
 73
5
 74
0
 42
0.0000001
 43
0.0000001
 44
0.0000000001
 40
0.0
 40
0.0
 40
0.0
 40
0.0
 40
0.4009488816
 40
1.0
 40
1.0
 40
1.0
 40
1.0
 10
115.6633965574
 20
1296.3071942446
 30
0.0
 10
115.6633965574
 20
1296.1140107582
 30
0.0
 10
116.0202668028
 20
1295.6934435578
 30
0.0
 10
116.4199168812
 20
1295.4621982197
 30
0.0
 10
116.6633965555
 20
1295.3071942446
 30
0.0
  0
SPLINE
  5
508
100
AcDbEntity
  8
0
100
AcDbSpline
 62
7
  6
CONTINUOUS
 70
0
 71
3
 72
9
 73
5
 74
0
 42
0.0000001
 43
0.0000001
 44
0.0000000001
 40
0.0
 40
0.0
 40
0.0
 40
0.0
 40
0.5990511184
 40
1.0
 40
1.0
 40
1.0
 40
1.0
 10
116.6633965555
 20
105.3071942446
 30
0.0
 10
116.4199168812
 20
105.1521902695
 30
0.0
 10
116.0202668028
 20
104.9209449314
 30
0.0
 10
115.6633965574
 20
104.500377731
 30
0.0
 10
115.6633965574
 20
104.3071942446
 30
0.0
  0
SPLINE
  5
509
100
AcDbEntity
  8
0
100
AcDbSpline
 62
7
  6
CONTINUOUS
 70
0
 71
3
 72
8
 73
4
 74
0
 42
0.0000001
 43
0.0000001
 44
0.0000000001
 40
0.0
 40
0.0
 40
0.0
 40
0.0
 40
1.0
 40
1.0
 40
1.0
 40
1.0
 10
906.6633965555
 20
1295.3071942446
 30
0.0
 10
906.7502818806
 20
1295.6483921186
 30
0.0
 10
906.8368019487
 20
1295.9897483964
 30
0.0
 10
906.9314089419
 20
1296.3288863709
 30
0.0
  0
SPLINE
  5
50A
100
AcDbEntity
  8
0
100
AcDbSpline
 62
7
  6
CONTINUOUS
 70
0
 71
3
 72
9
 73
5
 74
0
 42
0.0000001
 43
0.0000001
 44
0.0000000001
 40
0.0
 40
0.0
 40
0.0
 40
0.0
 40
0.2949158605
 40
1.0
 40
1.0
 40
1.0
 40
1.0
 10
906.9314089419
 20
1296.3288863709
 30
0.0
 10
906.9634135582
 20
1296.4436134156
 30
0.0
 10
907.0764626954
 20
1296.8307760875
 30
0.0
 10
907.2007999205
 20
1297.218552662
 30
0.0
 10
907.3300744179
 20
1297.4722797283
 30
0.0
  0
SPLINE
  5
50B
100
AcDbEntity
  8
0
100
AcDbSpline
 62
7
  6
CONTINUOUS
 70
0
 71
3
 72
9
 73
5
 74
0
 42
0.0000001
 43
0.0000001
 44
0.0000000001
 40
0.0
 40
0.0
 40
0.0
 40
0.0
 40
0.3464730339
 40
1.0
 40
1.0
 40
1.0
 40
1.0
 10
907.3300744179
 20
1297.4722797283
 30
0.0
 10
907.3552938468
 20
1297.5217779035
 30
0.0
 10
907.4297190072
 20
1297.655524406
 30
0.0
 10
907.5586117546
 20
1297.8071942446
 30
0.0
 10
907.6633965555
 20
1297.8071942446
 30
0.0
  0
SPLINE
  5
50C
100
AcDbEntity
  8
0
100
AcDbSpline
 62
7
  6
CONTINUOUS
 70
0
 71
3
 72
8
 73
4
 74
0
 42
0.0000001
 43
0.0000001
 44
0.0000000001
 40
0.0
 40
0.0
 40
0.0
 40
0.0
 40
1.0
 40
1.0
 40
1.0
 40
1.0
 10
906.6633965555
 20
105.3071942446
 30
0.0
 10
907.0045944294
 20
105.2203089195
 30
0.0
 10
907.3459507073
 20
105.1337888514
 30
0.0
 10
907.6850886818
 20
105.0391818582
 30
0.0
  0
SPLINE
  5
50D
100
AcDbEntity
  8
0
100
AcDbSpline
 62
7
  6
CONTINUOUS
 70
0
 71
3
 72
9
 73
5
 74
0
 42
0.0000001
 43
0.0000001
 44
0.0000000001
 40
0.0
 40
0.0
 40
0.0
 40
0.0
 40
0.2949158605
 40
1.0
 40
1.0
 40
1.0
 40
1.0
 10
907.6850886818
 20
105.0391818582
 30
0.0
 10
907.7998157265
 20
105.0071772419
 30
0.0
 10
908.1869783984
 20
104.8941281047
 30
0.0
 10
908.5747549728
 20
104.7697908796
 30
0.0
 10
908.8284820391
 20
104.6405163822
 30
0.0
  0
SPLINE
  5
50E
100
AcDbEntity
  8
0
100
AcDbSpline
 62
7
  6
CONTINUOUS
 70
0
 71
3
 72
9
 73
5
 74
0
 42
0.0000001
 43
0.0000001
 44
0.0000000001
 40
0.0
 40
0.0
 40
0.0
 40
0.0
 40
0.3464730339
 40
1.0
 40
1.0
 40
1.0
 40
1.0
 10
908.8284820391
 20
104.6405163822
 30
0.0
 10
908.8779802143
 20
104.6152969532
 30
0.0
 10
909.0117267169
 20
104.5408717929
 30
0.0
 10
909.1633965555
 20
104.4119790455
 30
0.0
 10
909.1633965555
 20
104.3071942446
 30
0.0
  0
SPLINE
  5
50F
100
AcDbEntity
  8
0
100
AcDbSpline
 62
7
  6
CONTINUOUS
 70
0
 71
3
 72
9
 73
5
 74
0
 42
0.0000001
 43
0.0000001
 44
0.0000000001
 40
0.0
 40
0.0
 40
0.0
 40
0.0
 40
0.3256580369
 40
1.0
 40
1.0
 40
1.0
 40
1.0
 10
114.1633965555
 20
104.3071942446
 30
0.0
 10
114.1633965555
 20
104.4708290358
 30
0.0
 10
114.7276173304
 20
104.7740594871
 30
0.0
 10
115.1473575242
 20
104.8969295796
 30
0.0
 10
115.4728174528
 20
104.9912059902
 30
0.0
  0
SPLINE
  5
510
100
AcDbEntity
  8
0
100
AcDbSpline
 62
7
  6
CONTINUOUS
 70
0
 71
3
 72
8
 73
4
 74
0
 42
0.0000001
 43
0.0000001
 44
0.0000000001
 40
0.0
 40
0.0
 40
0.0
 40
0.0
 40
1.0
 40
1.0
 40
1.0
 40
1.0
 10
115.6417044485
 20
105.0391818636
 30
0.0
 10
115.9808424167
 20
105.1337888547
 30
0.0
 10
116.322198688
 20
105.2203089211
 30
0.0
 10
116.6633965555
 20
105.3071942446
 30
0.0
  0
SPLINE
  5
511
100
AcDbEntity
  8
0
100
AcDbSpline
 62
7
  6
CONTINUOUS
 70
0
 71
3
 72
8
 73
4
 74
0
 42
0.0000001
 43
0.0000001
 44
0.0000000001
 40
0.0
 40
0.0
 40
0.0
 40
0.0
 40
1.0
 40
1.0
 40
1.0
 40
1.0
 10
116.6633965555
 20
1295.3071942446
 30
0.0
 10
116.3221986815
 20
1295.3940795697
 30
0.0
 10
115.9808424037
 20
1295.4805996378
 30
0.0
 10
115.6417044292
 20
1295.575206631
 30
0.0
  0
SPLINE
  5
512
100
AcDbEntity
  8
0
100
AcDbSpline
 62
7
  6
CONTINUOUS
 70
0
 71
3
 72
9
 73
5
 74
0
 42
0.0000001
 43
0.0000001
 44
0.0000000001
 40
0.0
 40
0.0
 40
0.0
 40
0.0
 40
0.2949158605
 40
1.0
 40
1.0
 40
1.0
 40
1.0
 10
115.6417044292
 20
1295.575206631
 30
0.0
 10
115.5269773845
 20
1295.6072112473
 30
0.0
 10
115.1398147126
 20
1295.7202603845
 30
0.0
 10
114.7520381381
 20
1295.8445976096
 30
0.0
 10
114.4983110718
 20
1295.973872107
 30
0.0
  0
SPLINE
  5
513
100
AcDbEntity
  8
0
100
AcDbSpline
 62
7
  6
CONTINUOUS
 70
0
 71
3
 72
9
 73
5
 74
0
 42
0.0000001
 43
0.0000001
 44
0.0000000001
 40
0.0
 40
0.0
 40
0.0
 40
0.0
 40
0.3464730339
 40
1.0
 40
1.0
 40
1.0
 40
1.0
 10
114.4983110718
 20
1295.973872107
 30
0.0
 10
114.4488128966
 20
1295.999091536
 30
0.0
 10
114.3150663941
 20
1296.0735166963
 30
0.0
 10
114.1633965555
 20
1296.2024094437
 30
0.0
 10
114.1633965555
 20
1296.3071942446
 30
0.0
  0
SPLINE
  5
514
100
AcDbEntity
  8
0
100
AcDbSpline
 62
7
  6
CONTINUOUS
 70
0
 71
3
 72
8
 73
4
 74
0
 42
0.0000001
 43
0.0000001
 44
0.0000000001
 40
0.0
 40
0.0
 40
0.0
 40
0.0
 40
1.0
 40
1.0
 40
1.0
 40
1.0
 10
116.6633965555
 20
105.3071942446
 30
0.0
 10
116.5765112304
 20
104.9659963706
 30
0.0
 10
116.4899911623
 20
104.6246400928
 30
0.0
 10
116.3953841691
 20
104.2855021183
 30
0.0
  0
SPLINE
  5
515
100
AcDbEntity
  8
0
100
AcDbSpline
 62
7
  6
CONTINUOUS
 70
0
 71
3
 72
9
 73
5
 74
0
 42
0.0000001
 43
0.0000001
 44
0.0000000001
 40
0.0
 40
0.0
 40
0.0
 40
0.0
 40
0.2949158605
 40
1.0
 40
1.0
 40
1.0
 40
1.0
 10
116.3953841691
 20
104.2855021183
 30
0.0
 10
116.3633795528
 20
104.1707750736
 30
0.0
 10
116.2503304156
 20
103.7836124017
 30
0.0
 10
116.1259931904
 20
103.3958358273
 30
0.0
 10
115.9967186931
 20
103.1421087609
 30
0.0
  0
SPLINE
  5
516
100
AcDbEntity
  8
0
100
AcDbSpline
 62
7
  6
CONTINUOUS
 70
0
 71
3
 72
9
 73
5
 74
0
 42
0.0000001
 43
0.0000001
 44
0.0000000001
 40
0.0
 40
0.0
 40
0.0
 40
0.0
 40
0.3464730339
 40
1.0
 40
1.0
 40
1.0
 40
1.0
 10
115.9967186931
 20
103.1421087609
 30
0.0
 10
115.9714992641
 20
103.0926105858
 30
0.0
 10
115.8970741037
 20
102.9588640832
 30
0.0
 10
115.7681813564
 20
102.8071942446
 30
0.0
 10
115.6633965555
 20
102.8071942446
 30
0.0
  0
SPLINE
  5
517
100
AcDbEntity
  8
0
100
AcDbSpline
 62
7
  6
CONTINUOUS
 70
0
 71
3
 72
9
 73
5
 74
0
 42
0.0000001
 43
0.0000001
 44
0.0000000001
 40
0.0
 40
0.0
 40
0.0
 40
0.0
 40
0.3256580369
 40
1.0
 40
1.0
 40
1.0
 40
1.0
 10
907.6633965555
 20
102.8071942446
 30
0.0
 10
907.4997617642
 20
102.8071942446
 30
0.0
 10
907.196531313
 20
103.3714150195
 30
0.0
 10
907.0736612204
 20
103.7911552133
 30
0.0
 10
906.9793848099
 20
104.1166151419
 30
0.0
  0
SPLINE
  5
518
100
AcDbEntity
  8
0
100
AcDbSpline
 62
7
  6
CONTINUOUS
 70
0
 71
3
 72
8
 73
4
 74
0
 42
0.0000001
 43
0.0000001
 44
0.0000000001
 40
0.0
 40
0.0
 40
0.0
 40
0.0
 40
1.0
 40
1.0
 40
1.0
 40
1.0
 10
906.9314089365
 20
104.2855021376
 30
0.0
 10
906.8368019454
 20
104.6246401058
 30
0.0
 10
906.750281879
 20
104.9659963771
 30
0.0
 10
906.6633965555
 20
105.3071942446
 30
0.0
  0
SPLINE
  5
519
100
AcDbEntity
  8
0
100
AcDbSpline
 62
7
  6
CONTINUOUS
 70
0
 71
3
 72
9
 73
5
 74
0
 42
0.0000001
 43
0.0000001
 44
0.0000000001
 40
0.0
 40
0.0
 40
0.0
 40
0.0
 40
0.3256580369
 40
1.0
 40
1.0
 40
1.0
 40
1.0
 10
115.6633965555
 20
1297.8071942446
 30
0.0
 10
115.8270313467
 20
1297.8071942446
 30
0.0
 10
116.130261798
 20
1297.2429734697
 30
0.0
 10
116.2531318905
 20
1296.8232332759
 30
0.0
 10
116.3474083011
 20
1296.4977733473
 30
0.0
  0
SPLINE
  5
51A
100
AcDbEntity
  8
0
100
AcDbSpline
 62
7
  6
CONTINUOUS
 70
0
 71
3
 72
8
 73
4
 74
0
 42
0.0000001
 43
0.0000001
 44
0.0000000001
 40
0.0
 40
0.0
 40
0.0
 40
0.0
 40
1.0
 40
1.0
 40
1.0
 40
1.0
 10
116.3953841745
 20
1296.3288863516
 30
0.0
 10
116.4899911656
 20
1295.9897483834
 30
0.0
 10
116.576511232
 20
1295.6483921121
 30
0.0
 10
116.6633965555
 20
1295.3071942446
 30
0.0
  0
SPLINE
  5
51B
100
AcDbEntity
  8
0
100
AcDbSpline
 62
7
  6
CONTINUOUS
 70
0
 71
3
 72
9
 73
5
 74
0
 42
0.0000001
 43
0.0000001
 44
0.0000000001
 40
0.0
 40
0.0
 40
0.0
 40
0.0
 40
0.3256580369
 40
1.0
 40
1.0
 40
1.0
 40
1.0
 10
909.1633965555
 20
1296.3071942446
 30
0.0
 10
909.1633965555
 20
1296.1435594534
 30
0.0
 10
908.5991757806
 20
1295.8403290021
 30
0.0
 10
908.1794355868
 20
1295.7174589096
 30
0.0
 10
907.8539756582
 20
1295.623182499
 30
0.0
  0
SPLINE
  5
51C
100
AcDbEntity
  8
0
100
AcDbSpline
 62
7
  6
CONTINUOUS
 70
0
 71
3
 72
8
 73
4
 74
0
 42
0.0000001
 43
0.0000001
 44
0.0000000001
 40
0.0
 40
0.0
 40
0.0
 40
0.0
 40
1.0
 40
1.0
 40
1.0
 40
1.0
 10
907.6850886625
 20
1295.5752066256
 30
0.0
 10
907.3459506943
 20
1295.4805996345
 30
0.0
 10
907.004594423
 20
1295.3940795681
 30
0.0
 10
906.6633965555
 20
1295.3071942446
 30
0.0
  0
ENDSEC
  0
SECTION
  2
OBJECTS
  0
DICTIONARY
  5
C
100
AcDbDictionary
280
0
281
1
  3
ACAD_GROUP
350
D
  3
ACAD_MLINESTYLE
350
17
  3
ACAD_LAYOUT
350
1A
  3
ACAD_PLOTSETTINGS
350
19
  3
ACAD_PLOTSTYLENAME
350
E
  0
DICTIONARY
  5
D
102
{ACAD_REACTORS
330
C
102
}
100
AcDbDictionary
280
0
281
1
  0
ACDBDICTIONARYWDFLT
  5
E
102
{ACAD_REACTORS
330
C
102
}
100
AcDbDictionary
281
1
  3
Normal
350
F
100
AcDbDictionaryWithDefault
340
F
  0
DICTIONARY
  5
17
102
{ACAD_REACTORS
330
C
102
}
100
AcDbDictionary
280
0
281
1
  3
Standard
350
18
  0
DICTIONARY
  5
19
102
{ACAD_REACTORS
330
C
102
}
100
AcDbDictionary
281
1
  0
DICTIONARY
  5
1A
102
{ACAD_REACTORS
330
C
102
}
100
AcDbDictionary
281
1
  3
Model
350
51D
  3
Layout1
350
51E
  0
ACDBPLACEHOLDER
  5
F
102
{ACAD_REACTORS
330
E
102
}
  0
MLINESTYLE
  5
18
102
{ACAD_REACTORS
330
17
102
}
100
AcDbMlineStyle
  2
STANDARD
 70
0
  3

 62
256
 51
90.0
 52
90.0
 71
2
 49
0.5
 62
256
  6
BYLAYER
 49
-0.5
 62
256
  6
BYLAYER
  0
LAYOUT
  5
51D
102
{ACAD_REACTORS
330
1A
102
}
100
AcDbPlotSettings
  1

  2
none_device
  4

  6

 40
0.0
 41
0.0
 42
0.0
 43
0.0
 44
210.0
 45
297.0
 46
0.0
 47
0.0
 48
0.0
 49
0.0
140
0.0
141
0.0
142
1.0
143
1.0
 70
1024
 72
1
 73
0
 74
0
  7

 75
0
147
1.0
148
0.0
149
0.0
100
AcDbLayout
  1
Model
 70
0
 71
0
 10
0.0
 20
0.0
 11
210.0
 21
297.0
 12
0.0
 22
0.0
 32
0.0
 14
0.0
 24
0.0
 34
0.0
 15
0.0
 25
0.0
 35
0.0
146
0.0
 13
0.0
 23
0.0
 33
0.0
 16
1.0
 26
0.0
 36
0.0
 17
0.0
 27
1.0
 37
0.0
 76
0
330
210
345
0
346
0
  0
LAYOUT
  5
51E
102
{ACAD_REACTORS
330
1A
102
}
100
AcDbPlotSettings
  1

  2
none_device
  4

  6

 40
0.0
 41
0.0
 42
0.0
 43
0.0
 44
210.0
 45
297.0
 46
0.0
 47
0.0
 48
0.0
 49
0.0
140
0.0
141
0.0
142
1.0
143
1.0
 70
0
 72
1
 73
0
 74
0
  7

 75
0
147
1.0
148
0.0
149
0.0
100
AcDbLayout
  1
Layout1
 70
0
 71
1
 10
0.0
 20
0.0
 11
210.0
 21
297.0
 12
0.0
 22
0.0
 32
0.0
 14
0.0
 24
0.0
 34
0.0
 15
0.0
 25
0.0
 35
0.0
146
0.0
 13
0.0
 23
0.0
 33
0.0
 16
1.0
 26
0.0
 36
0.0
 17
0.0
 27
1.0
 37
0.0
 76
0
330
211
345
0
346
0
  0
ENDSEC
  0
EOF
