999
DXF file: C:\Users\sesa63760\Dev\_Creo\CAD\MCADPD0004414_3D-CAD\drw0001_1.dxf
999
Pro/ENGINEER 2019471 by Parametric Technology Corporation
  0
SECTION
  2
HEADER
  9
$ACADVER
  1
AC1024
  9
$DWGCODEPAGE
  3
ANSI_1252
  9
$EXTMAX
 10
124.9477807938
 20
176.7118614084
 30
0.0
  9
$EXTMIN
 10
0.0
 20
0.0
 30
0.0
  9
$LIMMIN
 10
0.0
 20
0.0
  9
$LIMMAX
 10
124.9477807938
 20
176.7118614084
  9
$VIEWCTR
 10
62.4738903969
 20
88.3559307042
  9
$VIEWSIZE
 40
176.7118614084
  9
$CLAYER
  8
0
  9
$LTSCALE
 40
11.5189954103
  9
$CELTYPE
  6
BYLAYER
  9
$DIMSCALE
 40
1.0
  9
$DIMASZ
 40
1.4874735809
  9
$DIMEXO
 40
1.0
  9
$DIMDLI
 40
7.9585786471
  9
$DIMEXE
 40
1.0
  9
$DIMCEN
 40
1.8849265217
  9
$DIMLFAC
 40
1.0
  9
$DIMBLK
  1
_FILLED
  9
$DIMALT
 70
0
  9
$DIMALTF
 40
0.0393700787
  9
$DIMTXT
 40
2.0824630132
  9
$DIMTOL
 70
1
  9
$DIMLIM
 70
0
  9
$DIMTFAC
 40
1.0
  9
$DIMTP
 40
0.01
  9
$DIMTM
 40
0.01
  9
$DIMGAP
 40
0.625
  9
$DIMDSEP
 70
46
  9
$AUNITS
 70
0
  9
$PDMODE
 70
3
  9
$PDSIZE
 40
0.3125
  9
$HANDSEED
  5
2DE
  9
$TILEMODE
 70
1
  9
$MEASUREMENT
 70
1
  9
$INSUNITS
 70
4
  0
ENDSEC
  0
SECTION
  2
CLASSES
  0
CLASS
  1
ACDBDICTIONARYWDFLT
  2
AcDbDictionaryWithDefault
  3
AutoCAD 2000
 90
0
 91
1
280
0
281
0
  0
CLASS
  1
ACDBPLACEHOLDER
  2
AcDbPlaceHolder
  3
AutoCAD 2000
 90
0
 91
1
280
0
281
0
  0
CLASS
  1
LAYOUT
  2
AcDbLayout
  3
AutoCAD 2000
 90
0
 91
0
280
0
281
0
  0
ENDSEC
  0
SECTION
  2
TABLES
  0
TABLE
  2
VPORT
  5
8
100
AcDbSymbolTable
 70
2
  0
VPORT
  5
1F4
100
AcDbSymbolTableRecord
100
AcDbViewportTableRecord
  2
*ACTIVE
 70
0
 10
0.0
 20
0.0
 11
1.0
 21
1.0
 12
62.4738903969
 22
88.3559307042
 13
0.0
 23
0.0
 14
1.0
 24
1.0
 15
0.0
 25
0.0
 16
0.0
 26
0.0
 36
1.0
 17
0.0
 27
0.0
 37
0.0
 40
176.7118614084
 41
0.7070707071
 42
50.0
 43
0.0
 44
0.0
 50
0.0
 51
0.0
 71
0
 72
100
 73
1
 74
1
 75
0
 76
0
 77
0
 78
0
  0
ENDTAB
  0
TABLE
  2
LTYPE
  5
5
100
AcDbSymbolTable
 70
6
  0
LTYPE
  5
14
100
AcDbSymbolTableRecord
100
AcDbLinetypeTableRecord
  2
BYBLOCK
 70
0
  3

 72
65
 73
0
 40
0.0
  0
LTYPE
  5
15
100
AcDbSymbolTableRecord
100
AcDbLinetypeTableRecord
  2
BYLAYER
 70
0
  3

 72
65
 73
0
 40
0.0
  0
LTYPE
  5
16
100
AcDbSymbolTableRecord
100
AcDbLinetypeTableRecord
  2
CONTINUOUS
 70
64
  3
Solid line
 72
65
 73
0
 40
0.0
  0
LTYPE
  5
1F5
100
AcDbSymbolTableRecord
100
AcDbLinetypeTableRecord
  2
CENTER
 70
64
  3
____ _ ____ _ ____ _ ____ _ ____ _ ____ _ ____
 72
65
 73
4
 40
0.6
 49
0.375
 74
0
 49
-0.075
 74
0
 49
0.075
 74
0
 49
-0.075
 74
0
  0
LTYPE
  5
1F6
100
AcDbSymbolTableRecord
100
AcDbLinetypeTableRecord
  2
HIDDEN
 70
64
  3
- - - - - - - - - - - - - - - - - - - -
 72
65
 73
2
 40
0.2
 49
0.1
 74
0
 49
-0.1
 74
0
  0
LTYPE
  5
1F7
100
AcDbSymbolTableRecord
100
AcDbLinetypeTableRecord
  2
PHANTOM
 70
64
  3
_____ _ _ _____ _ _ _____ _ _ _____
 72
65
 73
6
 40
0.8
 49
0.45
 74
0
 49
-0.05
 74
0
 49
0.1
 74
0
 49
-0.05
 74
0
 49
0.1
 74
0
 49
-0.05
 74
0
  0
LTYPE
  5
1F8
100
AcDbSymbolTableRecord
100
AcDbLinetypeTableRecord
  2
DOT
 70
64
  3
. . . . . . . . . . . . . . . . . . . .
 72
65
 73
2
 40
0.2
 49
0.1
 74
0
 49
-0.1
 74
0
  0
LTYPE
  5
1F9
100
AcDbSymbolTableRecord
100
AcDbLinetypeTableRecord
  2
DASHED
 70
64
  3
- - - - - - - - - - - - - - - - - - - -
 72
65
 73
2
 40
0.2
 49
0.1
 74
0
 49
-0.1
 74
0
  0
ENDTAB
  0
TABLE
  2
LAYER
  5
2
100
AcDbSymbolTable
 70
36
  0
LAYER
  5
10
100
AcDbSymbolTableRecord
100
AcDbLayerTableRecord
  2
0
 70
0
 62
7
  6
CONTINUOUS
370
-3
390
F
  0
LAYER
  5
1FA
100
AcDbSymbolTableRecord
100
AcDbLayerTableRecord
  2
DEFAULT_1
 70
0
 62
7
  6
CENTER
370
-3
390
F
  0
LAYER
  5
1FB
100
AcDbSymbolTableRecord
100
AcDbLayerTableRecord
  2
DEFAULT_2
 70
0
 62
7
  6
HIDDEN
370
-3
390
F
  0
LAYER
  5
1FC
100
AcDbSymbolTableRecord
100
AcDbLayerTableRecord
  2
DEFAULT_3
 70
0
 62
7
  6
PHANTOM
370
-3
390
F
  0
LAYER
  5
1FD
100
AcDbSymbolTableRecord
100
AcDbLayerTableRecord
  2
00_COMPONENTS
 70
0
 62
7
  6
CONTINUOUS
370
-3
390
F
  0
LAYER
  5
1FE
100
AcDbSymbolTableRecord
100
AcDbLayerTableRecord
  2
01_1_DEFAULT_DATUMS
 70
0
 62
7
  6
CONTINUOUS
370
-3
390
F
  0
LAYER
  5
1FF
100
AcDbSymbolTableRecord
100
AcDbLayerTableRecord
  2
01_PLANES
 70
0
 62
7
  6
CONTINUOUS
370
-3
390
F
  0
LAYER
  5
200
100
AcDbSymbolTableRecord
100
AcDbLayerTableRecord
  2
02_COORD_SYS
 70
0
 62
7
  6
CONTINUOUS
370
-3
390
F
  0
LAYER
  5
201
100
AcDbSymbolTableRecord
100
AcDbLayerTableRecord
  2
03_AXES
 70
0
 62
7
  6
CONTINUOUS
370
-3
390
F
  0
LAYER
  5
202
100
AcDbSymbolTableRecord
100
AcDbLayerTableRecord
  2
04_POINTS
 70
0
 62
7
  6
CONTINUOUS
370
-3
390
F
  0
LAYER
  5
203
100
AcDbSymbolTableRecord
100
AcDbLayerTableRecord
  2
05_CURVES
 70
0
 62
7
  6
CONTINUOUS
370
-3
390
F
  0
LAYER
  5
204
100
AcDbSymbolTableRecord
100
AcDbLayerTableRecord
  2
06_SURFS
 70
0
 62
7
  6
CONTINUOUS
370
-3
390
F
  0
LAYER
  5
205
100
AcDbSymbolTableRecord
100
AcDbLayerTableRecord
  2
07_COSMETICS
 70
0
 62
7
  6
CONTINUOUS
370
-3
390
F
  0
LAYER
  5
206
100
AcDbSymbolTableRecord
100
AcDbLayerTableRecord
  2
10_NOTES
 70
0
 62
7
  6
CONTINUOUS
370
-3
390
F
  0
LAYER
  5
207
100
AcDbSymbolTableRecord
100
AcDbLayerTableRecord
  2
11_NOTES_PUB
 70
0
 62
7
  6
CONTINUOUS
370
-3
390
F
  0
LAYER
  5
208
100
AcDbSymbolTableRecord
100
AcDbLayerTableRecord
  2
13_REF_GTOL
 70
0
 62
7
  6
CONTINUOUS
370
-3
390
F
  0
LAYER
  5
209
100
AcDbSymbolTableRecord
100
AcDbLayerTableRecord
  2
16_MISC
 70
0
 62
7
  6
CONTINUOUS
370
-3
390
F
  0
LAYER
  5
20A
100
AcDbSymbolTableRecord
100
AcDbLayerTableRecord
  2
17_NO_PRINT
 70
0
 62
7
  6
CONTINUOUS
370
-3
390
F
  0
LAYER
  5
20B
100
AcDbSymbolTableRecord
100
AcDbLayerTableRecord
  2
18_DATUM_CAMS_JOINTS
 70
0
 62
7
  6
CONTINUOUS
370
-3
390
F
  0
LAYER
  5
20C
100
AcDbSymbolTableRecord
100
AcDbLayerTableRecord
  2
19_DATUM_FUNCTIONAL
 70
0
 62
7
  6
CONTINUOUS
370
-3
390
F
  0
LAYER
  5
20D
100
AcDbSymbolTableRecord
100
AcDbLayerTableRecord
  2
20_DATUM_KINEMATIC_SCHEME
 70
0
 62
7
  6
CONTINUOUS
370
-3
390
F
  0
ENDTAB
  0
TABLE
  2
STYLE
  5
3
100
AcDbSymbolTable
 70
1
  0
STYLE
  5
11
100
AcDbSymbolTableRecord
100
AcDbTextStyleTableRecord
  2
STANDARD
 70
0
 40
0.0
 41
1.0
 50
0.0
 71
0
 42
0.2
  3
ARIAL.TTF
  4

  0
STYLE
  5
20E
100
AcDbSymbolTableRecord
100
AcDbTextStyleTableRecord
  2
TEXTSTYLE_1
 70
0
 40
0.0
 41
0.8
 50
0.0
 71
0
 42
0.2
  3
gdt
  4

  0
ENDTAB
  0
TABLE
  2
VIEW
  5
6
100
AcDbSymbolTable
 70
0
  0
ENDTAB
  0
TABLE
  2
UCS
  5
7
100
AcDbSymbolTable
 70
0
  0
ENDTAB
  0
TABLE
  2
APPID
  5
9
100
AcDbSymbolTable
 70
1
  0
APPID
  5
20F
100
AcDbSymbolTableRecord
100
AcDbRegAppTableRecord
  2
ACAD
 70
0
  0
ENDTAB
  0
TABLE
  2
BLOCK_RECORD
  5
1
100
AcDbSymbolTable
 70
0
  0
BLOCK_RECORD
  5
210
100
AcDbSymbolTableRecord
100
AcDbBlockTableRecord
  2
*Model_Space
  0
BLOCK_RECORD
  5
211
100
AcDbSymbolTableRecord
100
AcDbBlockTableRecord
  2
*Paper_Space
  0
BLOCK_RECORD
  5
212
100
AcDbSymbolTableRecord
100
AcDbBlockTableRecord
  2
_FILLED
  0
ENDTAB
  0
TABLE
  2
DIMSTYLE
  5
A
100
AcDbSymbolTable
 70
1
100
AcDbDimStyleTable
 71
0
  0
DIMSTYLE
105
213
100
AcDbSymbolTableRecord
100
AcDbDimStyleTableRecord
  2
STANDARD
 70
0
  3

  4

 40
1.0
 41
1.4874735809
 42
1.0
 43
0.38
 44
1.0
 45
0.0
 46
0.0
 47
0.01
 48
0.01
140
2.0824630132
141
0.09
142
0.0
143
25.4
144
1.0
145
0.0
146
1.0
147
0.625
 71
1
 72
0
 73
0
 74
0
 75
0
 76
0
 77
1
 78
8
 79
2
170
0
171
1
172
0
173
0
174
0
175
0
176
0
177
0
178
0
270
2
179
2
271
2
272
2
273
2
274
2
275
0
280
0
281
0
282
0
283
1
284
8
285
0
286
0
287
3
288
0
340
11
278
46
341
212
342
212
343
212
344
212
  0
ENDTAB
  0
ENDSEC
  0
SECTION
  2
BLOCKS
  0
BLOCK
  5
20
100
AcDbEntity
  8
0
100
AcDbBlockBegin
  2
*Model_Space
 70
0
 10
0.0
 20
0.0
 30
0.0
  3
*Model_Space
  1

  0
ENDBLK
  5
21
100
AcDbEntity
  8
0
100
AcDbBlockEnd
  0
BLOCK
  5
1C
100
AcDbEntity
  8
0
100
AcDbBlockBegin
  2
*Paper_Space
 70
0
 10
0.0
 20
0.0
 30
0.0
  3
*Paper_Space
  1

  0
ENDBLK
  5
1D
100
AcDbEntity
  8
0
100
AcDbBlockEnd
  0
BLOCK
  5
214
100
AcDbEntity
  8
0
100
AcDbBlockBegin
  2
_FILLED
 70
64
 10
0.0
 20
0.0
  3
_FILLED
  1

  0
SOLID
  5
215
100
AcDbEntity
  8
0
  6
BYBLOCK
 62
0
100
AcDbTrace
 10
0.0
 20
0.0
 11
-1.0
 21
0.25
 12
-1.0
 22
-0.25
 13
-1.0
 23
-0.25
  0
ENDBLK
  5
216
100
AcDbEntity
  8
0
  6
BYBLOCK
 62
0
100
AcDbBlockEnd
  0
ENDSEC
  0
SECTION
  2
ENTITIES
  0
LINE
  5
217
100
AcDbEntity
  8
0
100
AcDbLine
 62
7
  6
BYLAYER
 10
14.9692152963
 20
62.5967474141
 11
15.0888503882
 21
62.2032851465
  0
LINE
  5
218
100
AcDbEntity
  8
0
100
AcDbLine
 62
7
  6
BYLAYER
 10
14.4953801304
 20
76.0714163164
 11
14.4953801304
 21
86.7675979808
  0
LINE
  5
219
100
AcDbEntity
  8
0
100
AcDbLine
 62
7
  6
BYLAYER
 10
14.9691559741
 20
75.700389706
 11
14.9691559741
 21
62.5967473955
  0
LINE
  5
21A
100
AcDbEntity
  8
0
100
AcDbLine
 62
7
  6
BYLAYER
 10
15.0888503882
 20
62.2032851465
 11
15.0888503882
 21
75.5939247874
  0
LINE
  5
21B
100
AcDbEntity
  8
0
100
AcDbLine
 62
7
  6
BYLAYER
 10
54.1039295238
 20
40.1091647623
 11
62.0119560479
 21
36.4281643383
  0
LINE
  5
21C
100
AcDbEntity
  8
0
100
AcDbLine
 62
7
  6
BYLAYER
 10
19.7975931869
 20
56.8811866611
 11
19.7975931869
 21
58.6736392947
  0
LINE
  5
21D
100
AcDbEntity
  8
0
100
AcDbLine
 62
7
  6
BYLAYER
 10
19.7975931869
 20
89.9495345549
 11
19.7975931869
 21
99.012711385
  0
LINE
  5
21E
100
AcDbEntity
  8
0
100
AcDbLine
 62
7
  6
BYLAYER
 10
48.3929411981
 20
46.1692381361
 11
48.6831892609
 21
46.0016671299
  0
LINE
  5
21F
100
AcDbEntity
  8
0
100
AcDbLine
 62
7
  6
BYLAYER
 10
53.8446429487
 20
126.9163418069
 11
30.3334403614
 21
113.3422236907
  0
LINE
  5
220
100
AcDbEntity
  8
0
100
AcDbLine
 62
7
  6
BYLAYER
 10
30.3334403614
 20
104.7689566741
 11
30.3334403614
 21
113.3422236907
  0
LINE
  5
221
100
AcDbEntity
  8
0
100
AcDbLine
 62
7
  6
BYLAYER
 10
75.7648619023
 20
137.857255501
 11
80.7145887628
 21
140.7149645781
  0
LINE
  5
222
100
AcDbEntity
  8
0
100
AcDbLine
 62
7
  6
BYLAYER
 10
33.7992152386
 20
112.5262931432
 11
38.4297996108
 21
115.1997463186
  0
LINE
  5
223
100
AcDbEntity
  8
0
100
AcDbLine
 62
7
  6
BYLAYER
 10
75.7648619023
 20
134.999497041
 11
57.8045258373
 21
124.6301540758
  0
LINE
  5
224
100
AcDbEntity
  8
0
100
AcDbLine
 62
7
  6
BYLAYER
 10
31.3941862026
 20
87.5818297319
 11
31.3941862026
 21
88.0600469892
  0
LINE
  5
225
100
AcDbEntity
  8
0
100
AcDbLine
 62
7
  6
BYLAYER
 10
32.2427178727
 20
86.9075612077
 11
32.2427178727
 21
84.8105226405
  0
LINE
  5
226
100
AcDbEntity
  8
0
100
AcDbLine
 62
7
  6
BYLAYER
 10
19.7975931869
 20
99.012711385
 11
30.0505988265
 21
104.9322516162
  0
LINE
  5
227
100
AcDbEntity
  8
0
100
AcDbLine
 62
7
  6
BYLAYER
 10
62.6026779806
 20
121.8600023134
 11
80.5630140457
 21
132.2293452787
  0
LINE
  5
228
100
AcDbEntity
  8
0
100
AcDbLine
 62
7
  6
BYLAYER
 10
45.4301858898
 20
111.1581628488
 11
40.0063604639
 21
108.0267344713
  0
LINE
  5
229
100
AcDbEntity
  8
0
100
AcDbLine
 62
7
  6
BYLAYER
 10
38.8895492891
 20
83.254477734
 11
38.8895492891
 21
83.8232049419
  0
LINE
  5
22A
100
AcDbEntity
  8
0
100
AcDbLine
 62
7
  6
BYLAYER
 10
39.7380809593
 20
82.7645888286
 11
39.7380809593
 21
80.4831706426
  0
LINE
  5
22B
100
AcDbEntity
  8
0
100
AcDbLine
 62
7
  6
BYLAYER
 10
14.4953801304
 20
86.7675979808
 11
18.4522433833
 21
89.1749401871
  0
LINE
  5
22C
100
AcDbEntity
  8
0
100
AcDbLine
 62
7
  6
BYLAYER
 10
33.3033023846
 20
103.217641127
 11
33.1618816171
 21
103.1359922963
  0
LINE
  5
22D
100
AcDbEntity
  8
0
100
AcDbLine
 62
7
  6
BYLAYER
 10
42.7421477479
 20
106.258630506
 11
48.3293357629
 21
109.4843757553
  0
LINE
  5
22E
100
AcDbEntity
  8
0
100
AcDbLine
 62
7
  6
BYLAYER
 10
40.4451847965
 20
80.8914147964
 11
40.4451847965
 21
81.228648967
  0
LINE
  5
22F
100
AcDbEntity
  8
0
100
AcDbLine
 62
7
  6
BYLAYER
 10
40.5866126295
 20
80.4824253677
 11
40.5866126295
 21
80.4096992163
  0
LINE
  5
230
100
AcDbEntity
  8
0
100
AcDbLine
 62
7
  6
BYLAYER
 10
18.4540958962
 20
89.1738706625
 11
19.7975931869
 21
89.9495345549
  0
LINE
  5
231
100
AcDbEntity
  8
0
100
AcDbLine
 62
7
  6
BYLAYER
 10
55.3297220418
 20
105.4427922856
 11
49.7425340269
 21
102.2170470362
  0
LINE
  5
232
100
AcDbEntity
  8
0
100
AcDbLine
 62
7
  6
BYLAYER
 10
18.4522433833
 20
89.1749401871
 11
50.1344640956
 21
70.8836153354
  0
LINE
  5
233
100
AcDbEntity
  8
0
100
AcDbLine
 62
7
  6
BYLAYER
 10
45.9583557645
 20
57.8994204064
 11
45.9583557645
 21
44.5087807655
  0
LINE
  5
234
100
AcDbEntity
  8
0
100
AcDbLine
 62
7
  6
BYLAYER
 10
45.9647984217
 20
68.5991318847
 11
45.9647984217
 21
57.9029502203
  0
LINE
  5
235
100
AcDbEntity
  8
0
100
AcDbLine
 62
7
  6
BYLAYER
 10
46.3849123757
 20
78.9271257361
 11
46.3849123757
 21
79.5803276698
  0
LINE
  5
236
100
AcDbEntity
  8
0
100
AcDbLine
 62
7
  6
BYLAYER
 10
47.2334440458
 20
78.4372368307
 11
47.2334440458
 21
76.1558186447
  0
LINE
  5
237
100
AcDbEntity
  8
0
100
AcDbLine
 62
7
  6
BYLAYER
 10
47.2334440458
 20
45.2073782802
 11
47.2334440458
 21
44.6388253435
  0
LINE
  5
238
100
AcDbEntity
  8
0
100
AcDbLine
 62
7
  6
BYLAYER
 10
47.2334440458
 20
79.0904387644
 11
47.2334440458
 21
79.6380169697
  0
LINE
  5
239
100
AcDbEntity
  8
0
100
AcDbLine
 62
7
  6
BYLAYER
 10
47.9405478831
 20
45.0470694973
 11
47.9405478831
 21
45.5947875212
  0
LINE
  5
23A
100
AcDbEntity
  8
0
100
AcDbLine
 62
7
  6
BYLAYER
 10
47.9405478831
 20
76.5640627985
 11
47.9405478831
 21
78.8454809845
  0
LINE
  5
23B
100
AcDbEntity
  8
0
100
AcDbLine
 62
7
  6
BYLAYER
 10
48.081975716
 20
77.9473479253
 11
48.081975716
 21
75.6659297392
  0
LINE
  5
23C
100
AcDbEntity
  8
0
100
AcDbLine
 62
7
  6
BYLAYER
 10
48.081975716
 20
45.6722732405
 11
48.081975716
 21
44.148936438
  0
LINE
  5
23D
100
AcDbEntity
  8
0
100
AcDbLine
 62
7
  6
BYLAYER
 10
48.081975716
 20
78.600549859
 11
48.081975716
 21
78.6603852
  0
LINE
  5
23E
100
AcDbEntity
  8
0
100
AcDbLine
 62
7
  6
BYLAYER
 10
48.3929411981
 20
45.8426455325
 11
48.3929411981
 21
59.2332851734
  0
LINE
  5
23F
100
AcDbEntity
  8
0
100
AcDbLine
 62
7
  6
BYLAYER
 10
48.6831892609
 20
59.3923067708
 11
48.6831892609
 21
46.0016671299
  0
LINE
  5
240
100
AcDbEntity
  8
0
100
AcDbLine
 62
7
  6
BYLAYER
 10
52.8050464891
 20
100.6375768145
 11
58.2288719149
 21
103.769005192
  0
LINE
  5
241
100
AcDbEntity
  8
0
100
AcDbLine
 62
7
  6
BYLAYER
 10
31.6656251871
 20
87.7385441673
 11
31.3941862026
 21
87.5818297319
  0
LINE
  5
242
100
AcDbEntity
  8
0
100
AcDbLine
 62
7
  6
BYLAYER
 10
48.6094564116
 20
77.6428136932
 11
48.081975716
 21
77.9473479253
  0
LINE
  5
243
100
AcDbEntity
  8
0
100
AcDbLine
 62
7
  6
BYLAYER
 10
47.2334440458
 20
78.4372368307
 11
46.3849123757
 21
78.9271257361
  0
LINE
  5
244
100
AcDbEntity
  8
0
100
AcDbLine
 62
7
  6
BYLAYER
 10
39.7380809593
 20
82.7645888286
 11
38.8895492891
 21
83.254477734
  0
LINE
  5
245
100
AcDbEntity
  8
0
100
AcDbLine
 62
7
  6
BYLAYER
 10
32.1198657454
 20
87.1628679307
 11
31.3941862026
 21
87.5818297319
  0
LINE
  5
246
100
AcDbEntity
  8
0
100
AcDbLine
 62
7
  6
BYLAYER
 10
46.3849123757
 20
79.5803276698
 11
47.2334440458
 21
79.0904387644
  0
LINE
  5
247
100
AcDbEntity
  8
0
100
AcDbLine
 62
7
  6
BYLAYER
 10
48.081975716
 20
78.600549859
 11
48.1340241336
 21
78.5705003709
  0
LINE
  5
248
100
AcDbEntity
  8
0
100
AcDbLine
 62
7
  6
BYLAYER
 10
47.9405478831
 20
78.8454809845
 11
47.3748503276
 21
79.1720792319
  0
LINE
  5
249
100
AcDbEntity
  8
0
100
AcDbLine
 62
7
  6
BYLAYER
 10
50.1326115827
 20
70.88468486
 11
50.1326115827
 21
46.8795137964
  0
LINE
  5
24A
100
AcDbEntity
  8
0
100
AcDbLine
 62
7
  6
BYLAYER
 10
50.1344640956
 20
46.7967940301
 11
50.1344640956
 21
70.8836153354
  0
LINE
  5
24B
100
AcDbEntity
  8
0
100
AcDbLine
 62
7
  6
BYLAYER
 10
51.4761088735
 20
80.7235255825
 11
51.4761088735
 21
71.6603487524
  0
LINE
  5
24C
100
AcDbEntity
  8
0
100
AcDbLine
 62
7
  6
BYLAYER
 10
51.4761088735
 20
47.6551776888
 11
51.4761088735
 21
38.5920008586
  0
LINE
  5
24D
100
AcDbEntity
  8
0
100
AcDbLine
 62
7
  6
BYLAYER
 10
101.8151078759
 20
126.2892648439
 11
106.7648347364
 21
129.146973921
  0
LINE
  5
24E
100
AcDbEntity
  8
0
100
AcDbLine
 62
7
  6
BYLAYER
 10
32.2427178727
 20
84.8105226405
 11
32.840084959
 21
85.1554106299
  0
LINE
  5
24F
100
AcDbEntity
  8
0
100
AcDbLine
 62
7
  6
BYLAYER
 10
58.7592524898
 20
88.3576776625
 11
58.7592524898
 21
88.5209739643
  0
LINE
  5
250
100
AcDbEntity
  8
0
100
AcDbLine
 62
7
  6
BYLAYER
 10
65.2292581939
 20
99.7274217223
 11
60.5986738217
 21
97.0539685468
  0
LINE
  5
251
100
AcDbEntity
  8
0
100
AcDbLine
 62
7
  6
BYLAYER
 10
39.2373688104
 20
83.4552902296
 11
38.8895492891
 21
83.254477734
  0
LINE
  5
252
100
AcDbEntity
  8
0
100
AcDbLine
 62
7
  6
BYLAYER
 10
112.3931044494
 20
125.1694343196
 11
107.4433775889
 21
122.3117252425
  0
LINE
  5
253
100
AcDbEntity
  8
0
100
AcDbLine
 62
7
  6
BYLAYER
 10
102.6452254456
 20
119.4804630009
 11
84.6848893805
 21
109.1111200356
  0
LINE
  5
254
100
AcDbEntity
  8
0
100
AcDbLine
 62
7
  6
BYLAYER
 10
39.7846207591
 20
82.7914584342
 11
39.7380809593
 21
82.7645888286
  0
LINE
  5
255
100
AcDbEntity
  8
0
100
AcDbLine
 62
7
  6
BYLAYER
 10
85.5231586353
 20
108.6271560044
 11
62.0119560479
 21
95.0530378882
  0
LINE
  5
256
100
AcDbEntity
  8
0
100
AcDbLine
 62
7
  6
BYLAYER
 10
39.7380809593
 20
80.4831706426
 11
40.4451847965
 21
80.8914147964
  0
LINE
  5
257
100
AcDbEntity
  8
0
100
AcDbLine
 62
7
  6
BYLAYER
 10
107.4433775889
 20
64.3725063005
 11
104.3637562718
 21
65.4522551773
  0
LINE
  5
258
100
AcDbEntity
  8
0
100
AcDbLine
 62
7
  6
BYLAYER
 10
61.7291145131
 20
86.6430658137
 11
61.7291145131
 21
44.5115410898
  0
LINE
  5
259
100
AcDbEntity
  8
0
100
AcDbLine
 62
7
  6
BYLAYER
 10
62.0119560479
 20
95.0530378882
 11
62.0119560479
 21
36.4281643383
  0
LINE
  5
25A
100
AcDbEntity
  8
0
100
AcDbLine
 62
7
  6
BYLAYER
 10
107.4433775889
 20
116.7103112385
 11
85.5231586353
 21
104.0547424685
  0
LINE
  5
25B
100
AcDbEntity
  8
0
100
AcDbLine
 62
7
  6
BYLAYER
 10
80.1138142806
 20
100.8500244497
 11
76.3661639434
 21
98.6863304342
  0
LINE
  5
25C
100
AcDbEntity
  8
0
100
AcDbLine
 62
7
  6
BYLAYER
 10
58.7592524898
 20
88.5209739643
 11
58.6178317224
 21
88.4393251335
  0
LINE
  5
25D
100
AcDbEntity
  8
0
100
AcDbLine
 62
7
  6
BYLAYER
 10
46.9506099312
 20
79.2537294225
 11
46.3849123757
 21
78.9271257361
  0
LINE
  5
25E
100
AcDbEntity
  8
0
100
AcDbLine
 62
7
  6
BYLAYER
 10
47.5921040703
 20
79.29750999
 11
47.2334440458
 21
79.0904387644
  0
LINE
  5
25F
100
AcDbEntity
  8
0
100
AcDbLine
 62
7
  6
BYLAYER
 10
30.0505988265
 20
104.9322516162
 11
33.1618816171
 21
103.1359922963
  0
LINE
  5
260
100
AcDbEntity
  8
0
100
AcDbLine
 62
7
  6
BYLAYER
 10
58.6178317224
 20
88.4393251335
 11
61.7291145131
 21
86.6430658137
  0
LINE
  5
261
100
AcDbEntity
  8
0
100
AcDbLine
 62
7
  6
BYLAYER
 10
58.7592524898
 20
88.5209739643
 11
33.3033023846
 21
103.217641127
  0
LINE
  5
262
100
AcDbEntity
  8
0
100
AcDbLine
 62
7
  6
BYLAYER
 10
47.9405478831
 20
78.8454809845
 11
47.2334440458
 21
78.4372368307
  0
LINE
  5
263
100
AcDbEntity
  8
0
100
AcDbLine
 62
7
  6
BYLAYER
 10
61.7291145131
 20
86.6430658137
 11
51.4761088735
 21
80.7235255825
  0
LINE
  5
264
100
AcDbEntity
  8
0
100
AcDbLine
 62
7
  6
BYLAYER
 10
48.3914143138
 20
78.1260013166
 11
48.081975716
 21
77.9473479253
  0
LINE
  5
265
100
AcDbEntity
  8
0
100
AcDbLine
 62
7
  6
BYLAYER
 10
47.2334440458
 20
76.1558186447
 11
47.9405478831
 21
76.5640627985
  0
LINE
  5
266
100
AcDbEntity
  8
0
100
AcDbLine
 62
7
  6
BYLAYER
 10
112.3931044494
 20
110.9130946941
 11
108.0090606587
 21
108.3819809401
  0
LINE
  5
267
100
AcDbEntity
  8
0
100
AcDbLine
 62
7
  6
BYLAYER
 10
108.05348907
 20
108.121805608
 11
109.0343403205
 21
108.6880969612
  0
LINE
  5
268
100
AcDbEntity
  8
0
100
AcDbLine
 62
7
  6
BYLAYER
 10
109.9182410192
 20
79.9268526554
 11
112.3931044494
 21
79.3546831779
  0
LINE
  5
269
100
AcDbEntity
  8
0
100
AcDbLine
 62
7
  6
BYLAYER
 10
100.9379681176
 20
125.0413855108
 11
101.8151078759
 21
126.2892648439
  0
LINE
  5
26A
100
AcDbEntity
  8
0
100
AcDbLine
 62
7
  6
BYLAYER
 10
51.4761088735
 20
71.6603487524
 11
50.1326115827
 21
70.88468486
  0
LINE
  5
26B
100
AcDbEntity
  8
0
100
AcDbLine
 62
7
  6
BYLAYER
 10
50.1344640956
 20
70.8836153354
 11
45.9647984217
 21
68.5991318847
  0
LINE
  5
26C
100
AcDbEntity
  8
0
100
AcDbLine
 62
7
  6
BYLAYER
 10
75.7648619023
 20
137.857255501
 11
75.7648619023
 21
134.999497041
  0
LINE
  5
26D
100
AcDbEntity
  8
0
100
AcDbLine
 62
7
  6
BYLAYER
 10
76.3661639434
 20
98.6863304342
 11
76.3661639434
 21
49.3695844395
  0
LINE
  5
26E
100
AcDbEntity
  8
0
100
AcDbLine
 62
7
  6
BYLAYER
 10
38.4297996108
 20
115.1997463186
 11
45.4301858898
 21
111.1581628488
  0
LINE
  5
26F
100
AcDbEntity
  8
0
100
AcDbLine
 62
7
  6
BYLAYER
 10
48.3293357629
 20
109.4843757553
 11
55.3297220418
 21
105.4427922856
  0
LINE
  5
270
100
AcDbEntity
  8
0
100
AcDbLine
 62
7
  6
BYLAYER
 10
58.2288719149
 20
103.769005192
 11
65.2292581939
 21
99.7274217223
  0
LINE
  5
271
100
AcDbEntity
  8
0
100
AcDbLine
 62
7
  6
BYLAYER
 10
108.5040333447
 20
78.2121845084
 11
109.4232683331
 21
77.6814759466
  0
LINE
  5
272
100
AcDbEntity
  8
0
100
AcDbLine
 62
7
  6
BYLAYER
 10
80.1138142806
 20
105.5040882273
 11
80.1138142806
 21
100.8500244497
  0
LINE
  5
273
100
AcDbEntity
  8
0
100
AcDbLine
 62
7
  6
BYLAYER
 10
80.1138142806
 20
51.5332784551
 11
80.1138142806
 21
46.8792146774
  0
LINE
  5
274
100
AcDbEntity
  8
0
100
AcDbLine
 62
7
  6
BYLAYER
 10
45.9583557645
 20
57.8994204064
 11
48.6831892609
 21
59.3923067708
  0
LINE
  5
275
100
AcDbEntity
  8
0
100
AcDbLine
 62
7
  6
BYLAYER
 10
108.5040333447
 20
79.8451893426
 11
109.4232683331
 21
79.3144807809
  0
LINE
  5
276
100
AcDbEntity
  8
0
100
AcDbLine
 62
7
  6
BYLAYER
 10
108.5040333447
 20
80.4983829131
 11
109.706109868
 21
79.8043794093
  0
LINE
  5
277
100
AcDbEntity
  8
0
100
AcDbLine
 62
7
  6
BYLAYER
 10
108.5040333447
 20
80.7433273658
 11
109.9182410192
 21
79.9268526554
  0
LINE
  5
278
100
AcDbEntity
  8
0
100
AcDbLine
 62
7
  6
BYLAYER
 10
108.5040333447
 20
81.5999886315
 11
112.3931044494
 21
79.3546831779
  0
LINE
  5
279
100
AcDbEntity
  8
0
100
AcDbLine
 62
7
  6
BYLAYER
 10
85.5231586353
 20
108.6271560044
 11
85.5231586353
 21
104.0547424685
  0
LINE
  5
27A
100
AcDbEntity
  8
0
100
AcDbLine
 62
7
  6
BYLAYER
 10
85.5231586353
 20
54.5746959905
 11
85.5231586353
 21
50.0022824545
  0
LINE
  5
27B
100
AcDbEntity
  8
0
100
AcDbLine
 62
7
  6
BYLAYER
 10
48.435298594
 20
123.7932740298
 11
80.1138142806
 21
105.5040882273
  0
LINE
  5
27C
100
AcDbEntity
  8
0
100
AcDbLine
 62
7
  6
BYLAYER
 10
53.8446429487
 20
126.9163418069
 11
85.5231586353
 21
108.6271560044
  0
LINE
  5
27D
100
AcDbEntity
  8
0
100
AcDbLine
 62
7
  6
BYLAYER
 10
109.2818700407
 20
109.1168333929
 11
109.0343403205
 21
108.6880969612
  0
LINE
  5
27E
100
AcDbEntity
  8
0
100
AcDbLine
 62
7
  6
BYLAYER
 10
51.4761088735
 20
47.6551776888
 11
50.1326115827
 21
46.8795137964
  0
LINE
  5
27F
100
AcDbEntity
  8
0
100
AcDbLine
 62
7
  6
BYLAYER
 10
47.2334440458
 20
44.6388253435
 11
47.9405478831
 21
45.0470694973
  0
LINE
  5
280
100
AcDbEntity
  8
0
100
AcDbLine
 62
7
  6
BYLAYER
 10
109.9182410192
 20
79.9268526554
 11
109.706109868
 21
79.8043794093
  0
LINE
  5
281
100
AcDbEntity
  8
0
100
AcDbLine
 62
7
  6
BYLAYER
 10
109.4232683331
 20
77.6814759466
 11
108.5040333447
 21
77.1507585466
  0
LINE
  5
282
100
AcDbEntity
  8
0
100
AcDbLine
 62
7
  6
BYLAYER
 10
45.9583557645
 20
44.5087807655
 11
48.3929411981
 21
45.8426455325
  0
LINE
  5
283
100
AcDbEntity
  8
0
100
AcDbLine
 62
7
  6
BYLAYER
 10
48.6831892609
 20
46.0016671299
 11
50.1344640956
 21
46.7967940301
  0
LINE
  5
284
100
AcDbEntity
  8
0
100
AcDbLine
 62
7
  6
BYLAYER
 10
61.7291145131
 20
44.5115410898
 11
51.4761088735
 21
38.5920008586
  0
LINE
  5
285
100
AcDbEntity
  8
0
100
AcDbLine
 62
7
  6
BYLAYER
 10
80.1138142806
 20
51.5332784551
 11
76.3661639434
 21
49.3695844395
  0
LINE
  5
286
100
AcDbEntity
  8
0
100
AcDbLine
 62
7
  6
BYLAYER
 10
107.4433775889
 20
67.2302647605
 11
85.5231586353
 21
54.5746959905
  0
LINE
  5
287
100
AcDbEntity
  8
0
100
AcDbLine
 62
7
  6
BYLAYER
 10
107.4433775889
 20
64.3725063005
 11
112.3931044494
 21
67.2302153776
  0
LINE
  5
288
100
AcDbEntity
  8
0
100
AcDbLine
 62
7
  6
BYLAYER
 10
107.4433775889
 20
64.3725063005
 11
107.4433775889
 21
67.2302647605
  0
LINE
  5
289
100
AcDbEntity
  8
0
100
AcDbLine
 62
7
  6
BYLAYER
 10
107.4433775889
 20
116.7103112385
 11
107.4433775889
 21
122.3117252425
  0
LINE
  5
28A
100
AcDbEntity
  8
0
100
AcDbLine
 62
7
  6
BYLAYER
 10
108.5040333447
 20
77.1507585466
 11
108.5040333447
 21
105.4833924209
  0
LINE
  5
28B
100
AcDbEntity
  8
0
100
AcDbLine
 62
7
  6
BYLAYER
 10
109.4232683331
 20
79.3144807809
 11
109.4232683331
 21
77.6814759466
  0
LINE
  5
28C
100
AcDbEntity
  8
0
100
AcDbLine
 62
7
  6
BYLAYER
 10
109.4232683331
 20
79.3144807809
 11
109.706109868
 21
79.8043794093
  0
LINE
  5
28D
100
AcDbEntity
  8
0
100
AcDbLine
 62
7
  6
BYLAYER
 10
62.0119560479
 20
36.4281643383
 11
85.5231586353
 21
50.0022824545
  0
LINE
  5
28E
100
AcDbEntity
  8
0
100
AcDbLine
 62
7
  6
BYLAYER
 10
75.7648619023
 20
134.999497041
 11
80.5630140457
 21
132.2293452787
  0
LINE
  5
28F
100
AcDbEntity
  8
0
100
AcDbLine
 62
7
  6
BYLAYER
 10
102.6452254456
 20
119.4804630009
 11
107.4433775889
 21
116.7103112385
  0
LINE
  5
290
100
AcDbEntity
  8
0
100
AcDbLine
 62
7
  6
BYLAYER
 10
108.0090606587
 20
108.3819809401
 11
108.5040333447
 21
105.483392421
  0
LINE
  5
291
100
AcDbEntity
  8
0
100
AcDbLine
 62
7
  6
BYLAYER
 10
112.3931044494
 20
67.2302153776
 11
112.3931044494
 21
79.3546831779
  0
LINE
  5
292
100
AcDbEntity
  8
0
100
AcDbLine
 62
7
  6
BYLAYER
 10
112.3931044494
 20
110.9130946941
 11
112.3931044494
 21
125.1694343197
  0
ARC
  5
293
100
AcDbEntity
  8
0
100
AcDbCircle
 62
7
  6
BYLAYER
 10
99.3819944735
 20
190.6079746609
 40
143.0556623383
100
AcDbArc
 50
245.6965016932
 51
245.837638089
  0
ARC
  5
294
100
AcDbEntity
  8
0
100
AcDbCircle
 62
7
  6
BYLAYER
 10
90.6312529357
 20
173.1621181339
 40
123.5323033434
100
AcDbArc
 50
240.2873013762
 51
241.2550039387
  0
ARC
  5
295
100
AcDbEntity
  8
0
100
AcDbCircle
 62
7
  6
BYLAYER
 10
88.5500738575
 20
169.5107208804
 40
119.3294468239
100
AcDbArc
 50
238.8927184707
 51
240.2862113553
  0
ARC
  5
296
100
AcDbEntity
  8
0
100
AcDbCircle
 62
7
  6
BYLAYER
 10
76.2527665837
 20
151.0060876167
 40
97.0986447411
100
AcDbArc
 50
231.7805608303
 51
233.5129277306
  0
ARC
  5
297
100
AcDbEntity
  8
0
100
AcDbCircle
 62
7
  6
BYLAYER
 10
42.8354690133
 20
83.9002602791
 40
3.842734674
100
AcDbArc
 50
231.5357012871
 51
232.9223362626
  0
ARC
  5
298
100
AcDbEntity
  8
0
100
AcDbCircle
 62
7
  6
BYLAYER
 10
50.2838534996
 20
47.9949073228
 40
3.7657441572
100
AcDbArc
 50
231.5179856961
 51
234.2071479648
  0
ARC
  5
299
100
AcDbEntity
  8
0
100
AcDbCircle
 62
7
  6
BYLAYER
 10
50.2838534996
 20
79.5119006239
 40
3.7657441572
100
AcDbArc
 50
231.5179856961
 51
234.2071479648
  0
SPLINE
  5
29A
100
AcDbEntity
  8
0
100
AcDbSpline
 62
7
  6
BYLAYER
 70
0
 71
3
 72
9
 73
5
 74
0
 42
0.0000001
 43
0.0000001
 44
0.0000000001
 40
0.0
 40
0.0
 40
0.0
 40
0.0
 40
0.2379640532
 40
1.0
 40
1.0
 40
1.0
 40
1.0
 10
48.5942373395
 20
44.0379221742
 30
0.0
 10
48.552659722
 20
44.0405018468
 30
0.0
 10
48.3783910845
 20
44.0584986603
 30
0.0
 10
48.2074734134
 20
44.1037029663
 30
0.0
 10
48.081975716
 20
44.148936438
 30
0.0
  0
SPLINE
  5
29B
100
AcDbEntity
  8
0
100
AcDbSpline
 62
7
  6
BYLAYER
 70
0
 71
3
 72
9
 73
5
 74
0
 42
0.0000001
 43
0.0000001
 44
0.0000000001
 40
0.0
 40
0.0
 40
0.0
 40
0.0
 40
0.2443117062
 40
1.0
 40
1.0
 40
1.0
 40
1.0
 10
47.2334440458
 20
44.6388253435
 30
0.0
 10
47.2005839922
 20
44.6649241695
 30
0.0
 10
47.067803172
 20
44.7739050234
 30
0.0
 10
46.9418176703
 20
44.8911049557
 30
0.0
 10
46.8505181015
 20
44.9833656774
 30
0.0
  0
SPLINE
  5
29C
100
AcDbEntity
  8
0
100
AcDbSpline
 62
7
  6
BYLAYER
 70
0
 71
3
 72
16
 73
12
 74
0
 42
0.0000001
 43
0.0000001
 44
0.0000000001
 40
0.0
 40
0.0
 40
0.0
 40
0.0
 40
0.1208429569
 40
0.2477543466
 40
0.3784357579
 40
0.510332946
 40
0.6408243991
 40
0.7673742333
 40
0.8876911714
 40
0.9449570801
 40
1.0
 40
1.0
 40
1.0
 40
1.0
 10
32.2427178727
 20
84.8105226405
 30
0.0
 10
32.1083204354
 20
84.9172666941
 30
0.0
 10
31.8468097719
 20
85.1541885347
 30
0.0
 10
31.4905879711
 20
85.5579410846
 30
0.0
 10
31.1687952557
 20
86.0090815473
 30
0.0
 10
30.890945151
 20
86.4943406188
 30
0.0
 10
30.6651449528
 20
86.9995369426
 30
0.0
 10
30.4980448317
 20
87.5098079341
 30
0.0
 10
30.4102802853
 20
87.9339393462
 30
0.0
 10
30.3749772459
 20
88.2626430383
 30
0.0
 10
30.3688771011
 20
88.4222036725
 30
0.0
 10
30.3688771011
 20
88.5003797928
 30
0.0
  0
SPLINE
  5
29D
100
AcDbEntity
  8
0
100
AcDbSpline
 62
7
  6
BYLAYER
 70
0
 71
3
 72
9
 73
5
 74
0
 42
0.0000001
 43
0.0000001
 44
0.0000000001
 40
0.0
 40
0.0
 40
0.0
 40
0.0
 40
0.2558762082
 40
1.0
 40
1.0
 40
1.0
 40
1.0
 10
30.3688771011
 20
88.5003797928
 30
0.0
 10
30.3688771011
 20
88.5268574809
 30
0.0
 10
30.3702230785
 20
88.6303286606
 30
0.0
 10
30.3770479644
 20
88.7337516146
 30
0.0
 10
30.3856023741
 20
88.8102757823
 30
0.0
  0
SPLINE
  5
29E
100
AcDbEntity
  8
0
100
AcDbSpline
 62
7
  6
BYLAYER
 70
0
 71
3
 72
16
 73
12
 74
0
 42
0.0000001
 43
0.0000001
 44
0.0000000001
 40
0.0
 40
0.0
 40
0.0
 40
0.0
 40
0.1208429569
 40
0.2477543466
 40
0.3784357579
 40
0.510332946
 40
0.6408243991
 40
0.7673742333
 40
0.8876911714
 40
0.9449570801
 40
1.0
 40
1.0
 40
1.0
 40
1.0
 10
39.7380809593
 20
80.4831706426
 30
0.0
 10
39.603683522
 20
80.5899146962
 30
0.0
 10
39.3421728585
 20
80.8268365368
 30
0.0
 10
38.9859510576
 20
81.2305890867
 30
0.0
 10
38.6641583423
 20
81.6817295494
 30
0.0
 10
38.3863082375
 20
82.1669886208
 30
0.0
 10
38.1605080394
 20
82.6721849447
 30
0.0
 10
37.9934079182
 20
83.1824559362
 30
0.0
 10
37.9056433719
 20
83.6065873483
 30
0.0
 10
37.8703403325
 20
83.9352910404
 30
0.0
 10
37.8642401876
 20
84.0948516746
 30
0.0
 10
37.8642401876
 20
84.1730277949
 30
0.0
  0
SPLINE
  5
29F
100
AcDbEntity
  8
0
100
AcDbSpline
 62
7
  6
BYLAYER
 70
0
 71
3
 72
9
 73
5
 74
0
 42
0.0000001
 43
0.0000001
 44
0.0000000001
 40
0.0
 40
0.0
 40
0.0
 40
0.0
 40
0.2553822156
 40
1.0
 40
1.0
 40
1.0
 40
1.0
 10
37.8642401876
 20
84.1730277949
 30
0.0
 10
37.8642401876
 20
84.1974358158
 30
0.0
 10
37.8653861293
 20
84.2930047727
 30
0.0
 10
37.8711910381
 20
84.3885341567
 30
0.0
 10
37.8784393409
 20
84.4593305276
 30
0.0
  0
SPLINE
  5
2A0
100
AcDbEntity
  8
0
100
AcDbSpline
 62
7
  6
BYLAYER
 70
0
 71
3
 72
9
 73
5
 74
0
 42
0.0000001
 43
0.0000001
 44
0.0000000001
 40
0.0
 40
0.0
 40
0.0
 40
0.0
 40
0.2379640532
 40
1.0
 40
1.0
 40
1.0
 40
1.0
 10
48.5942373395
 20
75.5549154754
 30
0.0
 10
48.5526597221
 20
75.557495148
 30
0.0
 10
48.3783910845
 20
75.5754919615
 30
0.0
 10
48.2074734134
 20
75.6206962675
 30
0.0
 10
48.081975716
 20
75.6659297392
 30
0.0
  0
SPLINE
  5
2A1
100
AcDbEntity
  8
0
100
AcDbSpline
 62
7
  6
BYLAYER
 70
0
 71
3
 72
16
 73
12
 74
0
 42
0.0000001
 43
0.0000001
 44
0.0000000001
 40
0.0
 40
0.0
 40
0.0
 40
0.0
 40
0.1208429569
 40
0.2477543466
 40
0.3784357579
 40
0.510332946
 40
0.6408243991
 40
0.7673742333
 40
0.8876911714
 40
0.9449570801
 40
1.0
 40
1.0
 40
1.0
 40
1.0
 10
47.2334440458
 20
76.1558186447
 30
0.0
 10
47.0990466085
 20
76.2625626982
 30
0.0
 10
46.8375359451
 20
76.4994845389
 30
0.0
 10
46.4813141442
 20
76.9032370887
 30
0.0
 10
46.1595214288
 20
77.3543775515
 30
0.0
 10
45.8816713241
 20
77.8396366229
 30
0.0
 10
45.6558711259
 20
78.3448329468
 30
0.0
 10
45.4887710048
 20
78.8551039383
 30
0.0
 10
45.4010064585
 20
79.2792353504
 30
0.0
 10
45.365703419
 20
79.6079390425
 30
0.0
 10
45.3596032742
 20
79.7674996767
 30
0.0
 10
45.3596032742
 20
79.845675797
 30
0.0
  0
SPLINE
  5
2A2
100
AcDbEntity
  8
0
100
AcDbSpline
 62
7
  6
BYLAYER
 70
0
 71
3
 72
9
 73
5
 74
0
 42
0.0000001
 43
0.0000001
 44
0.0000000001
 40
0.0
 40
0.0
 40
0.0
 40
0.0
 40
0.5201446145
 40
1.0
 40
1.0
 40
1.0
 40
1.0
 10
45.3596032742
 20
79.845675797
 30
0.0
 10
45.3596032742
 20
79.9688142469
 30
0.0
 10
45.3737693573
 20
80.2058796237
 30
0.0
 10
45.4221649807
 20
80.4388055163
 30
0.0
 10
45.4550922452
 20
80.5475292553
 30
0.0
  0
SPLINE
  5
2A3
100
AcDbEntity
  8
0
100
AcDbSpline
 62
7
  6
BYLAYER
 70
0
 71
3
 72
11
 73
7
 74
0
 42
0.0000001
 43
0.0000001
 44
0.0000000001
 40
0.0
 40
0.0
 40
0.0
 40
0.0
 40
0.2339063048
 40
0.4788055405
 40
0.7343652634
 40
1.0
 40
1.0
 40
1.0
 40
1.0
 10
15.0888503882
 20
62.2032851465
 30
0.0
 10
17.2494558219
 20
60.4479877319
 30
0.0
 10
21.8368560331
 20
57.0539923298
 30
0.0
 10
29.2647948323
 20
52.433243931
 30
0.0
 10
37.3462540423
 20
48.196195076
 30
0.0
 10
43.0272404278
 20
45.693158488
 30
0.0
 10
45.9583557645
 20
44.5087807655
 30
0.0
  0
SPLINE
  5
2A4
100
AcDbEntity
  8
0
100
AcDbSpline
 62
7
  6
BYLAYER
 70
0
 71
3
 72
9
 73
5
 74
0
 42
0.0000001
 43
0.0000001
 44
0.0000000001
 40
0.0
 40
0.0
 40
0.0
 40
0.0
 40
0.2519311482
 40
1.0
 40
1.0
 40
1.0
 40
1.0
 10
45.9583557645
 20
57.8994204064
 30
0.0
 10
45.5239841871
 20
58.0749372185
 30
0.0
 10
43.8030370335
 20
58.7795617924
 30
0.0
 10
42.0951466879
 20
59.5161170875
 30
0.0
 10
40.8259120304
 20
60.0855331576
 30
0.0
  0
SPLINE
  5
2A5
100
AcDbEntity
  8
0
100
AcDbSpline
 62
7
  6
BYLAYER
 70
0
 71
3
 72
9
 73
5
 74
0
 42
0.0000001
 43
0.0000001
 44
0.0000000001
 40
0.0
 40
0.0
 40
0.0
 40
0.0
 40
0.2541465859
 40
1.0
 40
1.0
 40
1.0
 40
1.0
 10
40.5045747579
 20
60.2301698984
 30
0.0
 10
39.7038968179
 20
60.5917495128
 30
0.0
 10
36.5666697515
 20
62.0435072294
 30
0.0
 10
33.4835839792
 20
63.6128857228
 30
0.0
 10
31.2230614141
 20
64.8528537589
 30
0.0
  0
SPLINE
  5
2A6
100
AcDbEntity
  8
0
100
AcDbSpline
 62
7
  6
BYLAYER
 70
0
 71
3
 72
9
 73
5
 74
0
 42
0.0000001
 43
0.0000001
 44
0.0000000001
 40
0.0
 40
0.0
 40
0.0
 40
0.0
 40
0.2522069745
 40
1.0
 40
1.0
 40
1.0
 40
1.0
 10
26.8994525103
 20
67.340677488
 30
0.0
 10
26.5688166779
 20
67.5402459536
 30
0.0
 10
25.261795009
 20
68.3380536746
 30
0.0
 10
23.9707722349
 20
69.1621044592
 30
0.0
 10
23.0154345442
 20
69.7933872348
 30
0.0
  0
SPLINE
  5
2A7
100
AcDbEntity
  8
0
100
AcDbSpline
 62
7
  6
BYLAYER
 70
0
 71
3
 72
9
 73
5
 74
0
 42
0.0000001
 43
0.0000001
 44
0.0000000001
 40
0.0
 40
0.0
 40
0.0
 40
0.0
 40
0.2528198448
 40
1.0
 40
1.0
 40
1.0
 40
1.0
 10
23.0154345442
 20
69.7933872348
 30
0.0
 10
22.629264453
 20
70.0485666644
 30
0.0
 10
21.1082939661
 20
71.0676638471
 30
0.0
 10
19.6136566894
 20
72.126140848
 30
0.0
 10
18.5138929046
 20
72.9396461913
 30
0.0
  0
SPLINE
  5
2A8
100
AcDbEntity
  8
0
100
AcDbSpline
 62
7
  6
BYLAYER
 70
0
 71
3
 72
11
 73
7
 74
0
 42
0.0000001
 43
0.0000001
 44
0.0000000001
 40
0.0
 40
0.0
 40
0.0
 40
0.0
 40
0.2334792713
 40
0.4782400201
 40
0.7339491379
 40
1.0
 40
1.0
 40
1.0
 40
1.0
 10
14.4953801304
 20
76.0714163164
 30
0.0
 10
16.6841016159
 20
74.2644038259
 30
0.0
 10
21.3424711459
 20
70.7714363434
 30
0.0
 10
28.9066633779
 20
66.0233279447
 30
0.0
 10
37.1574197218
 20
61.6756683406
 30
0.0
 10
42.9657634684
 20
59.1137421062
 30
0.0
 10
45.9647984217
 20
57.9029502203
 30
0.0
  0
SPLINE
  5
2A9
100
AcDbEntity
  8
0
100
AcDbSpline
 62
7
  6
BYLAYER
 70
0
 71
3
 72
11
 73
7
 74
0
 42
0.0000001
 43
0.0000001
 44
0.0000000001
 40
0.0
 40
0.0
 40
0.0
 40
0.0
 40
0.2660508621
 40
0.5217599799
 40
0.7665207287
 40
1.0
 40
1.0
 40
1.0
 40
1.0
 10
45.9647984217
 20
68.5991318847
 30
0.0
 10
42.9657634684
 20
69.8099237705
 30
0.0
 10
37.1574197218
 20
72.371850005
 30
0.0
 10
28.9066633779
 20
76.7195096091
 30
0.0
 10
21.3424711459
 20
81.4676180078
 30
0.0
 10
16.6841016159
 20
84.9605854903
 30
0.0
 10
14.4953801304
 20
86.7675979808
 30
0.0
  0
SPLINE
  5
2AA
100
AcDbEntity
  8
0
100
AcDbSpline
 62
7
  6
BYLAYER
 70
0
 71
3
 72
11
 73
7
 74
0
 42
0.0000001
 43
0.0000001
 44
0.0000000001
 40
0.0
 40
0.0
 40
0.0
 40
0.0
 40
0.2301620101
 40
0.4676899967
 40
0.7224279049
 40
1.0
 40
1.0
 40
1.0
 40
1.0
 10
48.0702878696
 20
75.004377272
 30
0.0
 10
48.1897030221
 20
75.0733319077
 30
0.0
 10
48.4124356283
 20
75.2516655543
 30
0.0
 10
48.6572940154
 20
75.6156232071
 30
0.0
 10
48.8042685681
 20
76.0577958022
 30
0.0
 10
48.8338386628
 20
76.3780425189
 30
0.0
 10
48.8338386628
 20
76.5443405601
 30
0.0
  0
SPLINE
  5
2AB
100
AcDbEntity
  8
0
100
AcDbSpline
 62
7
  6
BYLAYER
 70
0
 71
3
 72
11
 73
7
 74
0
 42
0.0000001
 43
0.0000001
 44
0.0000000001
 40
0.0
 40
0.0
 40
0.0
 40
0.0
 40
0.2348712761
 40
0.4800560568
 40
0.7352652465
 40
1.0
 40
1.0
 40
1.0
 40
1.0
 10
19.7975931869
 20
56.8811866611
 30
0.0
 10
22.0404466158
 20
55.0865471707
 30
0.0
 10
26.7805982666
 20
51.6100769779
 30
0.0
 10
34.4174688385
 20
46.8485801888
 30
0.0
 10
42.687514316
 20
42.4557884682
 30
0.0
 10
48.4873478419
 20
39.8370129581
 30
0.0
 10
51.4761088735
 20
38.5920008586
 30
0.0
  0
SPLINE
  5
2AC
100
AcDbEntity
  8
0
100
AcDbSpline
 62
7
  6
BYLAYER
 70
0
 71
3
 72
12
 73
8
 74
0
 42
0.0000001
 43
0.0000001
 44
0.0000000001
 40
0.0
 40
0.0
 40
0.0
 40
0.0
 40
0.1111772093
 40
0.2237403479
 40
0.4587225237
 40
0.7158743285
 40
1.0
 40
1.0
 40
1.0
 40
1.0
 10
39.8823232373
 20
78.9318585899
 30
0.0
 10
39.9383506212
 20
78.9642110496
 30
0.0
 10
40.0460413465
 20
79.0385984654
 30
0.0
 10
40.2392673839
 20
79.2241823052
 30
0.0
 10
40.4320081026
 20
79.525210208
 30
0.0
 10
40.5672286294
 20
79.9604911158
 30
0.0
 10
40.5942690641
 20
80.2766860038
 30
0.0
 10
40.5942690641
 20
80.4420272926
 30
0.0
  0
SPLINE
  5
2AD
100
AcDbEntity
  8
0
100
AcDbSpline
 62
7
  6
BYLAYER
 70
0
 71
3
 72
12
 73
8
 74
0
 42
0.0000001
 43
0.0000001
 44
0.0000000001
 40
0.0
 40
0.0
 40
0.0
 40
0.0
 40
0.106824542
 40
0.2161339481
 40
0.4485852308
 40
0.7085887146
 40
1.0
 40
1.0
 40
1.0
 40
1.0
 10
32.2640669581
 20
83.1882590318
 30
0.0
 10
32.3163068538
 20
83.2184246115
 30
0.0
 10
32.4168604651
 20
83.288879475
 30
0.0
 10
32.5974016332
 20
83.4680409481
 30
0.0
 10
32.7762563373
 20
83.7633934229
 30
0.0
 10
32.9004596722
 20
84.1920069061
 30
0.0
 10
32.9250816076
 20
84.5044622591
 30
0.0
 10
32.9250816076
 20
84.6690223428
 30
0.0
  0
SPLINE
  5
2AE
100
AcDbEntity
  8
0
100
AcDbSpline
 62
7
  6
BYLAYER
 70
0
 71
3
 72
11
 73
7
 74
0
 42
0.0000001
 43
0.0000001
 44
0.0000000001
 40
0.0
 40
0.0
 40
0.0
 40
0.0
 40
0.2301620101
 40
0.4676899967
 40
0.7224279049
 40
1.0
 40
1.0
 40
1.0
 40
1.0
 10
48.0702878696
 20
43.4873839708
 30
0.0
 10
48.1897030221
 20
43.5563386065
 30
0.0
 10
48.4124356283
 20
43.7346722531
 30
0.0
 10
48.6572940154
 20
44.0986299059
 30
0.0
 10
48.8042685681
 20
44.540802501
 30
0.0
 10
48.8338386628
 20
44.8610492177
 30
0.0
 10
48.8338386628
 20
45.0273472589
 30
0.0
  0
SPLINE
  5
2AF
100
AcDbEntity
  8
0
100
AcDbSpline
 62
7
  6
BYLAYER
 70
0
 71
3
 72
20
 73
16
 74
0
 42
0.0000001
 43
0.0000001
 44
0.0000000001
 40
0.0
 40
0.0
 40
0.0
 40
0.0
 40
0.0632410823
 40
0.1305838857
 40
0.2740931214
 40
0.4231039573
 40
0.5688163473
 40
0.6378332493
 40
0.7030146375
 40
0.7636731929
 40
0.8193917823
 40
0.8701263032
 40
0.91633567
 40
0.9590727128
 40
1.0
 40
1.0
 40
1.0
 40
1.0
 10
32.9250816076
 20
84.6690223428
 30
0.0
 10
32.9250816076
 20
84.8039351051
 30
0.0
 10
32.9069637273
 20
85.082698416
 30
0.0
 10
32.8060895377
 20
85.6595107429
 30
0.0
 10
32.5628584446
 20
86.3925727644
 30
0.0
 10
32.1253260387
 20
87.2228210245
 30
0.0
 10
31.6563861163
 20
87.8462285196
 30
0.0
 10
31.2360442412
 20
88.2714230604
 30
0.0
 10
30.9156149325
 20
88.537434522
 30
0.0
 10
30.5912687891
 20
88.7508001703
 30
0.0
 10
30.2694910963
 20
88.9070204545
 30
0.0
 10
29.9564695109
 20
89.0024905354
 30
0.0
 10
29.6579939346
 20
89.0343631559
 30
0.0
 10
29.3803194551
 20
89.0002298379
 30
0.0
 10
29.2126322113
 20
88.9319623849
 30
0.0
 10
29.137022354
 20
88.8883014099
 30
0.0
  0
SPLINE
  5
2B0
100
AcDbEntity
  8
0
100
AcDbSpline
 62
7
  6
BYLAYER
 70
0
 71
3
 72
18
 73
14
 74
0
 42
0.0000001
 43
0.0000001
 44
0.0000000001
 40
0.0
 40
0.0
 40
0.0
 40
0.0
 40
0.1271878553
 40
0.2669573438
 40
0.4127097346
 40
0.5565149919
 40
0.6906602441
 40
0.752260665
 40
0.8095168624
 40
0.8623347916
 40
0.9110497985
 40
0.9564918657
 40
1.0
 40
1.0
 40
1.0
 40
1.0
 10
40.5942690641
 20
80.4420272926
 30
0.0
 10
40.5942690641
 20
80.7190700895
 30
0.0
 10
40.5118516197
 20
81.3013661716
 30
0.0
 10
40.2035753642
 20
82.1509271543
 30
0.0
 10
39.7307057928
 20
82.9634792573
 30
0.0
 10
39.1340637073
 20
83.6733279133
 30
0.0
 10
38.5584448196
 20
84.1469042018
 30
0.0
 10
38.0781332906
 20
84.4196038264
 30
0.0
 10
37.7306661106
 20
84.5611155908
 30
0.0
 10
37.3928067257
 20
84.6420678873
 30
0.0
 10
37.0711019995
 20
84.6599823267
 30
0.0
 10
36.7724432811
 20
84.6131373159
 30
0.0
 10
36.5915628907
 20
84.5373877931
 30
0.0
 10
36.5094926761
 20
84.4899972266
 30
0.0
  0
SPLINE
  5
2B1
100
AcDbEntity
  8
0
100
AcDbSpline
 62
7
  6
BYLAYER
 70
0
 71
3
 72
11
 73
7
 74
0
 42
0.0000001
 43
0.0000001
 44
0.0000000001
 40
0.0
 40
0.0
 40
0.0
 40
0.0
 40
0.2293201448
 40
0.4748257522
 40
0.7331596906
 40
1.0
 40
1.0
 40
1.0
 40
1.0
 10
48.8338386628
 20
76.5443405601
 30
0.0
 10
48.8338386628
 20
76.7146862743
 30
0.0
 10
48.8003829552
 20
77.0678295446
 30
0.0
 10
48.6653697419
 20
77.5972753714
 30
0.0
 10
48.4486772257
 20
78.1288979425
 30
0.0
 10
48.2570348254
 20
78.4699736189
 30
0.0
 10
48.1499769821
 20
78.6367924253
 30
0.0
  0
SPLINE
  5
2B2
100
AcDbEntity
  8
0
100
AcDbSpline
 62
7
  6
BYLAYER
 70
0
 71
3
 72
16
 73
12
 74
0
 42
0.0000001
 43
0.0000001
 44
0.0000000001
 40
0.0
 40
0.0
 40
0.0
 40
0.0
 40
0.1475883937
 40
0.2936301835
 40
0.434702461
 40
0.5678291472
 40
0.6908480826
 40
0.8028603759
 40
0.9047738053
 40
0.952968371
 40
1.0
 40
1.0
 40
1.0
 40
1.0
 10
48.1499769821
 20
78.6367924253
 30
0.0
 10
48.0314318107
 20
78.821510923
 30
0.0
 10
47.7714524402
 20
79.1741135654
 30
0.0
 10
47.3238229156
 20
79.6428646431
 30
0.0
 10
46.8352967065
 20
80.0357555233
 30
0.0
 10
46.3249892957
 20
80.3377616994
 30
0.0
 10
45.8119344743
 20
80.5371349515
 30
0.0
 10
45.3148693387
 20
80.6251595551
 30
0.0
 10
44.9207313233
 20
80.5989218075
 30
0.0
 10
44.6386913918
 20
80.5153846993
 30
0.0
 10
44.5101136171
 20
80.4543588341
 30
0.0
 10
44.4495433247
 20
80.4193838587
 30
0.0
  0
SPLINE
  5
2B3
100
AcDbEntity
  8
0
100
AcDbSpline
 62
7
  6
BYLAYER
 70
0
 71
3
 72
9
 73
5
 74
0
 42
0.0000001
 43
0.0000001
 44
0.0000000001
 40
0.0
 40
0.0
 40
0.0
 40
0.0
 40
0.2378889517
 40
1.0
 40
1.0
 40
1.0
 40
1.0
 10
48.8338386628
 20
45.0273472589
 30
0.0
 10
48.8338386628
 20
45.1047352829
 30
0.0
 10
48.8196887414
 20
45.4300111502
 30
0.0
 10
48.7531636775
 20
45.7520075628
 30
0.0
 10
48.6808051274
 20
45.9891368859
 30
0.0
  0
SPLINE
  5
2B4
100
AcDbEntity
  8
0
100
AcDbSpline
 62
7
  6
BYLAYER
 70
0
 71
3
 72
11
 73
7
 74
0
 42
0.0000001
 43
0.0000001
 44
0.0000000001
 40
0.0
 40
0.0
 40
0.0
 40
0.0
 40
0.2647347535
 40
0.5199439432
 40
0.7651287239
 40
1.0
 40
1.0
 40
1.0
 40
1.0
 10
51.4761088735
 20
80.7235255825
 30
0.0
 10
48.4873478419
 20
81.9685376819
 30
0.0
 10
42.687514316
 20
84.5873131921
 30
0.0
 10
34.4174688385
 20
88.9801049127
 30
0.0
 10
26.7805982666
 20
93.7416017018
 30
0.0
 10
22.0404466158
 20
97.2180718946
 30
0.0
 10
19.7975931869
 20
99.012711385
 30
0.0
  0
SPLINE
  5
2B5
100
AcDbEntity
  8
0
100
AcDbSpline
 62
7
  6
BYLAYER
 70
0
 71
3
 72
17
 73
13
 74
0
 42
0.0000001
 43
0.0000001
 44
0.0000000001
 40
0.0
 40
0.0
 40
0.0
 40
0.0
 40
0.1241148603
 40
0.2603862208
 40
0.4026854983
 40
0.5438018103
 40
0.6770273337
 40
0.7975269312
 40
0.8525290964
 40
0.9041608054
 40
0.9530064949
 40
1.0
 40
1.0
 40
1.0
 40
1.0
 10
43.7131413761
 20
78.8950962511
 30
0.0
 10
43.7131413761
 20
78.6175503343
 30
0.0
 10
43.7982163063
 20
78.0343644455
 30
0.0
 10
44.118375551
 20
77.18697606
 30
0.0
 10
44.6126220394
 20
76.3826187009
 30
0.0
 10
45.2426096521
 20
75.6884128126
 30
0.0
 10
45.9585330663
 20
75.1611075927
 30
0.0
 10
46.6028046053
 20
74.8882564022
 30
0.0
 10
47.1053571945
 20
74.8016373265
 30
0.0
 10
47.4550125127
 20
74.8017749997
 30
0.0
 10
47.7807492208
 20
74.8657251337
 30
0.0
 10
47.9792832656
 20
74.9518279164
 30
0.0
 10
48.0702878696
 20
75.004377272
 30
0.0
  0
SPLINE
  5
2B6
100
AcDbEntity
  8
0
100
AcDbSpline
 62
7
  6
BYLAYER
 70
0
 71
3
 72
11
 73
7
 74
0
 42
0.0000001
 43
0.0000001
 44
0.0000000001
 40
0.0
 40
0.0
 40
0.0
 40
0.0
 40
0.2348712761
 40
0.4800560568
 40
0.7352652465
 40
1.0
 40
1.0
 40
1.0
 40
1.0
 10
19.7975931869
 20
89.9495345549
 30
0.0
 10
22.0404466158
 20
88.1548950644
 30
0.0
 10
26.7805982666
 20
84.6784248716
 30
0.0
 10
34.4174688385
 20
79.9169280826
 30
0.0
 10
42.687514316
 20
75.524136362
 30
0.0
 10
48.4873478419
 20
72.9053608518
 30
0.0
 10
51.4761088735
 20
71.6603487524
 30
0.0
  0
SPLINE
  5
2B7
100
AcDbEntity
  8
0
100
AcDbSpline
 62
7
  6
BYLAYER
 70
0
 71
3
 72
13
 73
9
 74
0
 42
0.0000001
 43
0.0000001
 44
0.0000000001
 40
0.0
 40
0.0
 40
0.0
 40
0.0
 40
0.1135152553
 40
0.2276378287
 40
0.3439994484
 40
0.4640678263
 40
0.7194701365
 40
1.0
 40
1.0
 40
1.0
 40
1.0
 10
44.4495433247
 20
80.4193838587
 30
0.0
 10
44.3914732791
 20
80.3858525955
 30
0.0
 10
44.2800161366
 20
80.309471333
 30
0.0
 10
44.1318537268
 20
80.1692684542
 30
0.0
 10
44.0042655003
 20
80.005169494
 30
0.0
 10
43.8605325653
 20
79.7516483059
 30
0.0
 10
43.7409965469
 20
79.3785224803
 30
0.0
 10
43.7131413761
 20
79.0608109381
 30
0.0
 10
43.7131413761
 20
78.8950962511
 30
0.0
  0
SPLINE
  5
2B8
100
AcDbEntity
  8
0
100
AcDbSpline
 62
7
  6
BYLAYER
 70
0
 71
3
 72
12
 73
8
 74
0
 42
0.0000001
 43
0.0000001
 44
0.0000000001
 40
0.0
 40
0.0
 40
0.0
 40
0.0
 40
0.104902386
 40
0.2125770551
 40
0.4434300931
 40
0.7046837243
 40
1.0
 40
1.0
 40
1.0
 40
1.0
 10
29.137022354
 20
88.8883014099
 30
0.0
 10
29.086527347
 20
88.8591430261
 30
0.0
 10
28.9893558287
 20
88.7906037384
 30
0.0
 10
28.8151415789
 20
88.6147298053
 30
0.0
 10
28.6437504589
 20
88.322432556
 30
0.0
 10
28.5258819011
 20
87.89744888
 30
0.0
 10
28.5026927641
 20
87.587093381
 30
0.0
 10
28.5026927641
 20
87.4229441949
 30
0.0
  0
SPLINE
  5
2B9
100
AcDbEntity
  8
0
100
AcDbSpline
 62
7
  6
BYLAYER
 70
0
 71
3
 72
12
 73
8
 74
0
 42
0.0000001
 43
0.0000001
 44
0.0000000001
 40
0.0
 40
0.0
 40
0.0
 40
0.0
 40
0.1094622223
 40
0.2205454266
 40
0.4540386872
 40
0.7123021998
 40
1.0
 40
1.0
 40
1.0
 40
1.0
 10
36.5094926761
 20
84.4899972266
 30
0.0
 10
36.4551761493
 20
84.4586327297
 30
0.0
 10
36.3508143137
 20
84.3861269754
 30
0.0
 10
36.1638403839
 20
84.2037723704
 30
0.0
 10
35.9785041457
 20
83.9057101172
 30
0.0
 10
35.8497673511
 20
83.4740427738
 30
0.0
 10
35.8242314807
 20
83.1600857926
 30
0.0
 10
35.8242314807
 20
82.9952352493
 30
0.0
  0
SPLINE
  5
2BA
100
AcDbEntity
  8
0
100
AcDbSpline
 62
7
  6
BYLAYER
 70
0
 71
3
 72
14
 73
10
 74
0
 42
0.0000001
 43
0.0000001
 44
0.0000000001
 40
0.0
 40
0.0
 40
0.0
 40
0.0
 40
0.2939827302
 40
0.4318690823
 40
0.5618962885
 40
0.6833863798
 40
0.7962799512
 40
0.9012938941
 40
1.0
 40
1.0
 40
1.0
 40
1.0
 10
36.9757379027
 20
48.5556173941
 30
0.0
 10
37.1656511317
 20
48.3251565466
 30
0.0
 10
37.475496601
 20
48.0093495547
 30
0.0
 10
37.9355555814
 20
47.6699649346
 30
0.0
 10
38.2799743458
 20
47.4732937516
 30
0.0
 10
38.6240111187
 20
47.3333821269
 30
0.0
 10
38.9609959159
 20
47.2533878991
 30
0.0
 10
39.2839357448
 20
47.2352997178
 30
0.0
 10
39.4904847362
 20
47.2663382119
 30
0.0
 10
39.587249592
 20
47.2926032322
 30
0.0
  0
SPLINE
  5
2BB
100
AcDbEntity
  8
0
100
AcDbSpline
 62
7
  6
BYLAYER
 70
0
 71
3
 72
15
 73
11
 74
0
 42
0.0000001
 43
0.0000001
 44
0.0000000001
 40
0.0
 40
0.0
 40
0.0
 40
0.0
 40
0.1478021418
 40
0.2929814744
 40
0.4325839227
 40
0.5642361129
 40
0.6864168136
 40
0.7987546146
 40
0.9023573925
 40
1.0
 40
1.0
 40
1.0
 40
1.0
 10
44.4768890835
 20
45.108287263
 30
0.0
 10
44.5943091832
 20
44.9327267918
 30
0.0
 10
44.8489932576
 20
44.5988091314
 30
0.0
 10
45.2839356009
 20
44.1572354837
 30
0.0
 10
45.7559694251
 20
43.7916475244
 30
0.0
 10
46.2483969263
 20
43.5155721497
 30
0.0
 10
46.7440723331
 20
43.3391198956
 30
0.0
 10
47.2261016599
 20
43.2696747692
 30
0.0
 10
47.6769264666
 20
43.3116772577
 30
0.0
 10
47.9494552614
 20
43.4176108448
 30
0.0
 10
48.0702878696
 20
43.4873839708
 30
0.0
  0
SPLINE
  5
2BC
100
AcDbEntity
  8
0
100
AcDbSpline
 62
7
  6
BYLAYER
 70
0
 71
3
 72
20
 73
16
 74
0
 42
0.0000001
 43
0.0000001
 44
0.0000000001
 40
0.0
 40
0.0
 40
0.0
 40
0.0
 40
0.0630661473
 40
0.1303296148
 40
0.2736534232
 40
0.422084048
 40
0.5668076485
 40
0.6352986311
 40
0.700034174
 40
0.7604167389
 40
0.8161195031
 40
0.8671737173
 40
0.9140738683
 40
0.9578392686
 40
1.0
 40
1.0
 40
1.0
 40
1.0
 10
28.5026927641
 20
87.4229441949
 30
0.0
 10
28.5026927641
 20
87.2878216238
 30
0.0
 10
28.5199976647
 20
87.0084151309
 30
0.0
 10
28.6161724713
 20
86.4292778844
 30
0.0
 10
28.8482421308
 20
85.6913870252
 30
0.0
 10
29.2693566558
 20
84.8524259238
 30
0.0
 10
29.7264739863
 20
84.221389841
 30
0.0
 10
30.140482741
 20
83.792151013
 30
0.0
 10
30.4583445793
 20
83.5243059767
 30
0.0
 10
30.7825407714
 20
83.310356644
 30
0.0
 10
31.1066121578
 20
83.1549392756
 30
0.0
 10
31.424114934
 20
83.061705802
 30
0.0
 10
31.7287003916
 20
83.0333658823
 30
0.0
 10
32.0133753793
 20
83.0718873272
 30
0.0
 10
32.1858406444
 20
83.1430877683
 30
0.0
 10
32.2640669581
 20
83.1882590318
 30
0.0
  0
SPLINE
  5
2BD
100
AcDbEntity
  8
0
100
AcDbSpline
 62
7
  6
BYLAYER
 70
0
 71
3
 72
18
 73
14
 74
0
 42
0.0000001
 43
0.0000001
 44
0.0000000001
 40
0.0
 40
0.0
 40
0.0
 40
0.0
 40
0.0616402415
 40
0.1272030049
 40
0.266859509
 40
0.4121403562
 40
0.555056568
 40
0.6882485034
 40
0.8064991077
 40
0.8595950434
 40
0.9089434911
 40
0.9553401015
 40
1.0
 40
1.0
 40
1.0
 40
1.0
 10
35.8242314807
 20
82.9952352493
 30
0.0
 10
35.8242314807
 20
82.8604482931
 30
0.0
 10
35.8428469927
 20
82.5820940685
 30
0.0
 10
35.9467896507
 20
82.0069728047
 30
0.0
 10
36.1984032329
 20
81.2776414073
 30
0.0
 10
36.6550720679
 20
80.4560927607
 30
0.0
 10
37.2389154717
 20
79.736441854
 30
0.0
 10
37.9038956329
 20
79.178660971
 30
0.0
 10
38.5073848566
 20
78.8756025052
 30
0.0
 10
38.9799036366
 20
78.7672952647
 30
0.0
 10
39.3071893279
 20
78.753178458
 30
0.0
 10
39.612347502
 20
78.8044242253
 30
0.0
 10
39.7977534965
 20
78.8830246279
 30
0.0
 10
39.8823232373
 20
78.9318585899
 30
0.0
  0
SPLINE
  5
2BE
100
AcDbEntity
  8
0
100
AcDbSpline
 62
7
  6
BYLAYER
 70
0
 71
3
 72
19
 73
15
 74
0
 42
0.0000001
 43
0.0000001
 44
0.0000000001
 40
0.0
 40
0.0
 40
0.0
 40
0.0
 40
0.133892772
 40
0.2814469486
 40
0.4339196832
 40
0.5816461658
 40
0.6508959253
 40
0.7157424084
 40
0.775468128
 40
0.8296594439
 40
0.8782952857
 40
0.9219091711
 40
0.9618071617
 40
1.0
 40
1.0
 40
1.0
 40
1.0
 10
37.4484516944
 20
103.5696754561
 30
0.0
 10
37.4484516944
 20
103.8455323995
 30
0.0
 10
37.3775624063
 20
104.4258350001
 30
0.0
 10
37.1166455403
 20
105.2844285754
 30
0.0
 10
36.7168451815
 20
106.1194726776
 30
0.0
 10
36.2892317572
 20
106.7533203966
 30
0.0
 10
35.9055535216
 20
107.190034999
 30
0.0
 10
35.6146288864
 20
107.4645563722
 30
0.0
 10
35.3206072147
 20
107.6877342126
 30
0.0
 10
35.0292200692
 20
107.8550539743
 30
0.0
 10
34.7457808306
 20
107.962924469
 30
0.0
 10
34.4749000613
 20
108.00761593
 30
0.0
 10
34.2221226553
 20
107.9864720309
 30
0.0
 10
34.0697523942
 20
107.9267222405
 30
0.0
 10
34.001571083
 20
107.8874397221
 30
0.0
  0
SPLINE
  5
2BF
100
AcDbEntity
  8
0
100
AcDbSpline
 62
7
  6
BYLAYER
 70
0
 71
3
 72
18
 73
14
 74
0
 42
0.0000001
 43
0.0000001
 44
0.0000000001
 40
0.0
 40
0.0
 40
0.0
 40
0.0
 40
0.1287808592
 40
0.270390123
 40
0.4177661093
 40
0.5626060382
 40
0.6967635297
 40
0.7579161577
 40
0.814462754
 40
0.8662997209
 40
0.9137448499
 40
0.9578072188
 40
1.0
 40
1.0
 40
1.0
 40
1.0
 10
47.0498793568
 20
97.6821929034
 30
0.0
 10
47.0498793568
 20
97.9553700221
 30
0.0
 10
46.9713475853
 20
98.5296174124
 30
0.0
 10
46.6789788451
 20
99.3707995009
 30
0.0
 10
46.229834005
 20
100.1791537602
 30
0.0
 10
45.6644677314
 20
100.8902687584
 30
0.0
 10
45.1170287677
 20
101.3687371265
 30
0.0
 10
44.660062722
 20
101.647772501
 30
0.0
 10
44.3305702334
 20
101.7947596782
 30
0.0
 10
44.0102858407
 20
101.8825892024
 30
0.0
 10
43.7050345559
 20
101.9070237287
 30
0.0
 10
43.4217599419
 20
101.8668413436
 30
0.0
 10
43.2503755748
 20
101.7962467256
 30
0.0
 10
43.1728258107
 20
101.7515635786
 30
0.0
  0
SPLINE
  5
2C0
100
AcDbEntity
  8
0
100
AcDbSpline
 62
7
  6
BYLAYER
 70
0
 71
3
 72
17
 73
13
 74
0
 42
0.0000001
 43
0.0000001
 44
0.0000000001
 40
0.0
 40
0.0
 40
0.0
 40
0.0
 40
0.1243809342
 40
0.260832933
 40
0.4036395249
 40
0.5456801063
 40
0.6798752706
 40
0.8007216651
 40
0.8554262238
 40
0.9063708778
 40
0.9542093281
 40
1.0
 40
1.0
 40
1.0
 40
1.0
 10
57.751869305
 20
92.4301164898
 30
0.0
 10
57.751869305
 20
92.7027231932
 30
0.0
 10
57.6645261231
 20
93.2753775807
 30
0.0
 10
57.3365785718
 20
94.1030800946
 30
0.0
 10
56.8348805737
 20
94.8847405767
 30
0.0
 10
56.2036987955
 20
95.5591736829
 30
0.0
 10
55.4949347231
 20
96.0735493712
 30
0.0
 10
54.8636820302
 20
96.3452567991
 30
0.0
 10
54.3736926116
 20
96.4362344474
 30
0.0
 10
54.0353898448
 20
96.4404634108
 30
0.0
 10
53.7216874389
 20
96.3824281527
 30
0.0
 10
53.5310283052
 20
96.3009535614
 30
0.0
 10
53.4440775417
 20
96.2508371803
 30
0.0
  0
SPLINE
  5
2C1
100
AcDbEntity
  8
0
100
AcDbSpline
 62
7
  6
BYLAYER
 70
0
 71
3
 72
11
 73
7
 74
0
 42
0.0000001
 43
0.0000001
 44
0.0000000001
 40
0.0
 40
0.0
 40
0.0
 40
0.0
 40
0.239321578
 40
0.4819773796
 40
0.7339002376
 40
1.0
 40
1.0
 40
1.0
 40
1.0
 10
57.0006384648
 20
41.1074636399
 30
0.0
 10
57.0859805418
 20
41.1566567903
 30
0.0
 10
57.2474566717
 20
41.2751692964
 30
0.0
 10
57.4473152687
 20
41.5047003895
 30
0.0
 10
57.6002655602
 20
41.7802534362
 30
0.0
 10
57.66693743
 20
41.9841931759
 30
0.0
 10
57.6922771237
 20
42.0907485565
 30
0.0
  0
SPLINE
  5
2C2
100
AcDbEntity
  8
0
100
AcDbSpline
 62
7
  6
BYLAYER
 70
0
 71
3
 72
9
 73
5
 74
0
 42
0.0000001
 43
0.0000001
 44
0.0000000001
 40
0.0
 40
0.0
 40
0.0
 40
0.0
 40
0.2462762569
 40
1.0
 40
1.0
 40
1.0
 40
1.0
 10
42.7421477479
 20
106.258630506
 30
0.0
 10
43.3048685684
 20
105.9068116735
 30
0.0
 10
45.6026362435
 20
104.4988825186
 30
0.0
 10
47.9502463027
 20
103.1725690649
 30
0.0
 10
49.7425340269
 20
102.2170470362
 30
0.0
  0
SPLINE
  5
2C3
100
AcDbEntity
  8
0
100
AcDbSpline
 62
7
  6
BYLAYER
 70
0
 71
3
 72
9
 73
5
 74
0
 42
0.0000001
 43
0.0000001
 44
0.0000000001
 40
0.0
 40
0.0
 40
0.0
 40
0.0
 40
0.2467042686
 40
1.0
 40
1.0
 40
1.0
 40
1.0
 10
52.8050464891
 20
100.6375768145
 30
0.0
 10
53.4363238878
 20
100.3226344251
 30
0.0
 10
56.0055505158
 20
99.0669248503
 30
0.0
 10
58.6148826013
 20
97.8935299091
 30
0.0
 10
60.5986738217
 20
97.0539685468
 30
0.0
  0
SPLINE
  5
2C4
100
AcDbEntity
  8
0
100
AcDbSpline
 62
7
  6
BYLAYER
 70
0
 71
3
 72
9
 73
5
 74
0
 42
0.0000001
 43
0.0000001
 44
0.0000000001
 40
0.0
 40
0.0
 40
0.0
 40
0.0
 40
0.2459029006
 40
1.0
 40
1.0
 40
1.0
 40
1.0
 10
33.7992152386
 20
112.5262931432
 30
0.0
 10
34.2929604983
 20
112.137424534
 30
0.0
 10
36.3169599483
 20
110.5765620773
 30
0.0
 10
38.4037673421
 20
109.0974492721
 30
0.0
 10
40.0063604639
 20
108.0267344713
 30
0.0
  0
SPLINE
  5
2C5
100
AcDbEntity
  8
0
100
AcDbSpline
 62
7
  6
BYLAYER
 70
0
 71
3
 72
11
 73
7
 74
0
 42
0.0000001
 43
0.0000001
 44
0.0000000001
 40
0.0
 40
0.0
 40
0.0
 40
0.0
 40
0.2300575037
 40
0.4675783727
 40
0.7223751185
 40
1.0
 40
1.0
 40
1.0
 40
1.0
 10
57.0006384648
 20
90.9141110848
 30
0.0
 10
57.1181763061
 20
90.9818626197
 30
0.0
 10
57.337277302
 20
91.1575249783
 30
0.0
 10
57.5780412406
 20
91.5158495659
 30
0.0
 10
57.7227979546
 20
91.9511061663
 30
0.0
 10
57.751869305
 20
92.2663991099
 30
0.0
 10
57.751869305
 20
92.4301164898
 30
0.0
  0
SPLINE
  5
2C6
100
AcDbEntity
  8
0
100
AcDbSpline
 62
7
  6
BYLAYER
 70
0
 71
3
 72
12
 73
8
 74
0
 42
0.0000001
 43
0.0000001
 44
0.0000000001
 40
0.0
 40
0.0
 40
0.0
 40
0.0
 40
0.1091288455
 40
0.2201788491
 40
0.4540131891
 40
0.7125034085
 40
1.0
 40
1.0
 40
1.0
 40
1.0
 10
46.3727908612
 20
96.209028441
 30
0.0
 10
46.426202744
 20
96.2398047831
 30
0.0
 10
46.5289191111
 20
96.3111730394
 30
0.0
 10
46.7131529725
 20
96.4910035364
 30
0.0
 10
46.8963188339
 20
96.7848288207
 30
0.0
 10
47.0244268871
 20
97.2102415061
 30
0.0
 10
47.0498793568
 20
97.5197930437
 30
0.0
 10
47.0498793568
 20
97.6821929034
 30
0.0
  0
SPLINE
  5
2C7
100
AcDbEntity
  8
0
100
AcDbSpline
 62
7
  6
BYLAYER
 70
0
 71
3
 72
12
 73
8
 74
0
 42
0.0000001
 43
0.0000001
 44
0.0000000001
 40
0.0
 40
0.0
 40
0.0
 40
0.0
 40
0.1022529241
 40
0.2081947537
 40
0.43810916
 40
0.7011091621
 40
1.0
 40
1.0
 40
1.0
 40
1.0
 10
36.8450011122
 20
102.1389897708
 30
0.0
 10
36.8928540403
 20
102.1665615282
 30
0.0
 10
36.985106303
 20
102.2322024672
 30
0.0
 10
37.1508381012
 20
102.40259728
 30
0.0
 10
37.3138824507
 20
102.6880116758
 30
0.0
 10
37.426364528
 20
103.1038104413
 30
0.0
 10
37.4484516944
 20
103.4082417458
 30
0.0
 10
37.4484516944
 20
103.5696754561
 30
0.0
  0
SPLINE
  5
2C8
100
AcDbEntity
  8
0
100
AcDbSpline
 62
7
  6
BYLAYER
 70
0
 71
3
 72
11
 73
7
 74
0
 42
0.0000001
 43
0.0000001
 44
0.0000000001
 40
0.0
 40
0.0
 40
0.0
 40
0.0
 40
0.2663142099
 40
0.5221218546
 40
0.7667971013
 40
1.0
 40
1.0
 40
1.0
 40
1.0
 10
62.0119560479
 20
95.0530378882
 30
0.0
 10
58.9869796731
 20
96.2666429153
 30
0.0
 10
53.1306470922
 20
98.8376227986
 30
0.0
 10
44.8179376432
 20
103.2109500541
 30
0.0
 10
37.2078863169
 20
107.9942149782
 30
0.0
 10
32.5287421872
 20
111.5183386135
 30
0.0
 10
30.3334403614
 20
113.3422236907
 30
0.0
  0
SPLINE
  5
2C9
100
AcDbEntity
  8
0
100
AcDbSpline
 62
7
  6
BYLAYER
 70
0
 71
3
 72
20
 73
16
 74
0
 42
0.0000001
 43
0.0000001
 44
0.0000000001
 40
0.0
 40
0.0
 40
0.0
 40
0.0
 40
0.0646032206
 40
0.1337186085
 40
0.2809674433
 40
0.4326570422
 40
0.5791742908
 40
0.6478166832
 40
0.7121669749
 40
0.7716043354
 40
0.8258062714
 40
0.8748308364
 40
0.919257417
 40
0.9603599212
 40
1.0
 40
1.0
 40
1.0
 40
1.0
 10
33.4272947599
 20
106.4735984453
 30
0.0
 10
33.4272947599
 20
106.3397798892
 30
0.0
 10
33.4431211478
 20
106.0626591376
 30
0.0
 10
33.5306911829
 20
105.486673257
 30
0.0
 10
33.7408859924
 20
104.750147344
 30
0.0
 10
34.1221946139
 20
103.9067298006
 30
0.0
 10
34.5362077915
 20
103.2650768607
 30
0.0
 10
34.9124869523
 20
102.8240576263
 30
0.0
 10
35.2004179382
 20
102.547332087
 30
0.0
 10
35.4942727016
 20
102.3231277032
 30
0.0
 10
35.7883573679
 20
102.1561693817
 30
0.0
 10
36.0770818175
 20
102.050220777
 30
0.0
 10
36.3551549933
 20
102.0090881376
 30
0.0
 10
36.6160485048
 20
102.0349727015
 30
0.0
 10
36.7738555469
 20
102.097997331
 30
0.0
 10
36.8450011122
 20
102.1389897708
 30
0.0
  0
SPLINE
  5
2CA
100
AcDbEntity
  8
0
100
AcDbSpline
 62
7
  6
BYLAYER
 70
0
 71
3
 72
11
 73
7
 74
0
 42
0.0000001
 43
0.0000001
 44
0.0000000001
 40
0.0
 40
0.0
 40
0.0
 40
0.0
 40
0.2717656888
 40
0.5267188348
 40
0.767913229
 40
1.0
 40
1.0
 40
1.0
 40
1.0
 10
55.6972274649
 20
40.9795468477
 30
0.0
 10
55.8149975287
 20
40.9498206673
 30
0.0
 10
56.0479988397
 20
40.9086938903
 30
0.0
 10
56.3931114144
 20
40.9082243096
 30
0.0
 10
56.7146995124
 20
40.9709367488
 30
0.0
 10
56.9107700205
 20
41.0556613864
 30
0.0
 10
57.0006384648
 20
41.1074636399
 30
0.0
  0
SPLINE
  5
2CB
100
AcDbEntity
  8
0
100
AcDbSpline
 62
7
  6
BYLAYER
 70
0
 71
3
 72
17
 73
13
 74
0
 42
0.0000001
 43
0.0000001
 44
0.0000000001
 40
0.0
 40
0.0
 40
0.0
 40
0.0
 40
0.1242030323
 40
0.2605836723
 40
0.4029575381
 40
0.5441066661
 40
0.6772852039
 40
0.7977000311
 40
0.852657156
 40
0.9042283221
 40
0.953030543
 40
1.0
 40
1.0
 40
1.0
 40
1.0
 10
52.7220217576
 20
94.7516751584
 30
0.0
 10
52.7220217576
 20
94.4783820421
 30
0.0
 10
52.8054523744
 20
93.9041349031
 30
0.0
 10
53.1190340268
 20
93.0691699219
 30
0.0
 10
53.6038914255
 20
92.2762860831
 30
0.0
 10
54.2216955563
 20
91.5911389136
 30
0.0
 10
54.9248548782
 20
91.0708032728
 30
0.0
 10
55.5578822812
 20
90.801194239
 30
0.0
 10
56.0518334509
 20
90.7150760958
 30
0.0
 10
56.3955830305
 20
90.71517852
 30
0.0
 10
56.7158107636
 20
90.7780157811
 30
0.0
 10
56.9110984955
 20
90.8624981719
 30
0.0
 10
57.0006384648
 20
90.9141110848
 30
0.0
  0
SPLINE
  5
2CC
100
AcDbEntity
  8
0
100
AcDbSpline
 62
7
  6
BYLAYER
 70
0
 71
3
 72
11
 73
7
 74
0
 42
0.0000001
 43
0.0000001
 44
0.0000000001
 40
0.0
 40
0.0
 40
0.0
 40
0.0
 40
0.2268622804
 40
0.4628475635
 40
0.7187368729
 40
1.0
 40
1.0
 40
1.0
 40
1.0
 10
53.4440775417
 20
96.2508371803
 30
0.0
 10
53.3301052189
 20
96.185146206
 30
0.0
 10
53.1176053201
 20
96.0126841219
 30
0.0
 10
52.8868748312
 20
95.6587877002
 30
0.0
 10
52.7493551878
 20
95.2274590118
 30
0.0
 10
52.7220217576
 20
94.9147685034
 30
0.0
 10
52.7220217576
 20
94.7516751584
 30
0.0
  0
SPLINE
  5
2CD
100
AcDbEntity
  8
0
100
AcDbSpline
 62
7
  6
BYLAYER
 70
0
 71
3
 72
11
 73
7
 74
0
 42
0.0000001
 43
0.0000001
 44
0.0000000001
 40
0.0
 40
0.0
 40
0.0
 40
0.0
 40
0.231005087
 40
0.4750359524
 40
0.7316601529
 40
1.0
 40
1.0
 40
1.0
 40
1.0
 10
55.3297220418
 20
105.4427922856
 30
0.0
 10
54.7378936025
 20
105.6449958231
 30
0.0
 10
53.5433678567
 20
106.1288122982
 30
0.0
 10
51.7851851842
 20
107.0469100757
 30
0.0
 10
50.028327092
 20
108.1683975856
 30
0.0
 10
48.8930379114
 20
109.0260772421
 30
0.0
 10
48.3293357629
 20
109.4843757553
 30
0.0
  0
SPLINE
  5
2CE
100
AcDbEntity
  8
0
100
AcDbSpline
 62
7
  6
BYLAYER
 70
0
 71
3
 72
11
 73
7
 74
0
 42
0.0000001
 43
0.0000001
 44
0.0000000001
 40
0.0
 40
0.0
 40
0.0
 40
0.0
 40
0.231005087
 40
0.4750359524
 40
0.7316601529
 40
1.0
 40
1.0
 40
1.0
 40
1.0
 10
65.2292581939
 20
99.7274217223
 30
0.0
 10
64.6374297546
 20
99.9296252599
 30
0.0
 10
63.4429040087
 20
100.413441735
 30
0.0
 10
61.6847213362
 20
101.3315395124
 30
0.0
 10
59.927863244
 20
102.4530270223
 30
0.0
 10
58.7925740635
 20
103.3107066788
 30
0.0
 10
58.2288719149
 20
103.769005192
 30
0.0
  0
SPLINE
  5
2CF
100
AcDbEntity
  8
0
100
AcDbSpline
 62
7
  6
BYLAYER
 70
0
 71
3
 72
12
 73
8
 74
0
 42
0.0000001
 43
0.0000001
 44
0.0000000001
 40
0.0
 40
0.0
 40
0.0
 40
0.0
 40
0.1071472992
 40
0.2165010753
 40
0.4486562556
 40
0.7084320103
 40
1.0
 40
1.0
 40
1.0
 40
1.0
 10
43.1728258107
 20
101.7515635786
 30
0.0
 10
43.1212696138
 20
101.7218575807
 30
0.0
 10
43.022156104
 20
101.6525263542
 30
0.0
 10
42.8446720104
 20
101.4761945539
 30
0.0
 10
42.6694793027
 20
101.1856026022
 30
0.0
 10
42.548255433
 20
100.7640725969
 30
0.0
 10
42.5243771159
 20
100.4568498797
 30
0.0
 10
42.5243771159
 20
100.2949337323
 30
0.0
  0
SPLINE
  5
2D0
100
AcDbEntity
  8
0
100
AcDbSpline
 62
7
  6
BYLAYER
 70
0
 71
3
 72
11
 73
7
 74
0
 42
0.0000001
 43
0.0000001
 44
0.0000000001
 40
0.0
 40
0.0
 40
0.0
 40
0.0
 40
0.231005087
 40
0.4750359524
 40
0.7316601529
 40
1.0
 40
1.0
 40
1.0
 40
1.0
 10
45.4301858898
 20
111.1581628488
 30
0.0
 10
44.8383574505
 20
111.3603663864
 30
0.0
 10
43.6438317046
 20
111.8441828615
 30
0.0
 10
41.8856490321
 20
112.762280639
 30
0.0
 10
40.1287909399
 20
113.8837681489
 30
0.0
 10
38.9935017593
 20
114.7414478054
 30
0.0
 10
38.4297996108
 20
115.1997463186
 30
0.0
  0
SPLINE
  5
2D1
100
AcDbEntity
  8
0
100
AcDbSpline
 62
7
  6
BYLAYER
 70
0
 71
3
 72
18
 73
14
 74
0
 42
0.0000001
 43
0.0000001
 44
0.0000000001
 40
0.0
 40
0.0
 40
0.0
 40
0.0
 40
0.1285458455
 40
0.2699875891
 40
0.4167855261
 40
0.5605959277
 40
0.6936876281
 40
0.7545246403
 40
0.8110354717
 40
0.8631975899
 40
0.911364696
 40
0.9565073954
 40
1.0
 40
1.0
 40
1.0
 40
1.0
 10
42.5243771159
 20
100.2949337323
 30
0.0
 10
42.5243771159
 20
100.0210230417
 30
0.0
 10
42.5991045798
 20
99.4451314605
 30
0.0
 10
42.877401293
 20
98.597537801
 30
0.0
 10
43.3091775758
 20
97.7794099112
 30
0.0
 10
43.8598485137
 20
97.0585785365
 30
0.0
 10
44.4010410131
 20
96.5749522644
 30
0.0
 10
44.857353786
 20
96.2957400541
 30
0.0
 10
45.1891910217
 20
96.1499010776
 30
0.0
 10
45.5140560816
 20
96.0646481267
 30
0.0
 10
45.8255827817
 20
96.0441460967
 30
0.0
 10
46.1161054332
 20
96.0890610401
 30
0.0
 10
46.2924915663
 20
96.162759363
 30
0.0
 10
46.3727908612
 20
96.209028441
 30
0.0
  0
SPLINE
  5
2D2
100
AcDbEntity
  8
0
100
AcDbSpline
 62
7
  6
BYLAYER
 70
0
 71
3
 72
12
 73
8
 74
0
 42
0.0000001
 43
0.0000001
 44
0.0000000001
 40
0.0
 40
0.0
 40
0.0
 40
0.0
 40
0.0998908782
 40
0.203844991
 40
0.4318597104
 40
0.696393399
 40
1.0
 40
1.0
 40
1.0
 40
1.0
 10
34.001571083
 20
107.8874397221
 30
0.0
 10
33.955653728
 20
107.860984535
 30
0.0
 10
33.8671416619
 20
107.7974664166
 30
0.0
 10
33.7084031267
 20
107.6307184112
 30
0.0
 10
33.5535863456
 20
107.3487540769
 30
0.0
 10
33.4478817679
 20
106.9369385599
 30
0.0
 10
33.4272947599
 20
106.6346650911
 30
0.0
 10
33.4272947599
 20
106.4735984453
 30
0.0
  0
SPLINE
  5
2D3
100
AcDbEntity
  8
0
100
AcDbSpline
 62
7
  6
BYLAYER
 70
0
 71
3
 72
11
 73
7
 74
0
 42
0.0000001
 43
0.0000001
 44
0.0000000001
 40
0.0
 40
0.0
 40
0.0
 40
0.0
 40
0.2177839466
 40
0.4509170841
 40
0.710307871
 40
1.0
 40
1.0
 40
1.0
 40
1.0
 10
105.1035297056
 20
120.5997011742
 30
0.0
 10
105.1777439965
 20
120.6425620688
 30
0.0
 10
105.3166178638
 20
120.7592890014
 30
0.0
 10
105.4644525493
 20
121.0010175812
 30
0.0
 10
105.5522529
 20
121.2989035285
 30
0.0
 10
105.5695368173
 20
121.5157115231
 30
0.0
 10
105.5695368173
 20
121.6297105985
 30
0.0
  0
SPLINE
  5
2D4
100
AcDbEntity
  8
0
100
AcDbSpline
 62
7
  6
BYLAYER
 70
0
 71
3
 72
11
 73
7
 74
0
 42
0.0000001
 43
0.0000001
 44
0.0000000001
 40
0.0
 40
0.0
 40
0.0
 40
0.0
 40
0.2807263439
 40
0.5440566894
 40
0.7846701296
 40
1.0
 40
1.0
 40
1.0
 40
1.0
 10
112.3931044494
 20
125.1694343197
 30
0.0
 10
111.9822357684
 20
125.6805573683
 30
0.0
 10
111.1250407251
 20
126.6244096056
 30
0.0
 10
109.7153673985
 20
127.8061565912
 30
0.0
 10
108.2679223563
 20
128.6742309095
 30
0.0
 10
107.256151019
 20
129.0390953592
 30
0.0
 10
106.7648347364
 20
129.146973921
 30
0.0
  0
SPLINE
  5
2D5
100
AcDbEntity
  8
0
100
AcDbSpline
 62
7
  6
BYLAYER
 70
0
 71
3
 72
11
 73
7
 74
0
 42
0.0000001
 43
0.0000001
 44
0.0000000001
 40
0.0
 40
0.0
 40
0.0
 40
0.0
 40
0.27128071
 40
0.528742331
 40
0.7716791109
 40
1.0
 40
1.0
 40
1.0
 40
1.0
 10
105.2987307975
 20
128.3492104332
 30
0.0
 10
103.3026564449
 20
129.8622371019
 30
0.0
 10
99.2914596565
 20
132.6570283039
 30
0.0
 10
93.0921017075
 20
136.190240877
 30
0.0
 10
86.929576646
 20
138.9203652314
 30
0.0
 10
82.7641882853
 20
140.2219363932
 30
0.0
 10
80.7145887628
 20
140.7149645781
 30
0.0
  0
SPLINE
  5
2D6
100
AcDbEntity
  8
0
100
AcDbSpline
 62
7
  6
BYLAYER
 70
0
 71
3
 72
17
 73
13
 74
0
 42
0.0000001
 43
0.0000001
 44
0.0000000001
 40
0.0
 40
0.0
 40
0.0
 40
0.0
 40
0.1286930371
 40
0.2702795962
 40
0.4174375935
 40
0.5617786795
 40
0.6954478243
 40
0.81271112
 40
0.8646738576
 40
0.9125098523
 40
0.9571380034
 40
1.0
 40
1.0
 40
1.0
 40
1.0
 10
105.5695368173
 20
121.6297105985
 30
0.0
 10
105.5695368173
 20
121.8220356155
 30
0.0
 10
105.5157393358
 20
122.2264168532
 30
0.0
 10
105.3149053326
 20
122.8201580161
 30
0.0
 10
105.0054709254
 20
123.39211902
 30
0.0
 10
104.6122711688
 20
123.895394712
 30
0.0
 10
104.1674619013
 20
124.2893319268
 30
0.0
 10
103.7648573482
 20
124.5094969009
 30
0.0
 10
103.44991077
 20
124.5932569663
 30
0.0
 10
103.2331507177
 20
124.6092430985
 30
0.0
 10
103.0313175833
 20
124.5796107473
 30
0.0
 10
102.9090191448
 20
124.5288383541
 30
0.0
 10
102.8535501658
 20
124.4968034181
 30
0.0
  0
SPLINE
  5
2D7
100
AcDbEntity
  8
0
100
AcDbSpline
 62
7
  6
BYLAYER
 70
0
 71
3
 72
13
 73
9
 74
0
 42
0.0000001
 43
0.0000001
 44
0.0000000001
 40
0.0
 40
0.0
 40
0.0
 40
0.0
 40
0.2801371452
 40
0.4134810523
 40
0.5417505017
 40
0.6646478105
 40
0.7820068473
 40
1.0
 40
1.0
 40
1.0
 40
1.0
 10
102.6452254456
 20
119.4804630009
 30
0.0
 10
100.9276813928
 20
121.1790826422
 30
0.0
 10
98.251921068
 20
123.5526084545
 30
0.0
 10
94.473594528
 20
126.3043678569
 30
0.0
 10
91.6644758685
 20
128.0708753681
 30
0.0
 10
88.853383651
 20
129.5608428738
 30
0.0
 10
85.2224594774
 20
131.124669129
 30
0.0
 10
82.4174903264
 20
131.9220720711
 30
0.0
 10
80.5630140457
 20
132.2293452787
 30
0.0
  0
SPLINE
  5
2D8
100
AcDbEntity
  8
0
100
AcDbSpline
 62
7
  6
BYLAYER
 70
0
 71
3
 72
11
 73
7
 74
0
 42
0.0000001
 43
0.0000001
 44
0.0000000001
 40
0.0
 40
0.0
 40
0.0
 40
0.0
 40
0.2278876958
 40
0.4707074521
 40
0.7283387932
 40
1.0
 40
1.0
 40
1.0
 40
1.0
 10
75.7648619023
 20
137.857255501
 30
0.0
 10
77.8652599869
 20
137.3520077959
 30
0.0
 10
82.1353861808
 20
136.0100040257
 30
0.0
 10
88.4484812545
 20
133.1828111842
 30
0.0
 10
94.7961670684
 20
129.5158002805
 30
0.0
 10
98.8980081817
 20
126.6131972654
 30
0.0
 10
100.9379681176
 20
125.0413855108
 30
0.0
  0
SPLINE
  5
2D9
100
AcDbEntity
  8
0
100
AcDbSpline
 62
7
  6
BYLAYER
 70
0
 71
3
 72
11
 73
7
 74
0
 42
0.0000001
 43
0.0000001
 44
0.0000000001
 40
0.0
 40
0.0
 40
0.0
 40
0.0
 40
0.2153298704
 40
0.4559433106
 40
0.7192736561
 40
1.0
 40
1.0
 40
1.0
 40
1.0
 10
101.8151078759
 20
126.2892648439
 30
0.0
 10
102.3064241585
 20
126.1813862821
 30
0.0
 10
103.3181954958
 20
125.8165218324
 30
0.0
 10
104.765640538
 20
124.9484475141
 30
0.0
 10
106.1753138646
 20
123.7667005285
 30
0.0
 10
107.0325089079
 20
122.8228482912
 30
0.0
 10
107.4433775889
 20
122.3117252426
 30
0.0
  0
SPLINE
  5
2DA
100
AcDbEntity
  8
0
100
AcDbSpline
 62
7
  6
BYLAYER
 70
0
 71
3
 72
17
 73
13
 74
0
 42
0.0000001
 43
0.0000001
 44
0.0000000001
 40
0.0
 40
0.0
 40
0.0
 40
0.0
 40
0.1286930371
 40
0.2702795962
 40
0.4174375935
 40
0.5617786795
 40
0.6954478243
 40
0.81271112
 40
0.8646738576
 40
0.9125098523
 40
0.9571380034
 40
1.0
 40
1.0
 40
1.0
 40
1.0
 10
102.3875430541
 20
123.4667939939
 30
0.0
 10
102.3875430541
 20
123.2744689769
 30
0.0
 10
102.4413405356
 20
122.8700877392
 30
0.0
 10
102.6421745388
 20
122.2763465763
 30
0.0
 10
102.951608946
 20
121.7043855723
 30
0.0
 10
103.3448087026
 20
121.2011098804
 30
0.0
 10
103.7896179701
 20
120.8071726655
 30
0.0
 10
104.1922225232
 20
120.5870076915
 30
0.0
 10
104.5071691014
 20
120.5032476261
 30
0.0
 10
104.7239291538
 20
120.4872614939
 30
0.0
 10
104.9257622881
 20
120.5168938451
 30
0.0
 10
105.0480607266
 20
120.5676662383
 30
0.0
 10
105.1035297056
 20
120.5997011742
 30
0.0
  0
SPLINE
  5
2DB
100
AcDbEntity
  8
0
100
AcDbSpline
 62
7
  6
BYLAYER
 70
0
 71
3
 72
11
 73
7
 74
0
 42
0.0000001
 43
0.0000001
 44
0.0000000001
 40
0.0
 40
0.0
 40
0.0
 40
0.0
 40
0.2177839466
 40
0.4509170841
 40
0.710307871
 40
1.0
 40
1.0
 40
1.0
 40
1.0
 10
102.8535501658
 20
124.4968034181
 30
0.0
 10
102.7793358749
 20
124.4539425236
 30
0.0
 10
102.6404620076
 20
124.337215591
 30
0.0
 10
102.4926273221
 20
124.0954870112
 30
0.0
 10
102.4048269714
 20
123.7976010639
 30
0.0
 10
102.3875430541
 20
123.5807930693
 30
0.0
 10
102.3875430541
 20
123.4667939939
 30
0.0
  0
ENDSEC
  0
SECTION
  2
OBJECTS
  0
DICTIONARY
  5
C
100
AcDbDictionary
280
0
281
1
  3
ACAD_GROUP
350
D
  3
ACAD_MLINESTYLE
350
17
  3
ACAD_LAYOUT
350
1A
  3
ACAD_PLOTSETTINGS
350
19
  3
ACAD_PLOTSTYLENAME
350
E
  0
DICTIONARY
  5
D
102
{ACAD_REACTORS
330
C
102
}
100
AcDbDictionary
280
0
281
1
  0
ACDBDICTIONARYWDFLT
  5
E
102
{ACAD_REACTORS
330
C
102
}
100
AcDbDictionary
281
1
  3
Normal
350
F
100
AcDbDictionaryWithDefault
340
F
  0
DICTIONARY
  5
17
102
{ACAD_REACTORS
330
C
102
}
100
AcDbDictionary
280
0
281
1
  3
Standard
350
18
  0
DICTIONARY
  5
19
102
{ACAD_REACTORS
330
C
102
}
100
AcDbDictionary
281
1
  0
DICTIONARY
  5
1A
102
{ACAD_REACTORS
330
C
102
}
100
AcDbDictionary
281
1
  3
Model
350
2DC
  3
Layout1
350
2DD
  0
ACDBPLACEHOLDER
  5
F
102
{ACAD_REACTORS
330
E
102
}
  0
MLINESTYLE
  5
18
102
{ACAD_REACTORS
330
17
102
}
100
AcDbMlineStyle
  2
STANDARD
 70
0
  3

 62
256
 51
90.0
 52
90.0
 71
2
 49
0.5
 62
256
  6
BYLAYER
 49
-0.5
 62
256
  6
BYLAYER
  0
LAYOUT
  5
2DC
102
{ACAD_REACTORS
330
1A
102
}
100
AcDbPlotSettings
  1

  2
none_device
  4

  6

 40
0.0
 41
0.0
 42
0.0
 43
0.0
 44
210.0
 45
297.0
 46
0.0
 47
0.0
 48
0.0
 49
0.0
140
0.0
141
0.0
142
1.0
143
1.0
 70
1024
 72
1
 73
0
 74
0
  7

 75
0
147
1.0
148
0.0
149
0.0
100
AcDbLayout
  1
Model
 70
0
 71
0
 10
0.0
 20
0.0
 11
210.0
 21
297.0
 12
0.0
 22
0.0
 32
0.0
 14
0.0
 24
0.0
 34
0.0
 15
0.0
 25
0.0
 35
0.0
146
0.0
 13
0.0
 23
0.0
 33
0.0
 16
1.0
 26
0.0
 36
0.0
 17
0.0
 27
1.0
 37
0.0
 76
0
330
210
345
0
346
0
  0
LAYOUT
  5
2DD
102
{ACAD_REACTORS
330
1A
102
}
100
AcDbPlotSettings
  1

  2
none_device
  4

  6

 40
0.0
 41
0.0
 42
0.0
 43
0.0
 44
210.0
 45
297.0
 46
0.0
 47
0.0
 48
0.0
 49
0.0
140
0.0
141
0.0
142
1.0
143
1.0
 70
0
 72
1
 73
0
 74
0
  7

 75
0
147
1.0
148
0.0
149
0.0
100
AcDbLayout
  1
Layout1
 70
0
 71
1
 10
0.0
 20
0.0
 11
210.0
 21
297.0
 12
0.0
 22
0.0
 32
0.0
 14
0.0
 24
0.0
 34
0.0
 15
0.0
 25
0.0
 35
0.0
146
0.0
 13
0.0
 23
0.0
 33
0.0
 16
1.0
 26
0.0
 36
0.0
 17
0.0
 27
1.0
 37
0.0
 76
0
330
211
345
0
346
0
  0
ENDSEC
  0
EOF
