999
DXF file: C:\Users\sesa63760\Dev\_Creo\CAD\MCADID0004848_3D-CAD\drw0001_4.dxf
999
Pro/ENGINEER 2019471 by Parametric Technology Corporation
  0
SECTION
  2
HEADER
  9
$ACADVER
  1
AC1024
  9
$DWGCODEPAGE
  3
ANSI_1252
  9
$EXTMAX
 10
311.2482584465
 20
440.1939655172
 30
0.0
  9
$EXTMIN
 10
0.0
 20
0.0
 30
0.0
  9
$LIMMIN
 10
0.0
 20
0.0
  9
$LIMMAX
 10
311.2482584465
 20
440.1939655172
  9
$VIEWCTR
 10
155.6241292233
 20
220.0969827586
  9
$VIEWSIZE
 40
440.1939655172
  9
$CLAYER
  8
0
  9
$LTSCALE
 40
28.6941251596
  9
$CELTYPE
  6
BYLAYER
  9
$DIMSCALE
 40
1.0
  9
$DIMASZ
 40
3.7053364101
  9
$DIMEXO
 40
1.0
  9
$DIMDLI
 40
19.8250319285
  9
$DIMEXE
 40
1.0
  9
$DIMCEN
 40
4.6954022989
  9
$DIMLFAC
 40
1.0
  9
$DIMBLK
  1
_FILLED
  9
$DIMALT
 70
0
  9
$DIMALTF
 40
0.0393700787
  9
$DIMTXT
 40
5.1874709741
  9
$DIMTOL
 70
1
  9
$DIMLIM
 70
0
  9
$DIMTFAC
 40
1.0
  9
$DIMTP
 40
0.01
  9
$DIMTM
 40
0.01
  9
$DIMGAP
 40
0.625
  9
$DIMDSEP
 70
46
  9
$AUNITS
 70
0
  9
$PDMODE
 70
3
  9
$PDSIZE
 40
0.3125
  9
$HANDSEED
  5
4B3
  9
$TILEMODE
 70
1
  9
$MEASUREMENT
 70
1
  9
$INSUNITS
 70
4
  0
ENDSEC
  0
SECTION
  2
CLASSES
  0
CLASS
  1
ACDBDICTIONARYWDFLT
  2
AcDbDictionaryWithDefault
  3
AutoCAD 2000
 90
0
 91
1
280
0
281
0
  0
CLASS
  1
ACDBPLACEHOLDER
  2
AcDbPlaceHolder
  3
AutoCAD 2000
 90
0
 91
1
280
0
281
0
  0
CLASS
  1
LAYOUT
  2
AcDbLayout
  3
AutoCAD 2000
 90
0
 91
0
280
0
281
0
  0
ENDSEC
  0
SECTION
  2
TABLES
  0
TABLE
  2
VPORT
  5
8
100
AcDbSymbolTable
 70
2
  0
VPORT
  5
1F4
100
AcDbSymbolTableRecord
100
AcDbViewportTableRecord
  2
*ACTIVE
 70
0
 10
0.0
 20
0.0
 11
1.0
 21
1.0
 12
155.6241292233
 22
220.0969827586
 13
0.0
 23
0.0
 14
1.0
 24
1.0
 15
0.0
 25
0.0
 16
0.0
 26
0.0
 36
1.0
 17
0.0
 27
0.0
 37
0.0
 40
440.1939655172
 41
0.7070707071
 42
50.0
 43
0.0
 44
0.0
 50
0.0
 51
0.0
 71
0
 72
100
 73
1
 74
1
 75
0
 76
0
 77
0
 78
0
  0
ENDTAB
  0
TABLE
  2
LTYPE
  5
5
100
AcDbSymbolTable
 70
6
  0
LTYPE
  5
14
100
AcDbSymbolTableRecord
100
AcDbLinetypeTableRecord
  2
BYBLOCK
 70
0
  3

 72
65
 73
0
 40
0.0
  0
LTYPE
  5
15
100
AcDbSymbolTableRecord
100
AcDbLinetypeTableRecord
  2
BYLAYER
 70
0
  3

 72
65
 73
0
 40
0.0
  0
LTYPE
  5
16
100
AcDbSymbolTableRecord
100
AcDbLinetypeTableRecord
  2
CONTINUOUS
 70
64
  3
Solid line
 72
65
 73
0
 40
0.0
  0
LTYPE
  5
1F5
100
AcDbSymbolTableRecord
100
AcDbLinetypeTableRecord
  2
CENTER
 70
64
  3
____ _ ____ _ ____ _ ____ _ ____ _ ____ _ ____
 72
65
 73
4
 40
0.6
 49
0.375
 74
0
 49
-0.075
 74
0
 49
0.075
 74
0
 49
-0.075
 74
0
  0
LTYPE
  5
1F6
100
AcDbSymbolTableRecord
100
AcDbLinetypeTableRecord
  2
HIDDEN
 70
64
  3
- - - - - - - - - - - - - - - - - - - -
 72
65
 73
2
 40
0.2
 49
0.1
 74
0
 49
-0.1
 74
0
  0
LTYPE
  5
1F7
100
AcDbSymbolTableRecord
100
AcDbLinetypeTableRecord
  2
PHANTOM
 70
64
  3
_____ _ _ _____ _ _ _____ _ _ _____
 72
65
 73
6
 40
0.8
 49
0.45
 74
0
 49
-0.05
 74
0
 49
0.1
 74
0
 49
-0.05
 74
0
 49
0.1
 74
0
 49
-0.05
 74
0
  0
LTYPE
  5
1F8
100
AcDbSymbolTableRecord
100
AcDbLinetypeTableRecord
  2
DOT
 70
64
  3
. . . . . . . . . . . . . . . . . . . .
 72
65
 73
2
 40
0.2
 49
0.1
 74
0
 49
-0.1
 74
0
  0
LTYPE
  5
1F9
100
AcDbSymbolTableRecord
100
AcDbLinetypeTableRecord
  2
DASHED
 70
64
  3
- - - - - - - - - - - - - - - - - - - -
 72
65
 73
2
 40
0.2
 49
0.1
 74
0
 49
-0.1
 74
0
  0
ENDTAB
  0
TABLE
  2
LAYER
  5
2
100
AcDbSymbolTable
 70
36
  0
LAYER
  5
10
100
AcDbSymbolTableRecord
100
AcDbLayerTableRecord
  2
0
 70
0
 62
7
  6
CONTINUOUS
370
-3
390
F
  0
LAYER
  5
1FA
100
AcDbSymbolTableRecord
100
AcDbLayerTableRecord
  2
DEFAULT_1
 70
0
 62
7
  6
CENTER
370
-3
390
F
  0
LAYER
  5
1FB
100
AcDbSymbolTableRecord
100
AcDbLayerTableRecord
  2
DEFAULT_2
 70
0
 62
7
  6
HIDDEN
370
-3
390
F
  0
LAYER
  5
1FC
100
AcDbSymbolTableRecord
100
AcDbLayerTableRecord
  2
DEFAULT_3
 70
0
 62
7
  6
PHANTOM
370
-3
390
F
  0
LAYER
  5
1FD
100
AcDbSymbolTableRecord
100
AcDbLayerTableRecord
  2
00_COMPONENTS
 70
0
 62
7
  6
CONTINUOUS
370
-3
390
F
  0
LAYER
  5
1FE
100
AcDbSymbolTableRecord
100
AcDbLayerTableRecord
  2
01_1_DEFAULT_DATUMS
 70
0
 62
7
  6
CONTINUOUS
370
-3
390
F
  0
LAYER
  5
1FF
100
AcDbSymbolTableRecord
100
AcDbLayerTableRecord
  2
01_PLANES
 70
0
 62
7
  6
CONTINUOUS
370
-3
390
F
  0
LAYER
  5
200
100
AcDbSymbolTableRecord
100
AcDbLayerTableRecord
  2
02_COORD_SYS
 70
0
 62
7
  6
CONTINUOUS
370
-3
390
F
  0
LAYER
  5
201
100
AcDbSymbolTableRecord
100
AcDbLayerTableRecord
  2
03_AXES
 70
0
 62
7
  6
CONTINUOUS
370
-3
390
F
  0
LAYER
  5
202
100
AcDbSymbolTableRecord
100
AcDbLayerTableRecord
  2
04_POINTS
 70
0
 62
7
  6
CONTINUOUS
370
-3
390
F
  0
LAYER
  5
203
100
AcDbSymbolTableRecord
100
AcDbLayerTableRecord
  2
05_CURVES
 70
0
 62
7
  6
CONTINUOUS
370
-3
390
F
  0
LAYER
  5
204
100
AcDbSymbolTableRecord
100
AcDbLayerTableRecord
  2
06_SURFS
 70
0
 62
7
  6
CONTINUOUS
370
-3
390
F
  0
LAYER
  5
205
100
AcDbSymbolTableRecord
100
AcDbLayerTableRecord
  2
07_COSMETICS
 70
0
 62
7
  6
CONTINUOUS
370
-3
390
F
  0
LAYER
  5
206
100
AcDbSymbolTableRecord
100
AcDbLayerTableRecord
  2
10_NOTES
 70
0
 62
7
  6
CONTINUOUS
370
-3
390
F
  0
LAYER
  5
207
100
AcDbSymbolTableRecord
100
AcDbLayerTableRecord
  2
11_NOTES_PUB
 70
0
 62
7
  6
CONTINUOUS
370
-3
390
F
  0
LAYER
  5
208
100
AcDbSymbolTableRecord
100
AcDbLayerTableRecord
  2
13_REF_GTOL
 70
0
 62
7
  6
CONTINUOUS
370
-3
390
F
  0
LAYER
  5
209
100
AcDbSymbolTableRecord
100
AcDbLayerTableRecord
  2
16_MISC
 70
0
 62
7
  6
CONTINUOUS
370
-3
390
F
  0
LAYER
  5
20A
100
AcDbSymbolTableRecord
100
AcDbLayerTableRecord
  2
17_NO_PRINT
 70
0
 62
7
  6
CONTINUOUS
370
-3
390
F
  0
LAYER
  5
20B
100
AcDbSymbolTableRecord
100
AcDbLayerTableRecord
  2
18_DATUM_CAMS_JOINTS
 70
0
 62
7
  6
CONTINUOUS
370
-3
390
F
  0
LAYER
  5
20C
100
AcDbSymbolTableRecord
100
AcDbLayerTableRecord
  2
19_DATUM_FUNCTIONAL
 70
0
 62
7
  6
CONTINUOUS
370
-3
390
F
  0
LAYER
  5
20D
100
AcDbSymbolTableRecord
100
AcDbLayerTableRecord
  2
20_DATUM_KINEMATIC_SCHEME
 70
0
 62
7
  6
CONTINUOUS
370
-3
390
F
  0
ENDTAB
  0
TABLE
  2
STYLE
  5
3
100
AcDbSymbolTable
 70
1
  0
STYLE
  5
11
100
AcDbSymbolTableRecord
100
AcDbTextStyleTableRecord
  2
STANDARD
 70
0
 40
0.0
 41
1.0
 50
0.0
 71
0
 42
0.2
  3
ARIAL.TTF
  4

  0
STYLE
  5
20E
100
AcDbSymbolTableRecord
100
AcDbTextStyleTableRecord
  2
TEXTSTYLE_1
 70
0
 40
0.0
 41
0.8
 50
0.0
 71
0
 42
0.2
  3
gdt
  4

  0
ENDTAB
  0
TABLE
  2
VIEW
  5
6
100
AcDbSymbolTable
 70
0
  0
ENDTAB
  0
TABLE
  2
UCS
  5
7
100
AcDbSymbolTable
 70
0
  0
ENDTAB
  0
TABLE
  2
APPID
  5
9
100
AcDbSymbolTable
 70
1
  0
APPID
  5
20F
100
AcDbSymbolTableRecord
100
AcDbRegAppTableRecord
  2
ACAD
 70
0
  0
ENDTAB
  0
TABLE
  2
BLOCK_RECORD
  5
1
100
AcDbSymbolTable
 70
0
  0
BLOCK_RECORD
  5
210
100
AcDbSymbolTableRecord
100
AcDbBlockTableRecord
  2
*Model_Space
  0
BLOCK_RECORD
  5
211
100
AcDbSymbolTableRecord
100
AcDbBlockTableRecord
  2
*Paper_Space
  0
BLOCK_RECORD
  5
212
100
AcDbSymbolTableRecord
100
AcDbBlockTableRecord
  2
_FILLED
  0
ENDTAB
  0
TABLE
  2
DIMSTYLE
  5
A
100
AcDbSymbolTable
 70
1
100
AcDbDimStyleTable
 71
0
  0
DIMSTYLE
105
213
100
AcDbSymbolTableRecord
100
AcDbDimStyleTableRecord
  2
STANDARD
 70
0
  3

  4

 40
1.0
 41
3.7053364101
 42
1.0
 43
0.38
 44
1.0
 45
0.0
 46
0.0
 47
0.01
 48
0.01
140
5.1874709741
141
0.09
142
0.0
143
25.4
144
1.0
145
0.0
146
1.0
147
0.625
 71
1
 72
0
 73
0
 74
0
 75
0
 76
0
 77
1
 78
8
 79
2
170
0
171
1
172
0
173
0
174
0
175
0
176
0
177
0
178
0
270
2
179
2
271
2
272
2
273
2
274
2
275
0
280
0
281
0
282
0
283
1
284
8
285
0
286
0
287
3
288
0
340
11
278
46
341
212
342
212
343
212
344
212
  0
ENDTAB
  0
ENDSEC
  0
SECTION
  2
BLOCKS
  0
BLOCK
  5
20
100
AcDbEntity
  8
0
100
AcDbBlockBegin
  2
*Model_Space
 70
0
 10
0.0
 20
0.0
 30
0.0
  3
*Model_Space
  1

  0
ENDBLK
  5
21
100
AcDbEntity
  8
0
100
AcDbBlockEnd
  0
BLOCK
  5
1C
100
AcDbEntity
  8
0
100
AcDbBlockBegin
  2
*Paper_Space
 70
0
 10
0.0
 20
0.0
 30
0.0
  3
*Paper_Space
  1

  0
ENDBLK
  5
1D
100
AcDbEntity
  8
0
100
AcDbBlockEnd
  0
BLOCK
  5
214
100
AcDbEntity
  8
0
100
AcDbBlockBegin
  2
_FILLED
 70
64
 10
0.0
 20
0.0
  3
_FILLED
  1

  0
SOLID
  5
215
100
AcDbEntity
  8
0
  6
BYBLOCK
 62
0
100
AcDbTrace
 10
0.0
 20
0.0
 11
-1.0
 21
0.25
 12
-1.0
 22
-0.25
 13
-1.0
 23
-0.25
  0
ENDBLK
  5
216
100
AcDbEntity
  8
0
  6
BYBLOCK
 62
0
100
AcDbBlockEnd
  0
ENDSEC
  0
SECTION
  2
ENTITIES
  0
LINE
  5
217
100
AcDbEntity
  8
0
100
AcDbLine
 62
7
  6
BYLAYER
 10
50.6650774991
 20
48.75
 11
268.6650774991
 21
48.75
  0
LINE
  5
218
100
AcDbEntity
  8
0
100
AcDbLine
 62
7
  6
BYLAYER
 10
281.6650774991
 20
50.95
 11
277.9150774991
 21
50.95
  0
LINE
  5
219
100
AcDbEntity
  8
0
100
AcDbLine
 62
7
  6
BYLAYER
 10
272.4150774991
 20
50.95
 11
269.6650774991
 21
50.95
  0
LINE
  5
21A
100
AcDbEntity
  8
0
100
AcDbLine
 62
7
  6
BYLAYER
 10
49.6650774991
 20
50.95
 11
46.9150774991
 21
50.95
  0
LINE
  5
21B
100
AcDbEntity
  8
0
100
AcDbLine
 62
7
  6
BYLAYER
 10
41.4150774991
 20
50.95
 11
37.6650774991
 21
50.95
  0
LINE
  5
21C
100
AcDbEntity
  8
0
100
AcDbLine
 62
7
  6
BYLAYER
 10
90.6651487865
 20
54.58
 11
94.0907472487
 21
54.58
  0
LINE
  5
21D
100
AcDbEntity
  8
0
100
AcDbLine
 62
7
  6
BYLAYER
 10
95.2021705234
 20
54.58
 11
98.6650062117
 21
54.58
  0
LINE
  5
21E
100
AcDbEntity
  8
0
100
AcDbLine
 62
7
  6
BYLAYER
 10
220.6651487865
 20
54.58
 11
224.0603060323
 21
54.58
  0
LINE
  5
21F
100
AcDbEntity
  8
0
100
AcDbLine
 62
7
  6
BYLAYER
 10
225.5699162824
 20
54.58
 11
228.6650062117
 21
54.58
  0
LINE
  5
220
100
AcDbEntity
  8
0
100
AcDbLine
 62
7
  6
BYLAYER
 10
90.6651487865
 20
55.58
 11
90.8588060742
 21
55.58
  0
LINE
  5
221
100
AcDbEntity
  8
0
100
AcDbLine
 62
7
  6
BYLAYER
 10
93.9673551746
 20
55.58
 11
95.2021705234
 21
55.58
  0
LINE
  5
222
100
AcDbEntity
  8
0
100
AcDbLine
 62
7
  6
BYLAYER
 10
98.471348924
 20
55.58
 11
98.6650062117
 21
55.58
  0
LINE
  5
223
100
AcDbEntity
  8
0
100
AcDbLine
 62
7
  6
BYLAYER
 10
220.6651487865
 20
55.58
 11
220.7462762462
 21
55.58
  0
LINE
  5
224
100
AcDbEntity
  8
0
100
AcDbLine
 62
7
  6
BYLAYER
 10
223.8720451778
 20
55.58
 11
225.5699162824
 21
55.58
  0
LINE
  5
225
100
AcDbEntity
  8
0
100
AcDbLine
 62
7
  6
BYLAYER
 10
228.5838787521
 20
55.58
 11
228.6650062117
 21
55.58
  0
LINE
  5
226
100
AcDbEntity
  8
0
100
AcDbLine
 62
7
  6
BYLAYER
 10
87.6650774991
 20
58.48
 11
231.6650774991
 21
58.48
  0
LINE
  5
227
100
AcDbEntity
  8
0
100
AcDbLine
 62
7
  6
BYLAYER
 10
75.6650774992
 20
59.75
 11
87.6650774991
 21
59.7500002707
  0
LINE
  5
228
100
AcDbEntity
  8
0
100
AcDbLine
 62
7
  6
BYLAYER
 10
231.6650774991
 20
59.7500002708
 11
243.6650774991
 21
59.75
  0
LINE
  5
229
100
AcDbEntity
  8
0
100
AcDbLine
 62
7
  6
BYLAYER
 10
87.6650774991
 20
60.48
 11
231.6650774991
 21
60.48
  0
LINE
  5
22A
100
AcDbEntity
  8
0
100
AcDbLine
 62
7
  6
BYLAYER
 10
87.1650774991
 20
61.4693238954
 11
232.1650774991
 21
61.4693238954
  0
LINE
  5
22B
100
AcDbEntity
  8
0
100
AcDbLine
 62
7
  6
BYLAYER
 10
75.6650774992
 20
61.5216890902
 11
243.6650774991
 21
61.5216890902
  0
LINE
  5
22C
100
AcDbEntity
  8
0
100
AcDbLine
 62
7
  6
BYLAYER
 10
75.6650775008
 20
61.5408896616
 11
243.6650774975
 21
61.5408896616
  0
LINE
  5
22D
100
AcDbEntity
  8
0
100
AcDbLine
 62
7
  6
BYLAYER
 10
75.6650774986
 20
61.9720297654
 11
243.6650774994
 21
61.9720297654
  0
LINE
  5
22E
100
AcDbEntity
  8
0
100
AcDbLine
 62
7
  6
BYLAYER
 10
283.6650774991
 20
63.75
 11
270.6650774991
 21
63.75
  0
LINE
  5
22F
100
AcDbEntity
  8
0
100
AcDbLine
 62
7
  6
BYLAYER
 10
35.6650774991
 20
63.75
 11
48.6650774991
 21
63.75
  0
LINE
  5
230
100
AcDbEntity
  8
0
100
AcDbLine
 62
7
  6
BYLAYER
 10
163.189553584
 20
69.3985869589
 11
160.2933632688
 21
69.3985869589
  0
LINE
  5
231
100
AcDbEntity
  8
0
100
AcDbLine
 62
7
  6
BYLAYER
 10
158.9802783626
 20
69.3985869589
 11
156.242278153
 21
69.3985869589
  0
LINE
  5
232
100
AcDbEntity
  8
0
100
AcDbLine
 62
7
  6
BYLAYER
 10
156.2641269626
 20
70.4062781235
 11
158.9802783626
 21
70.4062781235
  0
LINE
  5
233
100
AcDbEntity
  8
0
100
AcDbLine
 62
7
  6
BYLAYER
 10
160.2933632688
 20
70.4062781235
 11
163.1677047744
 21
70.4062781235
  0
LINE
  5
234
100
AcDbEntity
  8
0
100
AcDbLine
 62
7
  6
BYLAYER
 10
123.107107421
 20
76.9720000016
 11
75.6671071483
 21
76.9720000016
  0
LINE
  5
235
100
AcDbEntity
  8
0
100
AcDbLine
 62
7
  6
BYLAYER
 10
161.6630774991
 20
76.972
 11
243.6630774991
 21
76.972
  0
LINE
  5
236
100
AcDbEntity
  8
0
100
AcDbLine
 62
7
  6
BYLAYER
 10
161.6630774991
 20
79.172
 11
243.6630774991
 21
79.172
  0
LINE
  5
237
100
AcDbEntity
  8
0
100
AcDbLine
 62
7
  6
BYLAYER
 10
34.6650774991
 20
53.95
 11
34.6650774991
 21
383.55
  0
LINE
  5
238
100
AcDbEntity
  8
0
100
AcDbLine
 62
7
  6
BYLAYER
 10
123.1071074153
 20
81.9720000014
 11
75.6671071582
 21
81.9720000014
  0
LINE
  5
239
100
AcDbEntity
  8
0
100
AcDbLine
 62
7
  6
BYLAYER
 10
75.6671072645
 20
82.972
 11
123.1071072645
 21
82.972
  0
LINE
  5
23A
100
AcDbEntity
  8
0
100
AcDbLine
 62
7
  6
BYLAYER
 10
75.6871072645
 20
83.472000059
 11
123.0871072645
 21
83.472000059
  0
LINE
  5
23B
100
AcDbEntity
  8
0
100
AcDbLine
 62
7
  6
BYLAYER
 10
45.6650774991
 20
89.75
 11
47.4367665893
 21
89.7500000001
  0
LINE
  5
23C
100
AcDbEntity
  8
0
100
AcDbLine
 62
7
  6
BYLAYER
 10
47.4559671608
 20
89.7500000005
 11
47.8871072645
 21
89.7499999997
  0
LINE
  5
23D
100
AcDbEntity
  8
0
100
AcDbLine
 62
7
  6
BYLAYER
 10
271.4430477338
 20
89.7499999995
 11
271.8741878375
 21
89.7500000005
  0
LINE
  5
23E
100
AcDbEntity
  8
0
100
AcDbLine
 62
7
  6
BYLAYER
 10
271.8933884089
 20
89.7500000002
 11
273.6650774991
 21
89.75
  0
LINE
  5
23F
100
AcDbEntity
  8
0
100
AcDbLine
 62
7
  6
BYLAYER
 10
135.8871072629
 20
89.7519998843
 11
130.8871072635
 21
89.7519999362
  0
LINE
  5
240
100
AcDbEntity
  8
0
100
AcDbLine
 62
7
  6
BYLAYER
 10
67.8871072655
 20
89.7519998905
 11
62.8871072661
 21
89.7519998439
  0
LINE
  5
241
100
AcDbEntity
  8
0
100
AcDbLine
 62
7
  6
BYLAYER
 10
40.6650774991
 20
93.5
 11
45.6738050316
 21
93.5
  0
LINE
  5
242
100
AcDbEntity
  8
0
100
AcDbLine
 62
7
  6
BYLAYER
 10
273.6563499666
 20
93.5
 11
278.6650774991
 21
93.5
  0
LINE
  5
243
100
AcDbEntity
  8
0
100
AcDbLine
 62
7
  6
BYLAYER
 10
39.8498553104
 20
94.5789194706
 11
39.8498553104
 21
97.9500365317
  0
LINE
  5
244
100
AcDbEntity
  8
0
100
AcDbLine
 62
7
  6
BYLAYER
 10
39.8498553104
 20
99.0913764349
 11
39.8498553104
 21
102.9210805294
  0
LINE
  5
245
100
AcDbEntity
  8
0
100
AcDbLine
 62
7
  6
BYLAYER
 10
39.8498553104
 20
214.5789194706
 11
39.8498553104
 21
218.23820702
  0
LINE
  5
246
100
AcDbEntity
  8
0
100
AcDbLine
 62
7
  6
BYLAYER
 10
39.8498553104
 20
219.1280652495
 11
39.8498553104
 21
222.9210805294
  0
LINE
  5
247
100
AcDbEntity
  8
0
100
AcDbLine
 62
7
  6
BYLAYER
 10
39.8498553104
 20
334.5789194706
 11
39.8498553104
 21
337.9571930911
  0
LINE
  5
248
100
AcDbEntity
  8
0
100
AcDbLine
 62
7
  6
BYLAYER
 10
39.8498553104
 20
339.710310527
 11
39.8498553104
 21
342.9210805294
  0
LINE
  5
249
100
AcDbEntity
  8
0
100
AcDbLine
 62
7
  6
BYLAYER
 10
41.4150774991
 20
379.95
 11
41.4150774991
 21
375.8396094947
  0
LINE
  5
24A
100
AcDbEntity
  8
0
100
AcDbLine
 62
7
  6
BYLAYER
 10
41.4150774991
 20
50.95
 11
41.4150774991
 21
56.95
  0
LINE
  5
24B
100
AcDbEntity
  8
0
100
AcDbLine
 62
7
  6
BYLAYER
 10
41.6917620992
 20
102.8741264205
 11
41.6917620992
 21
99.0913764349
  0
LINE
  5
24C
100
AcDbEntity
  8
0
100
AcDbLine
 62
7
  6
BYLAYER
 10
41.6917620992
 20
97.9500365317
 11
41.6917620992
 21
94.6258735795
  0
LINE
  5
24D
100
AcDbEntity
  8
0
100
AcDbLine
 62
7
  6
BYLAYER
 10
41.7127859856
 20
342.8688356276
 11
41.7127859856
 21
339.710310527
  0
LINE
  5
24E
100
AcDbEntity
  8
0
100
AcDbLine
 62
7
  6
BYLAYER
 10
41.7127859856
 20
337.9571930911
 11
41.7127859856
 21
334.6311643724
  0
LINE
  5
24F
100
AcDbEntity
  8
0
100
AcDbLine
 62
7
  6
BYLAYER
 10
41.7884928987
 20
222.8488337171
 11
41.7884928987
 21
219.1280652495
  0
LINE
  5
250
100
AcDbEntity
  8
0
100
AcDbLine
 62
7
  6
BYLAYER
 10
41.7884928987
 20
218.23820702
 11
41.7884928987
 21
214.6511662829
  0
LINE
  5
251
100
AcDbEntity
  8
0
100
AcDbLine
 62
7
  6
BYLAYER
 10
45.6650774991
 20
347.75
 11
45.6650774991
 21
344.0
  0
LINE
  5
252
100
AcDbEntity
  8
0
100
AcDbLine
 62
7
  6
BYLAYER
 10
45.6650774991
 20
333.5
 11
45.6650774991
 21
224.0
  0
LINE
  5
253
100
AcDbEntity
  8
0
100
AcDbLine
 62
7
  6
BYLAYER
 10
45.6650774991
 20
213.5
 11
45.6650774991
 21
104.0
  0
LINE
  5
254
100
AcDbEntity
  8
0
100
AcDbLine
 62
7
  6
BYLAYER
 10
45.6650774991
 20
93.5
 11
45.6650774991
 21
89.75
  0
LINE
  5
255
100
AcDbEntity
  8
0
100
AcDbLine
 62
7
  6
BYLAYER
 10
45.6738050316
 20
344.0
 11
45.6738050316
 21
333.5
  0
LINE
  5
256
100
AcDbEntity
  8
0
100
AcDbLine
 62
7
  6
BYLAYER
 10
45.6738050316
 20
224.0
 11
45.6738050316
 21
213.5
  0
LINE
  5
257
100
AcDbEntity
  8
0
100
AcDbLine
 62
7
  6
BYLAYER
 10
45.6738050316
 20
104.0
 11
45.6738050316
 21
93.5
  0
LINE
  5
258
100
AcDbEntity
  8
0
100
AcDbLine
 62
7
  6
BYLAYER
 10
46.9150774991
 20
50.95
 11
46.9150774991
 21
56.95
  0
LINE
  5
259
100
AcDbEntity
  8
0
100
AcDbLine
 62
7
  6
BYLAYER
 10
46.9150774991
 20
375.8396094947
 11
46.9150774991
 21
379.95
  0
LINE
  5
25A
100
AcDbEntity
  8
0
100
AcDbLine
 62
7
  6
BYLAYER
 10
47.4367665893
 20
347.7499999999
 11
47.4367665893
 21
89.7500000001
  0
LINE
  5
25B
100
AcDbEntity
  8
0
100
AcDbLine
 62
7
  6
BYLAYER
 10
47.4559671607
 20
347.7499999984
 11
47.4559671607
 21
89.7500000016
  0
LINE
  5
25C
100
AcDbEntity
  8
0
100
AcDbLine
 62
7
  6
BYLAYER
 10
47.8871072645
 20
347.7500000005
 11
47.8871072645
 21
89.7499999997
  0
LINE
  5
25D
100
AcDbEntity
  8
0
100
AcDbLine
 62
7
  6
BYLAYER
 10
44.8391113334
 20
97.9500365317
 11
36.4910436649
 21
97.9500365317
  0
LINE
  5
25E
100
AcDbEntity
  8
0
100
AcDbLine
 62
7
  6
BYLAYER
 10
274.4810938027
 20
98.0038227907
 11
282.8490611956
 21
98.0038227907
  0
LINE
  5
25F
100
AcDbEntity
  8
0
100
AcDbLine
 62
7
  6
BYLAYER
 10
58.4848501199
 20
98.2180017729
 11
55.4208127483
 21
98.2180017729
  0
LINE
  5
260
100
AcDbEntity
  8
0
100
AcDbLine
 62
7
  6
BYLAYER
 10
54.6664873767
 20
98.2180017729
 11
51.5773575729
 21
98.2180017729
  0
LINE
  5
261
100
AcDbEntity
  8
0
100
AcDbLine
 62
7
  6
BYLAYER
 10
260.6781255977
 20
98.2646265379
 11
263.524416136
 21
98.2646265379
  0
LINE
  5
262
100
AcDbEntity
  8
0
100
AcDbLine
 62
7
  6
BYLAYER
 10
264.8375010422
 20
98.2646265379
 11
267.6002853991
 21
98.2646265379
  0
LINE
  5
263
100
AcDbEntity
  8
0
100
AcDbLine
 62
7
  6
BYLAYER
 10
44.9013449753
 20
99.0913764349
 11
36.428810023
 21
99.0913764349
  0
LINE
  5
264
100
AcDbEntity
  8
0
100
AcDbLine
 62
7
  6
BYLAYER
 10
274.4288100229
 20
99.0913764349
 11
282.9013449753
 21
99.0913764349
  0
LINE
  5
265
100
AcDbEntity
  8
0
100
AcDbLine
 62
7
  6
BYLAYER
 10
58.5032654279
 20
99.2256929374
 11
55.4208127483
 21
99.2256929374
  0
LINE
  5
266
100
AcDbEntity
  8
0
100
AcDbLine
 62
7
  6
BYLAYER
 10
54.6664873767
 20
99.2256929374
 11
51.558942265
 21
99.2256929374
  0
LINE
  5
267
100
AcDbEntity
  8
0
100
AcDbLine
 62
7
  6
BYLAYER
 10
260.667043917
 20
99.2256929374
 11
263.524416136
 21
99.2256929374
  0
LINE
  5
268
100
AcDbEntity
  8
0
100
AcDbLine
 62
7
  6
BYLAYER
 10
264.8375010422
 20
99.2256929374
 11
267.6113670799
 21
99.2256929374
  0
LINE
  5
269
100
AcDbEntity
  8
0
100
AcDbLine
 62
7
  6
BYLAYER
 10
278.6650774991
 20
104.0
 11
273.6563499666
 21
104.0
  0
LINE
  5
26A
100
AcDbEntity
  8
0
100
AcDbLine
 62
7
  6
BYLAYER
 10
45.6738050316
 20
104.0
 11
40.6650774991
 21
104.0
  0
LINE
  5
26B
100
AcDbEntity
  8
0
100
AcDbLine
 62
7
  6
BYLAYER
 10
49.6650774991
 20
387.75
 11
49.6650774991
 21
374.75
  0
LINE
  5
26C
100
AcDbEntity
  8
0
100
AcDbLine
 62
7
  6
BYLAYER
 10
49.6650774991
 20
49.75
 11
49.6650774991
 21
62.75
  0
LINE
  5
26D
100
AcDbEntity
  8
0
100
AcDbLine
 62
7
  6
BYLAYER
 10
54.6664873767
 20
95.3041759632
 11
54.6664873767
 21
98.2180017729
  0
LINE
  5
26E
100
AcDbEntity
  8
0
100
AcDbLine
 62
7
  6
BYLAYER
 10
54.6664873767
 20
99.2256929374
 11
54.6664873767
 21
102.266088008
  0
LINE
  5
26F
100
AcDbEntity
  8
0
100
AcDbLine
 62
7
  6
BYLAYER
 10
54.6664873767
 20
215.2710703218
 11
54.6664873767
 21
218.225347366
  0
LINE
  5
270
100
AcDbEntity
  8
0
100
AcDbLine
 62
7
  6
BYLAYER
 10
54.6664873767
 20
219.2053480294
 11
54.6664873767
 21
222.2329823666
  0
LINE
  5
271
100
AcDbEntity
  8
0
100
AcDbLine
 62
7
  6
BYLAYER
 10
54.6664873767
 20
335.417200388
 11
54.6664873767
 21
338.3077399102
  0
LINE
  5
272
100
AcDbEntity
  8
0
100
AcDbLine
 62
7
  6
BYLAYER
 10
54.6664873767
 20
339.2511912785
 11
54.6664873767
 21
342.3791124328
  0
LINE
  5
273
100
AcDbEntity
  8
0
100
AcDbLine
 62
7
  6
BYLAYER
 10
55.4208127483
 20
102.2633681725
 11
55.4208127483
 21
99.2256929374
  0
LINE
  5
274
100
AcDbEntity
  8
0
100
AcDbLine
 62
7
  6
BYLAYER
 10
55.4208127483
 20
98.2180017729
 11
55.4208127483
 21
95.3068957987
  0
LINE
  5
275
100
AcDbEntity
  8
0
100
AcDbLine
 62
7
  6
BYLAYER
 10
55.6347120975
 20
342.3457145432
 11
55.6347120975
 21
339.2511912785
  0
LINE
  5
276
100
AcDbEntity
  8
0
100
AcDbLine
 62
7
  6
BYLAYER
 10
55.6347120975
 20
338.3077399102
 11
55.6347120975
 21
335.4505982775
  0
LINE
  5
277
100
AcDbEntity
  8
0
100
AcDbLine
 62
7
  6
BYLAYER
 10
55.7426705535
 20
222.1789306063
 11
55.7426705535
 21
219.2053480294
  0
LINE
  5
278
100
AcDbEntity
  8
0
100
AcDbLine
 62
7
  6
BYLAYER
 10
55.7426705535
 20
218.225347366
 11
55.7426705535
 21
215.3251220821
  0
LINE
  5
279
100
AcDbEntity
  8
0
100
AcDbLine
 62
7
  6
BYLAYER
 10
62.8871072661
 20
89.7519998439
 11
62.8871072661
 21
177.4720001158
  0
LINE
  5
27A
100
AcDbEntity
  8
0
100
AcDbLine
 62
7
  6
BYLAYER
 10
129.3871072645
 20
114.472000059
 11
69.3871072645
 21
114.472000059
  0
LINE
  5
27B
100
AcDbEntity
  8
0
100
AcDbLine
 62
7
  6
BYLAYER
 10
128.8871072645
 20
114.972000059
 11
69.8871072645
 21
114.972000059
  0
LINE
  5
27C
100
AcDbEntity
  8
0
100
AcDbLine
 62
7
  6
BYLAYER
 10
68.8871072645
 20
116.472000059
 11
129.8871072645
 21
116.472000059
  0
LINE
  5
27D
100
AcDbEntity
  8
0
100
AcDbLine
 62
7
  6
BYLAYER
 10
129.3871072645
 20
116.972000059
 11
69.3871072645
 21
116.972000059
  0
LINE
  5
27E
100
AcDbEntity
  8
0
100
AcDbLine
 62
7
  6
BYLAYER
 10
91.0093700894
 20
133.1718445991
 11
90.424018132
 21
133.3054410399
  0
LINE
  5
27F
100
AcDbEntity
  8
0
100
AcDbLine
 62
7
  6
BYLAYER
 10
90.884096587
 20
131.9233821025
 11
90.838093214
 21
131.9693835943
  0
LINE
  5
280
100
AcDbEntity
  8
0
100
AcDbLine
 62
7
  6
BYLAYER
 10
92.9116974717
 20
131.9464315948
 11
92.5510415675
 21
132.3070700246
  0
LINE
  5
281
100
AcDbEntity
  8
0
100
AcDbLine
 62
7
  6
BYLAYER
 10
90.861060068
 20
133.9969856957
 11
91.2215852896
 21
133.6364779665
  0
LINE
  5
282
100
AcDbEntity
  8
0
100
AcDbLine
 62
7
  6
BYLAYER
 10
92.9346643245
 20
133.974033695
 11
92.8886609514
 21
134.0200351868
  0
LINE
  5
283
100
AcDbEntity
  8
0
100
AcDbLine
 62
7
  6
BYLAYER
 10
67.8871072659
 20
89.7519998491
 11
67.8871072659
 21
177.4720001066
  0
LINE
  5
284
100
AcDbEntity
  8
0
100
AcDbLine
 62
7
  6
BYLAYER
 10
68.8871072645
 20
177.472000059
 11
68.8871072645
 21
116.472000059
  0
LINE
  5
285
100
AcDbEntity
  8
0
100
AcDbLine
 62
7
  6
BYLAYER
 10
68.8871072645
 20
113.972000059
 11
68.8871072645
 21
89.752
  0
LINE
  5
286
100
AcDbEntity
  8
0
100
AcDbLine
 62
7
  6
BYLAYER
 10
69.3871072645
 20
114.472000059
 11
69.3871072645
 21
89.772000059
  0
LINE
  5
287
100
AcDbEntity
  8
0
100
AcDbLine
 62
7
  6
BYLAYER
 10
69.3871072645
 20
116.972000059
 11
69.3871072645
 21
176.972000059
  0
LINE
  5
288
100
AcDbEntity
  8
0
100
AcDbLine
 62
7
  6
BYLAYER
 10
75.6650774991
 20
377.75
 11
75.6650774994
 21
375.9783109098
  0
LINE
  5
289
100
AcDbEntity
  8
0
100
AcDbLine
 62
7
  6
BYLAYER
 10
75.6650774997
 20
375.9591103384
 11
75.6650774989
 21
375.5279702346
  0
LINE
  5
28A
100
AcDbEntity
  8
0
100
AcDbLine
 62
7
  6
BYLAYER
 10
75.6650774986
 20
61.9720297654
 11
75.6650774996
 21
61.5408896616
  0
LINE
  5
28B
100
AcDbEntity
  8
0
100
AcDbLine
 62
7
  6
BYLAYER
 10
75.6650774992
 20
61.5216890902
 11
75.6650774991
 21
59.75
  0
LINE
  5
28C
100
AcDbEntity
  8
0
100
AcDbLine
 62
7
  6
BYLAYER
 10
75.667107212
 20
185.251999999
 11
75.6671071784
 21
190.2519999984
  0
LINE
  5
28D
100
AcDbEntity
  8
0
100
AcDbLine
 62
7
  6
BYLAYER
 10
75.6671071483
 20
76.9720000016
 11
75.6671072009
 21
81.972000001
  0
LINE
  5
28E
100
AcDbEntity
  8
0
100
AcDbLine
 62
7
  6
BYLAYER
 10
91.3811018772
 20
133.3594327742
 11
90.5399453343
 21
133.3427801652
  0
LINE
  5
28F
100
AcDbEntity
  8
0
100
AcDbLine
 62
7
  6
BYLAYER
 10
92.3907874975
 20
132.5881412872
 11
93.2328840024
 21
132.6008966328
  0
LINE
  5
290
100
AcDbEntity
  8
0
100
AcDbLine
 62
7
  6
BYLAYER
 10
90.5399246442
 20
132.6007117132
 11
91.3812306745
 21
132.5860438698
  0
LINE
  5
291
100
AcDbEntity
  8
0
100
AcDbLine
 62
7
  6
BYLAYER
 10
93.2328328881
 20
133.3427055762
 11
92.391526864
 21
133.3573734195
  0
LINE
  5
292
100
AcDbEntity
  8
0
100
AcDbLine
 62
7
  6
BYLAYER
 10
91.500759754
 20
132.4651084209
 11
91.508103814
 21
132.0448599527
  0
LINE
  5
293
100
AcDbEntity
  8
0
100
AcDbLine
 62
7
  6
BYLAYER
 10
92.2720351616
 20
133.4761700426
 11
92.2646537381
 21
133.89855656
  0
LINE
  5
294
100
AcDbEntity
  8
0
100
AcDbLine
 62
7
  6
BYLAYER
 10
79.3871072645
 20
136.472000059
 11
79.3871072645
 21
157.472000059
  0
LINE
  5
295
100
AcDbEntity
  8
0
100
AcDbLine
 62
7
  6
BYLAYER
 10
87.1650774991
 20
60.0205590605
 11
87.1650774991
 21
61.4693238954
  0
LINE
  5
296
100
AcDbEntity
  8
0
100
AcDbLine
 62
7
  6
BYLAYER
 10
87.3871072645
 20
149.472000059
 11
87.3871072645
 21
144.472000059
  0
LINE
  5
297
100
AcDbEntity
  8
0
100
AcDbLine
 62
7
  6
BYLAYER
 10
87.6650774991
 20
58.48
 11
87.6650774991
 21
60.48
  0
LINE
  5
298
100
AcDbEntity
  8
0
100
AcDbLine
 62
7
  6
BYLAYER
 10
90.6650774991
 20
60.48
 11
90.6650774991
 21
54.58
  0
LINE
  5
299
100
AcDbEntity
  8
0
100
AcDbLine
 62
7
  6
BYLAYER
 10
90.8588060742
 20
54.58
 11
90.8588060742
 21
55.58
  0
LINE
  5
29A
100
AcDbEntity
  8
0
100
AcDbLine
 62
7
  6
BYLAYER
 10
176.6630773984
 20
299.8701570581
 11
159.2385300682
 21
293.3970752382
  0
LINE
  5
29B
100
AcDbEntity
  8
0
100
AcDbLine
 62
7
  6
BYLAYER
 10
119.3871072645
 20
136.472000059
 11
79.3871072645
 21
136.472000059
  0
LINE
  5
29C
100
AcDbEntity
  8
0
100
AcDbLine
 62
7
  6
BYLAYER
 10
79.3871072645
 20
144.472000059
 11
119.3871072645
 21
144.472000059
  0
LINE
  5
29D
100
AcDbEntity
  8
0
100
AcDbLine
 62
7
  6
BYLAYER
 10
79.3871072645
 20
149.472000059
 11
119.3871072645
 21
149.472000059
  0
LINE
  5
29E
100
AcDbEntity
  8
0
100
AcDbLine
 62
7
  6
BYLAYER
 10
105.8835240496
 20
159.9236888114
 11
105.8375206766
 21
159.9696903032
  0
LINE
  5
29F
100
AcDbEntity
  8
0
100
AcDbLine
 62
7
  6
BYLAYER
 10
107.9111249343
 20
159.9467383037
 11
107.55046903
 21
160.3073767335
  0
LINE
  5
2A0
100
AcDbEntity
  8
0
100
AcDbLine
 62
7
  6
BYLAYER
 10
105.8604875306
 20
161.9972924047
 11
106.2210127522
 21
161.6367846755
  0
LINE
  5
2A1
100
AcDbEntity
  8
0
100
AcDbLine
 62
7
  6
BYLAYER
 10
107.9340917871
 20
161.9743404039
 11
107.888088414
 21
162.0203418957
  0
LINE
  5
2A2
100
AcDbEntity
  8
0
100
AcDbLine
 62
7
  6
BYLAYER
 10
91.4864330812
 20
130.3155573838
 11
91.4863908215
 21
132.382282912
  0
LINE
  5
2A3
100
AcDbEntity
  8
0
100
AcDbLine
 62
7
  6
BYLAYER
 10
91.4863667157
 20
133.561189197
 11
91.4863244574
 21
135.6278434423
  0
LINE
  5
2A4
100
AcDbEntity
  8
0
100
AcDbLine
 62
7
  6
BYLAYER
 10
91.486324812
 20
135.6278434423
 11
91.4863645319
 21
133.561189197
  0
LINE
  5
2A5
100
AcDbEntity
  8
0
100
AcDbLine
 62
7
  6
BYLAYER
 10
91.4863930053
 20
132.382282912
 11
91.4864327266
 21
130.3155573838
  0
LINE
  5
2A6
100
AcDbEntity
  8
0
100
AcDbLine
 62
7
  6
BYLAYER
 10
92.2863244573
 20
135.6278599054
 11
92.286366717
 21
133.5611343772
  0
LINE
  5
2A7
100
AcDbEntity
  8
0
100
AcDbLine
 62
7
  6
BYLAYER
 10
92.28639082
 20
132.3823660526
 11
92.286433081
 21
130.3155738505
  0
LINE
  5
2A8
100
AcDbEntity
  8
0
100
AcDbLine
 62
7
  6
BYLAYER
 10
92.2863645332
 20
133.5611343772
 11
92.2863248119
 21
135.6278599054
  0
LINE
  5
2A9
100
AcDbEntity
  8
0
100
AcDbLine
 62
7
  6
BYLAYER
 10
92.2864327265
 20
130.3155738505
 11
92.2863930038
 21
132.3823660526
  0
LINE
  5
2AA
100
AcDbEntity
  8
0
100
AcDbLine
 62
7
  6
BYLAYER
 10
93.9673551746
 20
55.58
 11
93.9673551746
 21
54.58
  0
LINE
  5
2AB
100
AcDbEntity
  8
0
100
AcDbLine
 62
7
  6
BYLAYER
 10
94.0907472487
 20
55.58
 11
94.0907472487
 21
54.58
  0
LINE
  5
2AC
100
AcDbEntity
  8
0
100
AcDbLine
 62
7
  6
BYLAYER
 10
95.2021705234
 20
54.58
 11
95.2021705234
 21
55.58
  0
LINE
  5
2AD
100
AcDbEntity
  8
0
100
AcDbLine
 62
7
  6
BYLAYER
 10
98.471348924
 20
55.58
 11
98.471348924
 21
54.58
  0
LINE
  5
2AE
100
AcDbEntity
  8
0
100
AcDbLine
 62
7
  6
BYLAYER
 10
98.6650774991
 20
58.48
 11
98.6650062117
 21
54.58
  0
LINE
  5
2AF
100
AcDbEntity
  8
0
100
AcDbLine
 62
7
  6
BYLAYER
 10
97.1647796701
 20
60.48
 11
97.1648384395
 21
61.4693238954
  0
LINE
  5
2B0
100
AcDbEntity
  8
0
100
AcDbLine
 62
7
  6
BYLAYER
 10
92.2638336813
 20
132.0443068215
 11
92.2699552311
 21
132.4665527921
  0
LINE
  5
2B1
100
AcDbEntity
  8
0
100
AcDbLine
 62
7
  6
BYLAYER
 10
91.5069530971
 20
133.8980552526
 11
91.4986320806
 21
133.4768737142
  0
LINE
  5
2B2
100
AcDbEntity
  8
0
100
AcDbLine
 62
7
  6
BYLAYER
 10
228.6630776001
 20
311.929842823
 11
246.0876245472
 21
318.4029174612
  0
LINE
  5
2B3
100
AcDbEntity
  8
0
100
AcDbLine
 62
7
  6
BYLAYER
 10
106.3805293398
 20
161.3597394832
 11
105.5393727969
 21
161.3430868741
  0
LINE
  5
2B4
100
AcDbEntity
  8
0
100
AcDbLine
 62
7
  6
BYLAYER
 10
107.3902149601
 20
160.5884479962
 11
108.232311465
 21
160.6012033418
  0
LINE
  5
2B5
100
AcDbEntity
  8
0
100
AcDbLine
 62
7
  6
BYLAYER
 10
79.3871072645
 20
157.472000059
 11
119.3871072645
 21
157.472000059
  0
LINE
  5
2B6
100
AcDbEntity
  8
0
100
AcDbLine
 62
7
  6
BYLAYER
 10
105.5393521068
 20
160.6010184221
 11
106.3806581371
 21
160.5863505787
  0
LINE
  5
2B7
100
AcDbEntity
  8
0
100
AcDbLine
 62
7
  6
BYLAYER
 10
108.2322603507
 20
161.3430122851
 11
107.3909543266
 21
161.3576801284
  0
LINE
  5
2B8
100
AcDbEntity
  8
0
100
AcDbLine
 62
7
  6
BYLAYER
 10
106.008797552
 20
161.172151308
 11
105.4234455946
 21
161.3057477489
  0
LINE
  5
2B9
100
AcDbEntity
  8
0
100
AcDbLine
 62
7
  6
BYLAYER
 10
106.5001872166
 20
160.4654151298
 11
106.5075312766
 21
160.0451666616
  0
LINE
  5
2BA
100
AcDbEntity
  8
0
100
AcDbLine
 62
7
  6
BYLAYER
 10
107.2714626242
 20
161.4764767515
 11
107.2640812007
 21
161.8988632689
  0
LINE
  5
2BB
100
AcDbEntity
  8
0
100
AcDbLine
 62
7
  6
BYLAYER
 10
106.4858605438
 20
158.3158640928
 11
106.4858182841
 21
160.382589621
  0
LINE
  5
2BC
100
AcDbEntity
  8
0
100
AcDbLine
 62
7
  6
BYLAYER
 10
106.4857941783
 20
161.5614959059
 11
106.48575192
 21
163.6281501512
  0
LINE
  5
2BD
100
AcDbEntity
  8
0
100
AcDbLine
 62
7
  6
BYLAYER
 10
106.4857522746
 20
163.6281501512
 11
106.4857919945
 21
161.5614959059
  0
LINE
  5
2BE
100
AcDbEntity
  8
0
100
AcDbLine
 62
7
  6
BYLAYER
 10
106.4858204679
 20
160.382589621
 11
106.4858601892
 21
158.3158640928
  0
LINE
  5
2BF
100
AcDbEntity
  8
0
100
AcDbLine
 62
7
  6
BYLAYER
 10
107.2857519199
 20
163.6281666144
 11
107.2857941795
 21
161.5614410862
  0
LINE
  5
2C0
100
AcDbEntity
  8
0
100
AcDbLine
 62
7
  6
BYLAYER
 10
107.2858182826
 20
160.3826727615
 11
107.2858605436
 21
158.3158805595
  0
LINE
  5
2C1
100
AcDbEntity
  8
0
100
AcDbLine
 62
7
  6
BYLAYER
 10
107.2857919958
 20
161.5614410862
 11
107.2857522745
 21
163.6281666144
  0
LINE
  5
2C2
100
AcDbEntity
  8
0
100
AcDbLine
 62
7
  6
BYLAYER
 10
107.285860189
 20
158.3158805595
 11
107.2858204664
 21
160.3826727615
  0
LINE
  5
2C3
100
AcDbEntity
  8
0
100
AcDbLine
 62
7
  6
BYLAYER
 10
111.3871072645
 20
144.472000059
 11
111.3871072645
 21
149.472000059
  0
LINE
  5
2C4
100
AcDbEntity
  8
0
100
AcDbLine
 62
7
  6
BYLAYER
 10
107.2632611439
 20
160.0446135305
 11
107.2693826937
 21
160.466859501
  0
LINE
  5
2C5
100
AcDbEntity
  8
0
100
AcDbLine
 62
7
  6
BYLAYER
 10
106.5063805597
 20
161.8983619615
 11
106.4980595432
 21
161.4771804231
  0
LINE
  5
2C6
100
AcDbEntity
  8
0
100
AcDbLine
 62
7
  6
BYLAYER
 10
166.04947218
 20
286.5883676162
 11
180.3830770502
 21
296.15
  0
LINE
  5
2C7
100
AcDbEntity
  8
0
100
AcDbLine
 62
7
  6
BYLAYER
 10
239.2766866651
 20
325.2116324621
 11
224.943077948
 21
315.65
  0
LINE
  5
2C8
100
AcDbEntity
  8
0
100
AcDbLine
 62
7
  6
BYLAYER
 10
69.3871072645
 20
176.972000059
 11
129.3871072645
 21
176.972000059
  0
LINE
  5
2C9
100
AcDbEntity
  8
0
100
AcDbLine
 62
7
  6
BYLAYER
 10
62.8871072661
 20
177.4720001158
 11
67.8871072655
 21
177.4720000638
  0
LINE
  5
2CA
100
AcDbEntity
  8
0
100
AcDbLine
 62
7
  6
BYLAYER
 10
68.8871072645
 20
177.472000059
 11
129.8871072645
 21
177.472000059
  0
LINE
  5
2CB
100
AcDbEntity
  8
0
100
AcDbLine
 62
7
  6
BYLAYER
 10
130.8871072635
 20
177.4720001095
 11
135.8871072629
 21
177.472000156
  0
LINE
  5
2CC
100
AcDbEntity
  8
0
100
AcDbLine
 62
7
  6
BYLAYER
 10
119.3871072645
 20
136.472000059
 11
119.3871072645
 21
157.472000059
  0
LINE
  5
2CD
100
AcDbEntity
  8
0
100
AcDbLine
 62
7
  6
BYLAYER
 10
123.1071073467
 20
190.2519999984
 11
123.1071073079
 21
185.251999999
  0
LINE
  5
2CE
100
AcDbEntity
  8
0
100
AcDbLine
 62
7
  6
BYLAYER
 10
123.1071073739
 20
81.972000001
 11
123.107107421
 21
76.9720000016
  0
LINE
  5
2CF
100
AcDbEntity
  8
0
100
AcDbLine
 62
7
  6
BYLAYER
 10
129.3871072645
 20
176.972000059
 11
129.3871072645
 21
116.972000059
  0
LINE
  5
2D0
100
AcDbEntity
  8
0
100
AcDbLine
 62
7
  6
BYLAYER
 10
129.3871072645
 20
89.772000059
 11
129.3871072645
 21
114.472000059
  0
LINE
  5
2D1
100
AcDbEntity
  8
0
100
AcDbLine
 62
7
  6
BYLAYER
 10
129.8871072645
 20
89.752
 11
129.8871072645
 21
113.972000059
  0
LINE
  5
2D2
100
AcDbEntity
  8
0
100
AcDbLine
 62
7
  6
BYLAYER
 10
129.8871072645
 20
116.472000059
 11
129.8871072645
 21
177.472000059
  0
LINE
  5
2D3
100
AcDbEntity
  8
0
100
AcDbLine
 62
7
  6
BYLAYER
 10
130.8871072631
 20
177.4720001509
 11
130.8871072631
 21
89.7519998934
  0
LINE
  5
2D4
100
AcDbEntity
  8
0
100
AcDbLine
 62
7
  6
BYLAYER
 10
75.6671071462
 20
185.2519999986
 11
123.1071073711
 21
185.2519999986
  0
LINE
  5
2D5
100
AcDbEntity
  8
0
100
AcDbLine
 62
7
  6
BYLAYER
 10
75.6671071784
 20
190.2519999984
 11
123.1071073467
 21
190.2519999984
  0
LINE
  5
2D6
100
AcDbEntity
  8
0
100
AcDbLine
 62
7
  6
BYLAYER
 10
135.8871072629
 20
177.472000156
 11
135.8871072629
 21
89.7519998843
  0
LINE
  5
2D7
100
AcDbEntity
  8
0
100
AcDbLine
 62
7
  6
BYLAYER
 10
92.2766775028
 20
133.7821797946
 11
92.5371635076
 21
134.3231290116
  0
LINE
  5
2D8
100
AcDbEntity
  8
0
100
AcDbLine
 62
7
  6
BYLAYER
 10
107.2761049654
 20
161.7824865036
 11
107.5365909702
 21
162.3234357206
  0
LINE
  5
2D9
100
AcDbEntity
  8
0
100
AcDbLine
 62
7
  6
BYLAYER
 10
148.8830774991
 20
347.748
 11
148.8830774991
 21
89.752
  0
LINE
  5
2DA
100
AcDbEntity
  8
0
100
AcDbLine
 62
7
  6
BYLAYER
 10
151.0830774991
 20
347.748
 11
151.0830774991
 21
89.752
  0
LINE
  5
2DB
100
AcDbEntity
  8
0
100
AcDbLine
 62
7
  6
BYLAYER
 10
154.4150774991
 20
382.75
 11
154.4150774991
 21
377.75
  0
LINE
  5
2DC
100
AcDbEntity
  8
0
100
AcDbLine
 62
7
  6
BYLAYER
 10
158.631183397
 20
378.6276750509
 11
158.631183397
 21
381.8287009813
  0
LINE
  5
2DD
100
AcDbEntity
  8
0
100
AcDbLine
 62
7
  6
BYLAYER
 10
158.631183397
 20
383.5818184173
 11
158.631183397
 21
386.8723249491
  0
LINE
  5
2DE
100
AcDbEntity
  8
0
100
AcDbLine
 62
7
  6
BYLAYER
 10
158.9802783626
 20
73.2491716791
 11
158.9802783626
 21
70.4062781235
  0
LINE
  5
2DF
100
AcDbEntity
  8
0
100
AcDbLine
 62
7
  6
BYLAYER
 10
158.9802783626
 20
69.3985869589
 11
158.9802783626
 21
66.4055359611
  0
LINE
  5
2E0
100
AcDbEntity
  8
0
100
AcDbLine
 62
7
  6
BYLAYER
 10
158.9802783626
 20
364.2571150369
 11
158.9802783626
 21
367.2618650167
  0
LINE
  5
2E1
100
AcDbEntity
  8
0
100
AcDbLine
 62
7
  6
BYLAYER
 10
158.9802783626
 20
368.2229314161
 11
158.9802783626
 21
371.1007507549
  0
LINE
  5
2E2
100
AcDbEntity
  8
0
100
AcDbLine
 62
7
  6
BYLAYER
 10
159.2385485688
 20
318.3969659047
 11
159.2385498198
 21
293.4030493214
  0
LINE
  5
2E3
100
AcDbEntity
  8
0
100
AcDbLine
 62
7
  6
BYLAYER
 10
160.2522750166
 20
364.2202743605
 11
160.2522750166
 21
367.2618650167
  0
LINE
  5
2E4
100
AcDbEntity
  8
0
100
AcDbLine
 62
7
  6
BYLAYER
 10
160.2522750166
 20
368.2229314161
 11
160.2522750166
 21
371.1375914313
  0
LINE
  5
2E5
100
AcDbEntity
  8
0
100
AcDbLine
 62
7
  6
BYLAYER
 10
160.2933632688
 20
73.2793901032
 11
160.2933632688
 21
70.4062781235
  0
LINE
  5
2E6
100
AcDbEntity
  8
0
100
AcDbLine
 62
7
  6
BYLAYER
 10
160.2933632688
 20
69.3985869589
 11
160.2933632688
 21
66.375317537
  0
LINE
  5
2E7
100
AcDbEntity
  8
0
100
AcDbLine
 62
7
  6
BYLAYER
 10
160.7971207048
 20
378.6535407752
 11
160.7971207048
 21
381.8287009813
  0
LINE
  5
2E8
100
AcDbEntity
  8
0
100
AcDbLine
 62
7
  6
BYLAYER
 10
160.7971207048
 20
383.5818184173
 11
160.7971207048
 21
386.8464592248
  0
LINE
  5
2E9
100
AcDbEntity
  8
0
100
AcDbLine
 62
7
  6
BYLAYER
 10
40.6650774991
 20
213.5
 11
45.6738050316
 21
213.5
  0
LINE
  5
2EA
100
AcDbEntity
  8
0
100
AcDbLine
 62
7
  6
BYLAYER
 10
273.6563499666
 20
213.5
 11
278.6650774991
 21
213.5
  0
LINE
  5
2EB
100
AcDbEntity
  8
0
100
AcDbLine
 62
7
  6
BYLAYER
 10
274.5305348908
 20
217.7661009098
 11
282.7996201075
 21
217.7661009098
  0
LINE
  5
2EC
100
AcDbEntity
  8
0
100
AcDbLine
 62
7
  6
BYLAYER
 10
58.4912496893
 20
218.225347366
 11
55.7426705535
 21
218.225347366
  0
LINE
  5
2ED
100
AcDbEntity
  8
0
100
AcDbLine
 62
7
  6
BYLAYER
 10
54.6664873767
 20
218.225347366
 11
51.5709580036
 21
218.225347366
  0
LINE
  5
2EE
100
AcDbEntity
  8
0
100
AcDbLine
 62
7
  6
BYLAYER
 10
44.8841494285
 20
218.23820702
 11
36.4460055697
 21
218.23820702
  0
LINE
  5
2EF
100
AcDbEntity
  8
0
100
AcDbLine
 62
7
  6
BYLAYER
 10
260.6762305772
 20
218.2442816299
 11
263.9472915907
 21
218.2442816299
  0
LINE
  5
2F0
100
AcDbEntity
  8
0
100
AcDbLine
 62
7
  6
BYLAYER
 10
264.7016169624
 20
218.2442816299
 11
267.6021804197
 21
218.2442816299
  0
LINE
  5
2F1
100
AcDbEntity
  8
0
100
AcDbLine
 62
7
  6
BYLAYER
 10
44.8982284139
 20
219.1280652495
 11
36.4319265844
 21
219.1280652495
  0
LINE
  5
2F2
100
AcDbEntity
  8
0
100
AcDbLine
 62
7
  6
BYLAYER
 10
274.4319265843
 20
219.1280652495
 11
282.8982284139
 21
219.1280652495
  0
LINE
  5
2F3
100
AcDbEntity
  8
0
100
AcDbLine
 62
7
  6
BYLAYER
 10
58.5016224604
 20
219.2053480294
 11
55.7426705535
 21
219.2053480294
  0
LINE
  5
2F4
100
AcDbEntity
  8
0
100
AcDbLine
 62
7
  6
BYLAYER
 10
54.6664873767
 20
219.2053480294
 11
51.5605852325
 21
219.2053480294
  0
LINE
  5
2F5
100
AcDbEntity
  8
0
100
AcDbLine
 62
7
  6
BYLAYER
 10
260.6686868845
 20
219.2053480294
 11
263.9472915907
 21
219.2053480294
  0
LINE
  5
2F6
100
AcDbEntity
  8
0
100
AcDbLine
 62
7
  6
BYLAYER
 10
264.7016169624
 20
219.2053480294
 11
267.6097241124
 21
219.2053480294
  0
LINE
  5
2F7
100
AcDbEntity
  8
0
100
AcDbLine
 62
7
  6
BYLAYER
 10
215.8450010201
 20
61.4693238954
 11
216.2050854701
 21
60.48
  0
LINE
  5
2F8
100
AcDbEntity
  8
0
100
AcDbLine
 62
7
  6
BYLAYER
 10
164.9150774991
 20
377.7412727958
 11
164.9150774991
 21
382.75
  0
LINE
  5
2F9
100
AcDbEntity
  8
0
100
AcDbLine
 62
7
  6
BYLAYER
 10
105.8834811808
 20
162.0203009081
 11
105.8374796871
 21
161.9742975332
  0
LINE
  5
2FA
100
AcDbEntity
  8
0
100
AcDbLine
 62
7
  6
BYLAYER
 10
105.8605293763
 20
159.9466964568
 11
106.221109012
 21
160.3072905097
  0
LINE
  5
2FB
100
AcDbEntity
  8
0
100
AcDbLine
 62
7
  6
BYLAYER
 10
107.5505031421
 20
161.6367409906
 11
107.9110830874
 21
161.9973342504
  0
LINE
  5
2FC
100
AcDbEntity
  8
0
100
AcDbLine
 62
7
  6
BYLAYER
 10
107.9341327769
 20
159.9697331742
 11
107.8881312826
 21
159.9237297987
  0
LINE
  5
2FD
100
AcDbEntity
  8
0
100
AcDbLine
 62
7
  6
BYLAYER
 10
90.8840537182
 20
134.0199941992
 11
90.8380522245
 21
133.9739908242
  0
LINE
  5
2FE
100
AcDbEntity
  8
0
100
AcDbLine
 62
7
  6
BYLAYER
 10
90.8611019137
 20
131.9463897478
 11
91.2216815494
 21
132.3069838008
  0
LINE
  5
2FF
100
AcDbEntity
  8
0
100
AcDbLine
 62
7
  6
BYLAYER
 10
92.5510756795
 20
133.6364342817
 11
92.9116556248
 21
133.9970275414
  0
LINE
  5
300
100
AcDbEntity
  8
0
100
AcDbLine
 62
7
  6
BYLAYER
 10
92.9347053143
 20
131.9694264653
 11
92.88870382
 21
131.9234230898
  0
LINE
  5
301
100
AcDbEntity
  8
0
100
AcDbLine
 62
7
  6
BYLAYER
 10
278.6650774991
 20
224.0
 11
273.6563499666
 21
224.0
  0
LINE
  5
302
100
AcDbEntity
  8
0
100
AcDbLine
 62
7
  6
BYLAYER
 10
45.6738050316
 20
224.0
 11
40.6650774991
 21
224.0
  0
LINE
  5
303
100
AcDbEntity
  8
0
100
AcDbLine
 62
7
  6
BYLAYER
 10
176.6630774991
 20
311.9300001836
 11
176.6630773984
 21
299.8701570581
  0
LINE
  5
304
100
AcDbEntity
  8
0
100
AcDbLine
 62
7
  6
BYLAYER
 10
178.7655292308
 20
297.7122283856
 11
178.8462307221
 21
314.6620362686
  0
LINE
  5
305
100
AcDbEntity
  8
0
100
AcDbLine
 62
7
  6
BYLAYER
 10
187.7718547741
 20
299.0193627349
 11
187.8175618135
 21
308.6192539252
  0
LINE
  5
306
100
AcDbEntity
  8
0
100
AcDbLine
 62
7
  6
BYLAYER
 10
220.6650774991
 20
58.48
 11
220.6650774991
 21
54.58
  0
LINE
  5
307
100
AcDbEntity
  8
0
100
AcDbLine
 62
7
  6
BYLAYER
 10
220.7462762462
 20
54.58
 11
220.7462762462
 21
55.58
  0
LINE
  5
308
100
AcDbEntity
  8
0
100
AcDbLine
 62
7
  6
BYLAYER
 10
222.1653161896
 20
61.4693238954
 11
222.1653748395
 21
60.48
  0
LINE
  5
309
100
AcDbEntity
  8
0
100
AcDbLine
 62
7
  6
BYLAYER
 10
223.8720451778
 20
55.58
 11
223.8720451778
 21
54.58
  0
LINE
  5
30A
100
AcDbEntity
  8
0
100
AcDbLine
 62
7
  6
BYLAYER
 10
224.0603060323
 20
55.58
 11
224.0603060323
 21
54.58
  0
LINE
  5
30B
100
AcDbEntity
  8
0
100
AcDbLine
 62
7
  6
BYLAYER
 10
225.5699162824
 20
54.58
 11
225.5699162824
 21
55.58
  0
LINE
  5
30C
100
AcDbEntity
  8
0
100
AcDbLine
 62
7
  6
BYLAYER
 10
228.5838787521
 20
55.58
 11
228.5838787521
 21
54.58
  0
LINE
  5
30D
100
AcDbEntity
  8
0
100
AcDbLine
 62
7
  6
BYLAYER
 10
228.6630774992
 20
299.8699995588
 11
228.6630776001
 21
311.929842823
  0
LINE
  5
30E
100
AcDbEntity
  8
0
100
AcDbLine
 62
7
  6
BYLAYER
 10
228.6650062117
 20
54.58
 11
228.6650774991
 21
60.48
  0
LINE
  5
30F
100
AcDbEntity
  8
0
100
AcDbLine
 62
7
  6
BYLAYER
 10
231.6650774991
 20
60.48
 11
231.6650774991
 21
58.48
  0
LINE
  5
310
100
AcDbEntity
  8
0
100
AcDbLine
 62
7
  6
BYLAYER
 10
218.817210449
 20
308.4716582773
 11
218.7715034096
 21
298.871767087
  0
LINE
  5
311
100
AcDbEntity
  8
0
100
AcDbLine
 62
7
  6
BYLAYER
 10
227.8446998042
 20
314.2238473554
 11
227.7649738482
 21
297.4789320389
  0
LINE
  5
312
100
AcDbEntity
  8
0
100
AcDbLine
 62
7
  6
BYLAYER
 10
166.0590295092
 20
286.5883898706
 11
239.267109263
 21
286.5883936671
  0
LINE
  5
313
100
AcDbEntity
  8
0
100
AcDbLine
 62
7
  6
BYLAYER
 10
232.1650774991
 20
61.4693238954
 11
232.1650774991
 21
60.0205599035
  0
LINE
  5
314
100
AcDbEntity
  8
0
100
AcDbLine
 62
7
  6
BYLAYER
 10
243.6650774991
 20
59.75
 11
243.6650774991
 21
61.5216890902
  0
LINE
  5
315
100
AcDbEntity
  8
0
100
AcDbLine
 62
7
  6
BYLAYER
 10
243.6650774986
 20
61.5408896616
 11
243.6650774994
 21
61.9720297654
  0
LINE
  5
316
100
AcDbEntity
  8
0
100
AcDbLine
 62
7
  6
BYLAYER
 10
243.6650774996
 20
375.5279702346
 11
243.6650774986
 21
375.9591103384
  0
LINE
  5
317
100
AcDbEntity
  8
0
100
AcDbLine
 62
7
  6
BYLAYER
 10
243.6650774989
 20
375.9783109098
 11
243.6650774991
 21
377.75
  0
LINE
  5
318
100
AcDbEntity
  8
0
100
AcDbLine
 62
7
  6
BYLAYER
 10
180.3830770502
 20
296.15
 11
224.943077754
 21
296.15
  0
LINE
  5
319
100
AcDbEntity
  8
0
100
AcDbLine
 62
7
  6
BYLAYER
 10
227.7649738482
 20
297.4789320389
 11
178.7655292308
 21
297.7122283856
  0
LINE
  5
31A
100
AcDbEntity
  8
0
100
AcDbLine
 62
7
  6
BYLAYER
 10
218.7715034096
 20
298.871767087
 11
187.7718547741
 21
299.0193627349
  0
LINE
  5
31B
100
AcDbEntity
  8
0
100
AcDbLine
 62
7
  6
BYLAYER
 10
246.0876061263
 20
293.4030435129
 11
246.08760476
 21
318.3969388814
  0
LINE
  5
31C
100
AcDbEntity
  8
0
100
AcDbLine
 62
7
  6
BYLAYER
 10
254.2430774991
 20
89.752
 11
254.2430774991
 21
347.748
  0
LINE
  5
31D
100
AcDbEntity
  8
0
100
AcDbLine
 62
7
  6
BYLAYER
 10
256.4430774991
 20
89.752
 11
256.4430774991
 21
347.748
  0
LINE
  5
31E
100
AcDbEntity
  8
0
100
AcDbLine
 62
7
  6
BYLAYER
 10
203.4851539781
 20
61.4693238954
 11
203.1250695282
 21
60.48
  0
LINE
  5
31F
100
AcDbEntity
  8
0
100
AcDbLine
 62
7
  6
BYLAYER
 10
224.943077948
 20
315.65
 11
180.3830772442
 21
315.65
  0
LINE
  5
320
100
AcDbEntity
  8
0
100
AcDbLine
 62
7
  6
BYLAYER
 10
187.8175618135
 20
308.6192539252
 11
218.817210449
 21
308.4716582773
  0
LINE
  5
321
100
AcDbEntity
  8
0
100
AcDbLine
 62
7
  6
BYLAYER
 10
178.8462307221
 20
314.6620362686
 11
227.6391960821
 21
314.4297230118
  0
LINE
  5
322
100
AcDbEntity
  8
0
100
AcDbLine
 62
7
  6
BYLAYER
 10
159.2385288185
 20
318.4029241168
 11
176.6630774991
 21
311.9300001836
  0
LINE
  5
323
100
AcDbEntity
  8
0
100
AcDbLine
 62
7
  6
BYLAYER
 10
246.0876259121
 20
293.3970813612
 11
228.6630774992
 21
299.8699995588
  0
LINE
  5
324
100
AcDbEntity
  8
0
100
AcDbLine
 62
7
  6
BYLAYER
 10
180.3830772442
 20
315.65
 11
166.0494733149
 21
325.2116284678
  0
LINE
  5
325
100
AcDbEntity
  8
0
100
AcDbLine
 62
7
  6
BYLAYER
 10
263.524416136
 20
95.3395501712
 11
263.524416136
 21
98.2646265379
  0
LINE
  5
326
100
AcDbEntity
  8
0
100
AcDbLine
 62
7
  6
BYLAYER
 10
263.524416136
 20
99.2256929374
 11
263.524416136
 21
102.2307138
  0
LINE
  5
327
100
AcDbEntity
  8
0
100
AcDbLine
 62
7
  6
BYLAYER
 10
263.524416136
 20
335.452574596
 11
263.524416136
 21
338.290124879
  0
LINE
  5
328
100
AcDbEntity
  8
0
100
AcDbLine
 62
7
  6
BYLAYER
 10
263.524416136
 20
339.2511912785
 11
263.524416136
 21
342.3437382248
  0
LINE
  5
329
100
AcDbEntity
  8
0
100
AcDbLine
 62
7
  6
BYLAYER
 10
263.9472915907
 20
215.257291869
 11
263.9472915907
 21
218.2442816299
  0
LINE
  5
32A
100
AcDbEntity
  8
0
100
AcDbLine
 62
7
  6
BYLAYER
 10
263.9472915907
 20
219.2053480294
 11
263.9472915907
 21
222.2467608194
  0
LINE
  5
32B
100
AcDbEntity
  8
0
100
AcDbLine
 62
7
  6
BYLAYER
 10
264.4323446015
 20
342.3858590161
 11
264.4323446015
 21
339.2511912785
  0
LINE
  5
32C
100
AcDbEntity
  8
0
100
AcDbLine
 62
7
  6
BYLAYER
 10
264.4323446015
 20
338.290124879
 11
264.4323446015
 21
335.4104538046
  0
LINE
  5
32D
100
AcDbEntity
  8
0
100
AcDbLine
 62
7
  6
BYLAYER
 10
264.7016169624
 20
222.2065441608
 11
264.7016169624
 21
219.2053480294
  0
LINE
  5
32E
100
AcDbEntity
  8
0
100
AcDbLine
 62
7
  6
BYLAYER
 10
264.7016169624
 20
218.2442816299
 11
264.7016169624
 21
215.2975085276
  0
LINE
  5
32F
100
AcDbEntity
  8
0
100
AcDbLine
 62
7
  6
BYLAYER
 10
264.8375010422
 20
102.2147651049
 11
264.8375010422
 21
99.2256929374
  0
LINE
  5
330
100
AcDbEntity
  8
0
100
AcDbLine
 62
7
  6
BYLAYER
 10
264.8375010422
 20
98.2646265379
 11
264.8375010422
 21
95.3554988662
  0
LINE
  5
331
100
AcDbEntity
  8
0
100
AcDbLine
 62
7
  6
BYLAYER
 10
269.6650774991
 20
387.75
 11
269.6650774991
 21
374.75
  0
LINE
  5
332
100
AcDbEntity
  8
0
100
AcDbLine
 62
7
  6
BYLAYER
 10
269.6650774991
 20
49.75
 11
269.6650774991
 21
62.75
  0
LINE
  5
333
100
AcDbEntity
  8
0
100
AcDbLine
 62
7
  6
BYLAYER
 10
271.4430477338
 20
89.7499999995
 11
271.4430477338
 21
347.7500000003
  0
LINE
  5
334
100
AcDbEntity
  8
0
100
AcDbLine
 62
7
  6
BYLAYER
 10
271.8741878375
 20
89.7500000016
 11
271.8741878375
 21
347.7499999984
  0
LINE
  5
335
100
AcDbEntity
  8
0
100
AcDbLine
 62
7
  6
BYLAYER
 10
271.8933884089
 20
89.7500000002
 11
271.8933884089
 21
347.7499999999
  0
LINE
  5
336
100
AcDbEntity
  8
0
100
AcDbLine
 62
7
  6
BYLAYER
 10
272.4150774991
 20
379.95
 11
272.4150774991
 21
375.8396094947
  0
LINE
  5
337
100
AcDbEntity
  8
0
100
AcDbLine
 62
7
  6
BYLAYER
 10
272.4150774991
 20
50.95
 11
272.4150774991
 21
56.95
  0
LINE
  5
338
100
AcDbEntity
  8
0
100
AcDbLine
 62
7
  6
BYLAYER
 10
273.6563499666
 20
93.5
 11
273.6563499666
 21
104.0
  0
LINE
  5
339
100
AcDbEntity
  8
0
100
AcDbLine
 62
7
  6
BYLAYER
 10
273.6563499666
 20
213.5
 11
273.6563499666
 21
224.0
  0
LINE
  5
33A
100
AcDbEntity
  8
0
100
AcDbLine
 62
7
  6
BYLAYER
 10
273.6563499666
 20
333.5
 11
273.6563499666
 21
344.0
  0
LINE
  5
33B
100
AcDbEntity
  8
0
100
AcDbLine
 62
7
  6
BYLAYER
 10
273.6650774991
 20
89.75
 11
273.6650774991
 21
93.5
  0
LINE
  5
33C
100
AcDbEntity
  8
0
100
AcDbLine
 62
7
  6
BYLAYER
 10
273.6650774991
 20
104.0
 11
273.6650774991
 21
213.5
  0
LINE
  5
33D
100
AcDbEntity
  8
0
100
AcDbLine
 62
7
  6
BYLAYER
 10
273.6650774991
 20
224.0
 11
273.6650774991
 21
333.5
  0
LINE
  5
33E
100
AcDbEntity
  8
0
100
AcDbLine
 62
7
  6
BYLAYER
 10
273.6650774991
 20
344.0
 11
273.6650774991
 21
347.7499999999
  0
LINE
  5
33F
100
AcDbEntity
  8
0
100
AcDbLine
 62
7
  6
BYLAYER
 10
239.267132345
 20
325.211610218
 11
166.0590528798
 21
325.2116062077
  0
LINE
  5
340
100
AcDbEntity
  8
0
100
AcDbLine
 62
7
  6
BYLAYER
 10
224.943077754
 20
296.15
 11
239.2766867425
 21
286.5883714173
  0
LINE
  5
341
100
AcDbEntity
  8
0
100
AcDbLine
 62
7
  6
BYLAYER
 10
277.9150774991
 20
50.95
 11
277.9150774991
 21
56.95
  0
LINE
  5
342
100
AcDbEntity
  8
0
100
AcDbLine
 62
7
  6
BYLAYER
 10
277.9150774991
 20
375.8396094947
 11
277.9150774991
 21
379.95
  0
LINE
  5
343
100
AcDbEntity
  8
0
100
AcDbLine
 62
7
  6
BYLAYER
 10
278.1728031102
 20
94.5286061631
 11
278.1728031102
 21
98.0038227907
  0
LINE
  5
344
100
AcDbEntity
  8
0
100
AcDbLine
 62
7
  6
BYLAYER
 10
278.1728031102
 20
99.0913764349
 11
278.1728031102
 21
102.9713938369
  0
LINE
  5
345
100
AcDbEntity
  8
0
100
AcDbLine
 62
7
  6
BYLAYER
 10
278.1728031102
 20
214.5286061631
 11
278.1728031102
 21
217.7661009098
  0
LINE
  5
346
100
AcDbEntity
  8
0
100
AcDbLine
 62
7
  6
BYLAYER
 10
278.1728031102
 20
219.1280652495
 11
278.1728031102
 21
222.9713938369
  0
LINE
  5
347
100
AcDbEntity
  8
0
100
AcDbLine
 62
7
  6
BYLAYER
 10
278.1728031102
 20
334.5286061631
 11
278.1728031102
 21
337.7607763305
  0
LINE
  5
348
100
AcDbEntity
  8
0
100
AcDbLine
 62
7
  6
BYLAYER
 10
278.1728031102
 20
339.710310527
 11
278.1728031102
 21
342.9713938369
  0
LINE
  5
349
100
AcDbEntity
  8
0
100
AcDbLine
 62
7
  6
BYLAYER
 10
279.5269351986
 20
102.9116945234
 11
279.5269351986
 21
99.0913764349
  0
LINE
  5
34A
100
AcDbEntity
  8
0
100
AcDbLine
 62
7
  6
BYLAYER
 10
279.5269351986
 20
98.0038227907
 11
279.5269351986
 21
94.5883054766
  0
LINE
  5
34B
100
AcDbEntity
  8
0
100
AcDbLine
 62
7
  6
BYLAYER
 10
279.730122541
 20
342.8643868387
 11
279.730122541
 21
339.710310527
  0
LINE
  5
34C
100
AcDbEntity
  8
0
100
AcDbLine
 62
7
  6
BYLAYER
 10
279.730122541
 20
337.7607763305
 11
279.730122541
 21
334.6356131613
  0
LINE
  5
34D
100
AcDbEntity
  8
0
100
AcDbLine
 62
7
  6
BYLAYER
 10
279.8287286097
 20
222.8375929461
 11
279.8287286097
 21
219.1280652495
  0
LINE
  5
34E
100
AcDbEntity
  8
0
100
AcDbLine
 62
7
  6
BYLAYER
 10
279.8287286097
 20
217.7661009098
 11
279.8287286097
 21
214.6624070539
  0
LINE
  5
34F
100
AcDbEntity
  8
0
100
AcDbLine
 62
7
  6
BYLAYER
 10
284.6650774991
 20
53.95
 11
284.6650774991
 21
383.55
  0
LINE
  5
350
100
AcDbEntity
  8
0
100
AcDbLine
 62
7
  6
BYLAYER
 10
40.6650774991
 20
333.5
 11
45.6738050316
 21
333.5
  0
LINE
  5
351
100
AcDbEntity
  8
0
100
AcDbLine
 62
7
  6
BYLAYER
 10
273.6563499666
 20
333.5
 11
278.6650774991
 21
333.5
  0
LINE
  5
352
100
AcDbEntity
  8
0
100
AcDbLine
 62
7
  6
BYLAYER
 10
274.5318056073
 20
337.7607763305
 11
282.7983493909
 21
337.7607763305
  0
LINE
  5
353
100
AcDbEntity
  8
0
100
AcDbLine
 62
7
  6
BYLAYER
 10
44.8404765465
 20
337.9571930911
 11
36.4896784517
 21
337.9571930911
  0
LINE
  5
354
100
AcDbEntity
  8
0
100
AcDbLine
 62
7
  6
BYLAYER
 10
260.6924247313
 20
338.290124879
 11
263.524416136
 21
338.290124879
  0
LINE
  5
355
100
AcDbEntity
  8
0
100
AcDbLine
 62
7
  6
BYLAYER
 10
264.4323446015
 20
338.290124879
 11
267.5859862656
 21
338.290124879
  0
LINE
  5
356
100
AcDbEntity
  8
0
100
AcDbLine
 62
7
  6
BYLAYER
 10
58.4809456336
 20
338.3077399102
 11
55.6347120975
 21
338.3077399102
  0
LINE
  5
357
100
AcDbEntity
  8
0
100
AcDbLine
 62
7
  6
BYLAYER
 10
54.6664873767
 20
338.3077399102
 11
51.5812620593
 21
338.3077399102
  0
LINE
  5
358
100
AcDbEntity
  8
0
100
AcDbLine
 62
7
  6
BYLAYER
 10
58.5132535247
 20
339.2511912785
 11
55.6347120975
 21
339.2511912785
  0
LINE
  5
359
100
AcDbEntity
  8
0
100
AcDbLine
 62
7
  6
BYLAYER
 10
54.6664873767
 20
339.2511912785
 11
51.5489541682
 21
339.2511912785
  0
LINE
  5
35A
100
AcDbEntity
  8
0
100
AcDbLine
 62
7
  6
BYLAYER
 10
260.6570558202
 20
339.2511912785
 11
263.524416136
 21
339.2511912785
  0
LINE
  5
35B
100
AcDbEntity
  8
0
100
AcDbLine
 62
7
  6
BYLAYER
 10
264.4323446015
 20
339.2511912785
 11
267.6213551767
 21
339.2511912785
  0
LINE
  5
35C
100
AcDbEntity
  8
0
100
AcDbLine
 62
7
  6
BYLAYER
 10
44.8051624852
 20
339.710310527
 11
36.5249925131
 21
339.710310527
  0
LINE
  5
35D
100
AcDbEntity
  8
0
100
AcDbLine
 62
7
  6
BYLAYER
 10
274.5249925131
 20
339.710310527
 11
282.8051624851
 21
339.710310527
  0
LINE
  5
35E
100
AcDbEntity
  8
0
100
AcDbLine
 62
7
  6
BYLAYER
 10
278.6650774991
 20
344.0
 11
273.6563499666
 21
344.0
  0
LINE
  5
35F
100
AcDbEntity
  8
0
100
AcDbLine
 62
7
  6
BYLAYER
 10
45.6738050316
 20
344.0
 11
40.6650774991
 21
344.0
  0
LINE
  5
360
100
AcDbEntity
  8
0
100
AcDbLine
 62
7
  6
BYLAYER
 10
273.6650774991
 20
347.75
 11
271.8933884089
 21
347.7499999999
  0
LINE
  5
361
100
AcDbEntity
  8
0
100
AcDbLine
 62
7
  6
BYLAYER
 10
271.8741878375
 20
347.7499999995
 11
271.4430477338
 21
347.7500000003
  0
LINE
  5
362
100
AcDbEntity
  8
0
100
AcDbLine
 62
7
  6
BYLAYER
 10
47.8871072645
 20
347.7500000005
 11
47.4559671608
 21
347.7499999995
  0
LINE
  5
363
100
AcDbEntity
  8
0
100
AcDbLine
 62
7
  6
BYLAYER
 10
47.4367665893
 20
347.7499999999
 11
45.6650774991
 21
347.75
  0
LINE
  5
364
100
AcDbEntity
  8
0
100
AcDbLine
 62
7
  6
BYLAYER
 10
243.6630774991
 20
358.328
 11
161.6630774991
 21
358.328
  0
LINE
  5
365
100
AcDbEntity
  8
0
100
AcDbLine
 62
7
  6
BYLAYER
 10
243.6630774991
 20
360.528
 11
161.6630774991
 21
360.528
  0
LINE
  5
366
100
AcDbEntity
  8
0
100
AcDbLine
 62
7
  6
BYLAYER
 10
163.1909776498
 20
367.2618650167
 11
160.2522750166
 21
367.2618650167
  0
LINE
  5
367
100
AcDbEntity
  8
0
100
AcDbLine
 62
7
  6
BYLAYER
 10
158.9802783626
 20
367.2618650167
 11
156.2408540871
 21
367.2618650167
  0
LINE
  5
368
100
AcDbEntity
  8
0
100
AcDbLine
 62
7
  6
BYLAYER
 10
156.2584506684
 20
368.2229314161
 11
158.9802783626
 21
368.2229314161
  0
LINE
  5
369
100
AcDbEntity
  8
0
100
AcDbLine
 62
7
  6
BYLAYER
 10
160.2522750166
 20
368.2229314161
 11
163.1733810686
 21
368.2229314161
  0
LINE
  5
36A
100
AcDbEntity
  8
0
100
AcDbLine
 62
7
  6
BYLAYER
 10
283.6650774991
 20
373.75
 11
270.6650774991
 21
373.75
  0
LINE
  5
36B
100
AcDbEntity
  8
0
100
AcDbLine
 62
7
  6
BYLAYER
 10
35.6650774991
 20
373.75
 11
48.6650774991
 21
373.75
  0
LINE
  5
36C
100
AcDbEntity
  8
0
100
AcDbLine
 62
7
  6
BYLAYER
 10
243.6650774996
 20
375.5279702346
 11
75.6650774989
 21
375.5279702346
  0
LINE
  5
36D
100
AcDbEntity
  8
0
100
AcDbLine
 62
7
  6
BYLAYER
 10
243.6650774975
 20
375.9591103384
 11
75.6650775008
 21
375.9591103384
  0
LINE
  5
36E
100
AcDbEntity
  8
0
100
AcDbLine
 62
7
  6
BYLAYER
 10
243.6650774989
 20
375.9783109098
 11
75.6650774994
 21
375.9783109098
  0
LINE
  5
36F
100
AcDbEntity
  8
0
100
AcDbLine
 62
7
  6
BYLAYER
 10
243.6650774992
 20
377.75
 11
164.9150774991
 21
377.75
  0
LINE
  5
370
100
AcDbEntity
  8
0
100
AcDbLine
 62
7
  6
BYLAYER
 10
75.6650774991
 20
377.75
 11
158.0642964449
 21
377.75
  0
LINE
  5
371
100
AcDbEntity
  8
0
100
AcDbLine
 62
7
  6
BYLAYER
 10
163.814018101
 20
381.8287009813
 11
155.5161368972
 21
381.8287009813
  0
LINE
  5
372
100
AcDbEntity
  8
0
100
AcDbLine
 62
7
  6
BYLAYER
 10
155.4972749461
 20
383.5818184173
 11
163.8328800521
 21
383.5818184173
  0
LINE
  5
373
100
AcDbEntity
  8
0
100
AcDbLine
 62
7
  6
BYLAYER
 10
281.6650774991
 20
386.55
 11
269.6650774991
 21
386.55
  0
LINE
  5
374
100
AcDbEntity
  8
0
100
AcDbLine
 62
7
  6
BYLAYER
 10
49.6650774991
 20
386.55
 11
37.6650774991
 21
386.55
  0
LINE
  5
375
100
AcDbEntity
  8
0
100
AcDbLine
 62
7
  6
BYLAYER
 10
268.6650774991
 20
388.75
 11
50.6650774991
 21
388.75
  0
LINE
  5
376
100
AcDbEntity
  8
0
100
AcDbLine
 62
7
  6
BYLAYER
 10
164.9150774991
 20
377.7412727958
 11
158.0642964449
 21
377.7456372348
  0
ARC
  5
377
100
AcDbEntity
  8
0
100
AcDbCircle
 62
7
  6
BYLAYER
 10
28.9262911445
 20
68.832773709
 40
89.8726579789
100
AcDbArc
 50
44.9321769939
 51
45.0669665649
  0
ARC
  5
378
100
AcDbEntity
  8
0
100
AcDbCircle
 62
7
  6
BYLAYER
 10
29.5543921847
 20
71.8198558935
 40
87.3163091333
100
AcDbArc
 50
44.9306563605
 51
45.0693356933
  0
ARC
  5
379
100
AcDbEntity
  8
0
100
AcDbCircle
 62
7
  6
BYLAYER
 10
37.6650774991
 20
53.95
 40
3.0
100
AcDbArc
 50
180.0
 51
270.0
  0
ARC
  5
37A
100
AcDbEntity
  8
0
100
AcDbCircle
 62
7
  6
BYLAYER
 10
44.1650774991
 20
56.95
 40
2.75
100
AcDbArc
 50
0.0
 51
180.0
  0
ARC
  5
37B
100
AcDbEntity
  8
0
100
AcDbCircle
 62
7
  6
BYLAYER
 10
35.6650774991
 20
64.75
 40
1.0
100
AcDbArc
 50
180.0
 51
270.0
  0
ARC
  5
37C
100
AcDbEntity
  8
0
100
AcDbCircle
 62
7
  6
BYLAYER
 10
48.6650774991
 20
62.75
 40
1.0
100
AcDbArc
 50
0.0
 51
90.0
  0
ARC
  5
37D
100
AcDbEntity
  8
0
100
AcDbCircle
 62
7
  6
BYLAYER
 10
50.6650774991
 20
49.75
 40
1.0
100
AcDbArc
 50
180.0
 51
270.0
  0
ARC
  5
37E
100
AcDbEntity
  8
0
100
AcDbCircle
 62
7
  6
BYLAYER
 10
43.9257186028
 20
96.8330804137
 40
89.8726579849
100
AcDbArc
 50
44.9321769939
 51
45.0669665649
  0
ARC
  5
37F
100
AcDbEntity
  8
0
100
AcDbCircle
 62
7
  6
BYLAYER
 10
44.5538196772
 20
99.8201626323
 40
87.3163090911
100
AcDbArc
 50
44.9306563605
 51
45.0693356933
  0
ARC
  5
380
100
AcDbEntity
  8
0
100
AcDbCircle
 62
7
  6
BYLAYER
 10
40.6650774991
 20
98.75
 40
5.25
100
AcDbArc
 50
90.0
 51
270.0
  0
CIRCLE
  5
381
100
AcDbEntity
  8
0
100
AcDbCircle
 62
7
  6
BYLAYER
 10
40.6650774991
 20
98.75
 40
4.25
  0
ARC
  5
382
100
AcDbEntity
  8
0
100
AcDbCircle
 62
7
  6
BYLAYER
 10
75.6650774991
 20
89.75
 40
30.0
100
AcDbArc
 50
180.0
 51
270.0000000001
  0
ARC
  5
383
100
AcDbEntity
  8
0
100
AcDbCircle
 62
7
  6
BYLAYER
 10
75.6650774991
 20
89.75
 40
28.2283109098
100
AcDbArc
 50
179.9999999995
 51
270.0000000006
  0
ARC
  5
384
100
AcDbEntity
  8
0
100
AcDbCircle
 62
7
  6
BYLAYER
 10
75.6650774991
 20
89.75
 40
28.2091103384
100
AcDbArc
 50
179.9999999967
 51
270.0000000033
  0
ARC
  5
385
100
AcDbEntity
  8
0
100
AcDbCircle
 62
7
  6
BYLAYER
 10
75.6650774991
 20
89.75
 40
27.7779702346
100
AcDbArc
 50
180.0000000015
 51
269.9999999967
  0
ARC
  5
386
100
AcDbEntity
  8
0
100
AcDbCircle
 62
7
  6
BYLAYER
 10
75.6671072645
 20
89.752
 40
12.78
100
AcDbArc
 50
180.000000916
 51
269.9999990781
  0
ARC
  5
387
100
AcDbEntity
  8
0
100
AcDbCircle
 62
7
  6
BYLAYER
 10
75.6671072645
 20
89.752
 40
7.78
100
AcDbArc
 50
180.0000011111
 51
269.9999992169
  0
ARC
  5
388
100
AcDbEntity
  8
0
100
AcDbCircle
 62
7
  6
BYLAYER
 10
75.6671072645
 20
89.752
 40
6.78
100
AcDbArc
 50
180.0
 51
270.0
  0
ARC
  5
389
100
AcDbEntity
  8
0
100
AcDbCircle
 62
7
  6
BYLAYER
 10
75.6871072645
 20
89.772000059
 40
6.3
100
AcDbArc
 50
180.0
 51
270.0
  0
CIRCLE
  5
38A
100
AcDbEntity
  8
0
100
AcDbCircle
 62
7
  6
BYLAYER
 10
55.1650774991
 20
98.75
 40
4.5
  0
CIRCLE
  5
38B
100
AcDbEntity
  8
0
100
AcDbCircle
 62
7
  6
BYLAYER
 10
55.0311038464
 20
98.7851319856
 40
3.5
  0
ARC
  5
38C
100
AcDbEntity
  8
0
100
AcDbCircle
 62
7
  6
BYLAYER
 10
69.8871072645
 20
113.972000059
 40
1.0
100
AcDbArc
 50
90.0
 51
180.0
  0
ARC
  5
38D
100
AcDbEntity
  8
0
100
AcDbCircle
 62
7
  6
BYLAYER
 10
27.0175782293
 20
196.6572258169
 40
90.9017102557
100
AcDbArc
 50
314.9348661908
 51
315.0681018114
  0
ARC
  5
38E
100
AcDbEntity
  8
0
100
AcDbCircle
 62
7
  6
BYLAYER
 10
78.3554220049
 20
156.6568736325
 40
29.6167497075
100
AcDbArc
 50
9.4097509259
 51
9.6799009186
  0
ARC
  5
38F
100
AcDbEntity
  8
0
100
AcDbCircle
 62
7
  6
BYLAYER
 10
63.3559951974
 20
128.6565670357
 40
29.6167490429
100
AcDbArc
 50
9.4097509191
 51
9.6799009179
  0
ARC
  5
390
100
AcDbEntity
  8
0
100
AcDbCircle
 62
7
  6
BYLAYER
 10
64.1593901578
 20
137.1500214485
 40
28.8017365527
100
AcDbArc
 50
350.3198497735
 51
350.5976696802
  0
ARC
  5
391
100
AcDbEntity
  8
0
100
AcDbCircle
 62
7
  6
BYLAYER
 10
79.1588177274
 20
165.1503281401
 40
28.8017364444
100
AcDbArc
 50
350.3198497718
 51
350.5976696796
  0
ARC
  5
392
100
AcDbEntity
  8
0
100
AcDbCircle
 62
7
  6
BYLAYER
 10
77.8484248059
 20
132.4638453899
 40
14.7621145638
100
AcDbArc
 50
3.4584287797
 51
4.0199659892
  0
ARC
  5
393
100
AcDbEntity
  8
0
100
AcDbCircle
 62
7
  6
BYLAYER
 10
78.408966018
 20
133.4424370705
 40
14.2002991481
100
AcDbArc
 50
355.9713351317
 51
356.5615243815
  0
ARC
  5
394
100
AcDbEntity
  8
0
100
AcDbCircle
 62
7
  6
BYLAYER
 10
75.6671072645
 20
177.472
 40
12.78
100
AcDbArc
 50
90.0000009144
 51
179.999999084
  0
ARC
  5
395
100
AcDbEntity
  8
0
100
AcDbCircle
 62
7
  6
BYLAYER
 10
75.6671072645
 20
177.472
 40
7.78
100
AcDbArc
 50
90.0000008715
 51
179.9999992152
  0
ARC
  5
396
100
AcDbEntity
  8
0
100
AcDbCircle
 62
7
  6
BYLAYER
 10
96.129506869
 20
104.8644066378
 40
29.1876650001
100
AcDbArc
 50
99.4062066975
 51
99.6803048495
  0
ARC
  5
397
100
AcDbEntity
  8
0
100
AcDbCircle
 62
7
  6
BYLAYER
 10
87.8039315049
 20
105.8174471919
 40
28.221115992
100
AcDbArc
 50
80.3160945513
 51
80.5995975785
  0
ARC
  5
398
100
AcDbEntity
  8
0
100
AcDbCircle
 62
7
  6
BYLAYER
 10
140.6650774991
 20
68.4399340142
 40
19.0754
100
AcDbArc
 50
232.5774506813
 51
299.921574717
  0
ARC
  5
399
100
AcDbEntity
  8
0
100
AcDbCircle
 62
7
  6
BYLAYER
 10
117.6650774991
 20
68.4399340142
 40
19.0754
100
AcDbArc
 50
211.4755724646
 51
328.5244275354
  0
ARC
  5
39A
100
AcDbEntity
  8
0
100
AcDbCircle
 62
7
  6
BYLAYER
 10
92.4197255264
 20
118.5544082296
 40
15.1423856423
100
AcDbArc
 50
93.5342453419
 51
94.0158012136
  0
ARC
  5
39B
100
AcDbEntity
  8
0
100
AcDbCircle
 62
7
  6
BYLAYER
 10
91.3914070055
 20
119.1287190788
 40
14.5667434903
100
AcDbArc
 50
85.9769574027
 51
86.4772541919
  0
ARC
  5
39C
100
AcDbEntity
  8
0
100
AcDbCircle
 62
7
  6
BYLAYER
 10
123.1071072645
 20
89.752
 40
12.78
100
AcDbArc
 50
270.0000009219
 51
359.9999990856
  0
ARC
  5
39D
100
AcDbEntity
  8
0
100
AcDbCircle
 62
7
  6
BYLAYER
 10
123.1071072645
 20
89.752
 40
7.78
100
AcDbArc
 50
270.0000011108
 51
359.9999992152
  0
ARC
  5
39E
100
AcDbEntity
  8
0
100
AcDbCircle
 62
7
  6
BYLAYER
 10
123.1071072645
 20
89.752
 40
6.78
100
AcDbArc
 50
270.0
 51
360.0
  0
ARC
  5
39F
100
AcDbEntity
  8
0
100
AcDbCircle
 62
7
  6
BYLAYER
 10
123.0871072645
 20
89.772000059
 40
6.3
100
AcDbArc
 50
270.0
 51
360.0
  0
CIRCLE
  5
3A0
100
AcDbEntity
  8
0
100
AcDbCircle
 62
7
  6
BYLAYER
 10
114.3866732107
 20
118.5721687198
 40
2.0
  0
CIRCLE
  5
3A1
100
AcDbEntity
  8
0
100
AcDbCircle
 62
7
  6
BYLAYER
 10
99.3866732139
 20
118.571862005
 40
2.0
  0
CIRCLE
  5
3A2
100
AcDbEntity
  8
0
100
AcDbCircle
 62
7
  6
BYLAYER
 10
84.386673217
 20
118.5715552902
 40
2.0
  0
CIRCLE
  5
3A3
100
AcDbEntity
  8
0
100
AcDbCircle
 62
7
  6
BYLAYER
 10
114.3866732107
 20
118.5721687198
 40
1.65
  0
CIRCLE
  5
3A4
100
AcDbEntity
  8
0
100
AcDbCircle
 62
7
  6
BYLAYER
 10
99.3866732139
 20
118.571862005
 40
1.65
  0
CIRCLE
  5
3A5
100
AcDbEntity
  8
0
100
AcDbCircle
 62
7
  6
BYLAYER
 10
84.386673217
 20
118.5715552902
 40
1.65
  0
ARC
  5
3A6
100
AcDbEntity
  8
0
100
AcDbCircle
 62
7
  6
BYLAYER
 10
128.8871072645
 20
113.972000059
 40
1.0
100
AcDbArc
 50
0.0
 51
90.0
  0
CIRCLE
  5
3A7
100
AcDbEntity
  8
0
100
AcDbCircle
 62
7
  6
BYLAYER
 10
91.8863787692
 20
132.9717086446
 40
2.8
  0
ARC
  5
3A8
100
AcDbEntity
  8
0
100
AcDbCircle
 62
7
  6
BYLAYER
 10
91.8863787692
 20
132.9717086446
 40
2.6862647374
100
AcDbArc
 50
81.4323849904
 51
98.5699484754
  0
ARC
  5
3A9
100
AcDbEntity
  8
0
100
AcDbCircle
 62
7
  6
BYLAYER
 10
91.8863787692
 20
132.9717086446
 40
2.6862647374
100
AcDbArc
 50
261.4323849904
 51
278.5699484674
  0
ARC
  5
3AA
100
AcDbEntity
  8
0
100
AcDbCircle
 62
7
  6
BYLAYER
 10
91.8863787692
 20
132.9717086446
 40
2.6687834166
100
AcDbArc
 50
278.6155193646
 51
81.3868256862
  0
ARC
  5
3AB
100
AcDbEntity
  8
0
100
AcDbCircle
 62
7
  6
BYLAYER
 10
91.8863787692
 20
132.9717086446
 40
2.6687834166
100
AcDbArc
 50
98.6155194027
 51
261.3868256863
  0
ARC
  5
3AC
100
AcDbEntity
  8
0
100
AcDbCircle
 62
7
  6
BYLAYER
 10
91.9002069895
 20
132.970196795
 40
1.5137748171
100
AcDbArc
 50
167.2047095266
 51
179.9437716544
  0
CIRCLE
  5
3AD
100
AcDbEntity
  8
0
100
AcDbCircle
 62
7
  6
BYLAYER
 10
91.8863757155
 20
132.9718245562
 40
1.4999820841
  0
CIRCLE
  5
3AE
100
AcDbEntity
  8
0
100
AcDbCircle
 62
7
  6
BYLAYER
 10
91.8863787692
 20
132.9717086446
 40
1.4
  0
ARC
  5
3AF
100
AcDbEntity
  8
0
100
AcDbCircle
 62
7
  6
BYLAYER
 10
91.8863787692
 20
132.9717086446
 40
1.3965628879
100
AcDbArc
 50
344.6022629635
 51
15.405616797
  0
ARC
  5
3B0
100
AcDbEntity
  8
0
100
AcDbCircle
 62
7
  6
BYLAYER
 10
91.8863787692
 20
132.9717086446
 40
1.3965628879
100
AcDbArc
 50
164.5912057958
 51
195.4056151235
  0
CIRCLE
  5
3B1
100
AcDbEntity
  8
0
100
AcDbCircle
 62
7
  6
BYLAYER
 10
91.8863787692
 20
132.9717086446
 40
1.05
  0
ARC
  5
3B2
100
AcDbEntity
  8
0
100
AcDbCircle
 62
7
  6
BYLAYER
 10
91.8863787692
 20
132.9717086446
 40
1.0012808857
100
AcDbArc
 50
67.7846602246
 51
112.2888623876
  0
ARC
  5
3B3
100
AcDbEntity
  8
0
100
AcDbCircle
 62
7
  6
BYLAYER
 10
91.8863787692
 20
132.9717086446
 40
1.0012805542
100
AcDbArc
 50
247.7846805073
 51
292.1464487706
  0
ARC
  5
3B4
100
AcDbEntity
  8
0
100
AcDbCircle
 62
7
  6
BYLAYER
 10
91.8863787692
 20
132.9717086446
 40
0.8999142178
100
AcDbArc
 50
228.8187078825
 51
311.2592545333
  0
ARC
  5
3B5
100
AcDbEntity
  8
0
100
AcDbCircle
 62
7
  6
BYLAYER
 10
91.3529694513
 20
147.3884954141
 40
15.1417401312
100
AcDbArc
 50
273.5346333671
 51
274.015632619
  0
ARC
  5
3B6
100
AcDbEntity
  8
0
100
AcDbCircle
 62
7
  6
BYLAYER
 10
92.3819433547
 20
146.8238227102
 40
14.5758872066
100
AcDbArc
 50
265.9771547687
 51
266.477132247
  0
ARC
  5
3B7
100
AcDbEntity
  8
0
100
AcDbCircle
 62
7
  6
BYLAYER
 10
102.8033592674
 20
133.8177557068
 40
28.2211141614
100
AcDbArc
 50
80.3160945348
 51
80.5995975804
  0
ARC
  5
3B8
100
AcDbEntity
  8
0
100
AcDbCircle
 62
7
  6
BYLAYER
 10
105.9243321975
 20
133.4795718867
 40
14.7621140291
100
AcDbArc
 50
183.458428856
 51
184.0199660972
  0
ARC
  5
3B9
100
AcDbEntity
  8
0
100
AcDbCircle
 62
7
  6
BYLAYER
 10
105.3996701807
 20
132.4987466086
 40
14.2363837841
100
AcDbArc
 50
175.971937949
 51
176.5478465098
  0
CIRCLE
  5
3BA
100
AcDbEntity
  8
0
100
AcDbCircle
 62
7
  6
BYLAYER
 10
99.3871072645
 20
146.972000059
 40
23.3854832211
  0
ARC
  5
3BB
100
AcDbEntity
  8
0
100
AcDbCircle
 62
7
  6
BYLAYER
 10
107.4191529823
 20
146.554715038
 40
15.1423855425
100
AcDbArc
 50
93.5342453398
 51
94.0158012147
  0
ARC
  5
3BC
100
AcDbEntity
  8
0
100
AcDbCircle
 62
7
  6
BYLAYER
 10
106.39083447
 20
147.12902578
 40
14.5667434979
100
AcDbArc
 50
85.976957412
 51
86.4772542009
  0
ARC
  5
3BD
100
AcDbEntity
  8
0
100
AcDbCircle
 62
7
  6
BYLAYER
 10
87.6424319482
 20
161.0833067181
 40
29.1918867516
100
AcDbArc
 50
279.4061600357
 51
279.6802613451
  0
ARC
  5
3BE
100
AcDbEntity
  8
0
100
AcDbCircle
 62
7
  6
BYLAYER
 10
92.8478522383
 20
160.4641520968
 40
14.7621145941
100
AcDbArc
 50
3.4584287802
 51
4.0199659886
  0
ARC
  5
3BF
100
AcDbEntity
  8
0
100
AcDbCircle
 62
7
  6
BYLAYER
 10
93.4083934197
 20
161.4427437833
 40
14.2002992091
100
AcDbArc
 50
355.9713351333
 51
356.5615243807
  0
CIRCLE
  5
3C0
100
AcDbEntity
  8
0
100
AcDbCircle
 62
7
  6
BYLAYER
 10
84.3855117903
 20
175.3715552784
 40
2.0
  0
CIRCLE
  5
3C1
100
AcDbEntity
  8
0
100
AcDbCircle
 62
7
  6
BYLAYER
 10
84.3855117903
 20
175.3715552784
 40
1.65
  0
ARC
  5
3C2
100
AcDbEntity
  8
0
100
AcDbCircle
 62
7
  6
BYLAYER
 10
95.9797530374
 20
160.1907367216
 40
28.2867978442
100
AcDbArc
 50
260.3163441969
 51
260.5991914838
  0
CIRCLE
  5
3C3
100
AcDbEntity
  8
0
100
AcDbCircle
 62
7
  6
BYLAYER
 10
106.8858062318
 20
160.9720153536
 40
2.8
  0
ARC
  5
3C4
100
AcDbEntity
  8
0
100
AcDbCircle
 62
7
  6
BYLAYER
 10
106.8858062318
 20
160.9720153536
 40
2.6862647374
100
AcDbArc
 50
81.4323849904
 51
98.5699484754
  0
ARC
  5
3C5
100
AcDbEntity
  8
0
100
AcDbCircle
 62
7
  6
BYLAYER
 10
106.8858062318
 20
160.9720153536
 40
2.6862647374
100
AcDbArc
 50
261.4323849904
 51
278.5699484674
  0
ARC
  5
3C6
100
AcDbEntity
  8
0
100
AcDbCircle
 62
7
  6
BYLAYER
 10
106.8858062318
 20
160.9720153536
 40
2.6687834166
100
AcDbArc
 50
278.6155193646
 51
81.3868256862
  0
ARC
  5
3C7
100
AcDbEntity
  8
0
100
AcDbCircle
 62
7
  6
BYLAYER
 10
106.8858062318
 20
160.9720153536
 40
2.6687834166
100
AcDbArc
 50
98.6155194027
 51
261.3868256863
  0
ARC
  5
3C8
100
AcDbEntity
  8
0
100
AcDbCircle
 62
7
  6
BYLAYER
 10
106.8996344521
 20
160.9705035039
 40
1.5137748171
100
AcDbArc
 50
167.2047095262
 51
179.9437716538
  0
CIRCLE
  5
3C9
100
AcDbEntity
  8
0
100
AcDbCircle
 62
7
  6
BYLAYER
 10
106.8858031781
 20
160.9721312652
 40
1.4999820841
  0
CIRCLE
  5
3CA
100
AcDbEntity
  8
0
100
AcDbCircle
 62
7
  6
BYLAYER
 10
106.8858062318
 20
160.9720153536
 40
1.4
  0
ARC
  5
3CB
100
AcDbEntity
  8
0
100
AcDbCircle
 62
7
  6
BYLAYER
 10
106.8858062318
 20
160.9720153536
 40
1.3965628879
100
AcDbArc
 50
344.6022629635
 51
15.405616797
  0
ARC
  5
3CC
100
AcDbEntity
  8
0
100
AcDbCircle
 62
7
  6
BYLAYER
 10
106.8858062318
 20
160.9720153536
 40
1.3965628879
100
AcDbArc
 50
164.5912057958
 51
195.4056151235
  0
CIRCLE
  5
3CD
100
AcDbEntity
  8
0
100
AcDbCircle
 62
7
  6
BYLAYER
 10
106.8858062318
 20
160.9720153536
 40
1.05
  0
ARC
  5
3CE
100
AcDbEntity
  8
0
100
AcDbCircle
 62
7
  6
BYLAYER
 10
106.8858062318
 20
160.9720153536
 40
1.0012808857
100
AcDbArc
 50
67.7846602246
 51
112.2888623876
  0
ARC
  5
3CF
100
AcDbEntity
  8
0
100
AcDbCircle
 62
7
  6
BYLAYER
 10
106.8858062318
 20
160.9720153536
 40
1.0012805542
100
AcDbArc
 50
247.7846805073
 51
292.1464487706
  0
ARC
  5
3D0
100
AcDbEntity
  8
0
100
AcDbCircle
 62
7
  6
BYLAYER
 10
106.8858062318
 20
160.9720153536
 40
0.8999142178
100
AcDbArc
 50
228.8187078817
 51
311.2592545333
  0
ARC
  5
3D1
100
AcDbEntity
  8
0
100
AcDbCircle
 62
7
  6
BYLAYER
 10
102.6418594163
 20
189.0836133944
 40
29.1918867185
100
AcDbArc
 50
279.4061600355
 51
279.6802613453
  0
ARC
  5
3D2
100
AcDbEntity
  8
0
100
AcDbCircle
 62
7
  6
BYLAYER
 10
106.3523969142
 20
175.3888021185
 40
15.1417401267
100
AcDbArc
 50
273.534633367
 51
274.0156326191
  0
ARC
  5
3D3
100
AcDbEntity
  8
0
100
AcDbCircle
 62
7
  6
BYLAYER
 10
107.3813708233
 20
174.8241295137
 40
14.5758873014
100
AcDbArc
 50
265.9771547714
 51
266.4771322463
  0
CIRCLE
  5
3D4
100
AcDbEntity
  8
0
100
AcDbCircle
 62
7
  6
BYLAYER
 10
99.3855117872
 20
175.3718619932
 40
2.0
  0
CIRCLE
  5
3D5
100
AcDbEntity
  8
0
100
AcDbCircle
 62
7
  6
BYLAYER
 10
99.3855117872
 20
175.3718619932
 40
1.65
  0
ARC
  5
3D6
100
AcDbEntity
  8
0
100
AcDbCircle
 62
7
  6
BYLAYER
 10
120.4177095665
 20
137.2870091581
 40
29.6177095039
100
AcDbArc
 50
189.4097546004
 51
189.6798958366
  0
ARC
  5
3D7
100
AcDbEntity
  8
0
100
AcDbCircle
 62
7
  6
BYLAYER
 10
111.1289342327
 20
132.8647139356
 40
29.1876644031
100
AcDbArc
 50
99.406206695
 51
99.6803048526
  0
ARC
  5
3D8
100
AcDbEntity
  8
0
100
AcDbCircle
 62
7
  6
BYLAYER
 10
134.5844845783
 20
156.798581995
 40
28.7731597009
100
AcDbArc
 50
170.3197358591
 51
170.5977884047
  0
ARC
  5
3D9
100
AcDbEntity
  8
0
100
AcDbCircle
 62
7
  6
BYLAYER
 10
119.5850566245
 20
128.7982753675
 40
28.773159203
100
AcDbArc
 50
170.3197358546
 51
170.5977884051
  0
ARC
  5
3DA
100
AcDbEntity
  8
0
100
AcDbCircle
 62
7
  6
BYLAYER
 10
135.4171387565
 20
165.2873161561
 40
29.6177112554
100
AcDbArc
 50
189.4097546058
 51
189.679895826
  0
ARC
  5
3DB
100
AcDbEntity
  8
0
100
AcDbCircle
 62
7
  6
BYLAYER
 10
110.9791809535
 20
188.1910461304
 40
28.2868005819
100
AcDbArc
 50
260.3163442114
 51
260.5991914709
  0
ARC
  5
3DC
100
AcDbEntity
  8
0
100
AcDbCircle
 62
7
  6
BYLAYER
 10
120.9237596602
 20
161.4798785957
 40
14.7621140291
100
AcDbArc
 50
183.458428856
 51
184.0199660972
  0
ARC
  5
3DD
100
AcDbEntity
  8
0
100
AcDbCircle
 62
7
  6
BYLAYER
 10
120.3990976458
 20
160.4990533174
 40
14.2363837866
100
AcDbArc
 50
175.971937949
 51
176.5478465098
  0
ARC
  5
3DE
100
AcDbEntity
  8
0
100
AcDbCircle
 62
7
  6
BYLAYER
 10
123.1071072645
 20
177.472
 40
12.78
100
AcDbArc
 50
0.0000009144
 51
89.9999990856
  0
ARC
  5
3DF
100
AcDbEntity
  8
0
100
AcDbCircle
 62
7
  6
BYLAYER
 10
123.1071072645
 20
177.472
 40
7.78
100
AcDbArc
 50
0.000001111
 51
89.9999992152
  0
CIRCLE
  5
3E0
100
AcDbEntity
  8
0
100
AcDbCircle
 62
7
  6
BYLAYER
 10
114.3855117841
 20
175.372168708
 40
2.0
  0
CIRCLE
  5
3E1
100
AcDbEntity
  8
0
100
AcDbCircle
 62
7
  6
BYLAYER
 10
114.3855117841
 20
175.372168708
 40
1.65
  0
ARC
  5
3E2
100
AcDbEntity
  8
0
100
AcDbCircle
 62
7
  6
BYLAYER
 10
42.0170056563
 20
224.6575325546
 40
90.9017103012
100
AcDbArc
 50
314.934866194
 51
315.0681018144
  0
ARC
  5
3E3
100
AcDbEntity
  8
0
100
AcDbCircle
 62
7
  6
BYLAYER
 10
40.6650774991
 20
218.75
 40
5.25
100
AcDbArc
 50
90.0
 51
270.0
  0
CIRCLE
  5
3E4
100
AcDbEntity
  8
0
100
AcDbCircle
 62
7
  6
BYLAYER
 10
55.1650774991
 20
218.75
 40
4.5
  0
CIRCLE
  5
3E5
100
AcDbEntity
  8
0
100
AcDbCircle
 62
7
  6
BYLAYER
 10
40.6650774991
 20
218.75
 40
4.25
  0
CIRCLE
  5
3E6
100
AcDbEntity
  8
0
100
AcDbCircle
 62
7
  6
BYLAYER
 10
55.0311038464
 20
218.7520263442
 40
3.5
  0
ARC
  5
3E7
100
AcDbEntity
  8
0
100
AcDbCircle
 62
7
  6
BYLAYER
 10
44.1650774991
 20
369.95
 40
6.5
100
AcDbArc
 50
39.030155343
 51
64.9710005124
  0
ARC
  5
3E8
100
AcDbEntity
  8
0
100
AcDbCircle
 62
7
  6
BYLAYER
 10
44.1650774991
 20
369.95
 40
6.5
100
AcDbArc
 50
115.0289994876
 51
143.3710815903
  0
ARC
  5
3E9
100
AcDbEntity
  8
0
100
AcDbCircle
 62
7
  6
BYLAYER
 10
40.6650774991
 20
338.75
 40
5.25
100
AcDbArc
 50
90.0
 51
270.0
  0
CIRCLE
  5
3EA
100
AcDbEntity
  8
0
100
AcDbCircle
 62
7
  6
BYLAYER
 10
55.1650774991
 20
338.75
 40
4.5
  0
CIRCLE
  5
3EB
100
AcDbEntity
  8
0
100
AcDbCircle
 62
7
  6
BYLAYER
 10
40.6650774991
 20
338.75
 40
4.25
  0
CIRCLE
  5
3EC
100
AcDbEntity
  8
0
100
AcDbCircle
 62
7
  6
BYLAYER
 10
55.0311038464
 20
338.8981564104
 40
3.5
  0
ARC
  5
3ED
100
AcDbEntity
  8
0
100
AcDbCircle
 62
7
  6
BYLAYER
 10
37.6650774991
 20
383.55
 40
3.0
100
AcDbArc
 50
90.0
 51
180.0
  0
ARC
  5
3EE
100
AcDbEntity
  8
0
100
AcDbCircle
 62
7
  6
BYLAYER
 10
44.1650774991
 20
379.95
 40
2.75
100
AcDbArc
 50
0.0
 51
180.0000000001
  0
ARC
  5
3EF
100
AcDbEntity
  8
0
100
AcDbCircle
 62
7
  6
BYLAYER
 10
50.6650774991
 20
387.75
 40
1.0
100
AcDbArc
 50
90.0
 51
180.0
  0
ARC
  5
3F0
100
AcDbEntity
  8
0
100
AcDbCircle
 62
7
  6
BYLAYER
 10
48.6650774991
 20
374.75
 40
1.0
100
AcDbArc
 50
270.0
 51
360.0
  0
ARC
  5
3F1
100
AcDbEntity
  8
0
100
AcDbCircle
 62
7
  6
BYLAYER
 10
35.6650774991
 20
372.75
 40
1.0
100
AcDbArc
 50
90.0
 51
180.0
  0
CIRCLE
  5
3F2
100
AcDbEntity
  8
0
100
AcDbCircle
 62
7
  6
BYLAYER
 10
99.3871072645
 20
245.9000000058
 40
11.5
  0
ARC
  5
3F3
100
AcDbEntity
  8
0
100
AcDbCircle
 62
7
  6
BYLAYER
 10
75.6650774991
 20
347.75
 40
30.0
100
AcDbArc
 50
90.0
 51
180.0
  0
ARC
  5
3F4
100
AcDbEntity
  8
0
100
AcDbCircle
 62
7
  6
BYLAYER
 10
75.6650774991
 20
347.75
 40
28.2283109098
100
AcDbArc
 50
89.9999999986
 51
180.0000000006
  0
ARC
  5
3F5
100
AcDbEntity
  8
0
100
AcDbCircle
 62
7
  6
BYLAYER
 10
75.6650774991
 20
347.75
 40
28.2091103384
100
AcDbArc
 50
89.9999999967
 51
180.0000000033
  0
ARC
  5
3F6
100
AcDbEntity
  8
0
100
AcDbCircle
 62
7
  6
BYLAYER
 10
75.6650774991
 20
347.75
 40
27.7779702346
100
AcDbArc
 50
90.0000000014
 51
179.9999999967
  0
CIRCLE
  5
3F7
100
AcDbEntity
  8
0
100
AcDbCircle
 62
7
  6
BYLAYER
 10
99.3871072645
 20
305.9000000058
 40
11.5
  0
ARC
  5
3F8
100
AcDbEntity
  8
0
100
AcDbCircle
 62
7
  6
BYLAYER
 10
156.7551528459
 20
69.2862194286
 40
90.9016717765
100
AcDbArc
 50
134.9348668265
 51
135.0681025056
  0
ARC
  5
3F9
100
AcDbEntity
  8
0
100
AcDbCircle
 62
7
  6
BYLAYER
 10
179.6650774991
 20
68.4399340142
 40
19.0754
100
AcDbArc
 50
238.2031816326
 51
305.5473056683
  0
ARC
  5
3FA
100
AcDbEntity
  8
0
100
AcDbCircle
 62
7
  6
BYLAYER
 10
201.6650774991
 20
68.4399340142
 40
19.0754
100
AcDbArc
 50
211.4755724646
 51
328.5244275354
  0
ARC
  5
3FB
100
AcDbEntity
  8
0
100
AcDbCircle
 62
7
  6
BYLAYER
 10
159.6650774991
 20
68.4399340142
 40
19.0754
100
AcDbArc
 50
211.4755724646
 51
328.5244275354
  0
ARC
  5
3FC
100
AcDbEntity
  8
0
100
AcDbCircle
 62
7
  6
BYLAYER
 10
209.6650774991
 20
64.2896929825
 40
13.0486929825
100
AcDbArc
 50
270.0
 51
328.6520932095
  0
CIRCLE
  5
3FD
100
AcDbEntity
  8
0
100
AcDbCircle
 62
7
  6
BYLAYER
 10
159.6650774991
 20
69.75
 40
4.5
  0
CIRCLE
  5
3FE
100
AcDbEntity
  8
0
100
AcDbCircle
 62
7
  6
BYLAYER
 10
159.7159158685
 20
69.8273538201
 40
3.5
  0
ARC
  5
3FF
100
AcDbEntity
  8
0
100
AcDbCircle
 62
7
  6
BYLAYER
 10
171.7545803061
 20
97.2865261405
 40
90.9016717728
100
AcDbArc
 50
134.9348668268
 51
135.0681025059
  0
ARC
  5
400
100
AcDbEntity
  8
0
100
AcDbCircle
 62
7
  6
BYLAYER
 10
161.6630774991
 20
89.752
 40
12.78
100
AcDbArc
 50
180.0
 51
270.0
  0
ARC
  5
401
100
AcDbEntity
  8
0
100
AcDbCircle
 62
7
  6
BYLAYER
 10
161.6630774991
 20
89.752
 40
10.58
100
AcDbArc
 50
180.0
 51
270.0
  0
ARC
  5
402
100
AcDbEntity
  8
0
100
AcDbCircle
 62
7
  6
BYLAYER
 10
281.6650774991
 20
53.95
 40
3.0
100
AcDbArc
 50
270.0
 51
360.0
  0
ARC
  5
403
100
AcDbEntity
  8
0
100
AcDbCircle
 62
7
  6
BYLAYER
 10
275.1650774991
 20
56.95
 40
2.75
100
AcDbArc
 50
0.0
 51
180.0
  0
ARC
  5
404
100
AcDbEntity
  8
0
100
AcDbCircle
 62
7
  6
BYLAYER
 10
268.6650774991
 20
49.75
 40
1.0
100
AcDbArc
 50
270.0
 51
360.0
  0
ARC
  5
405
100
AcDbEntity
  8
0
100
AcDbCircle
 62
7
  6
BYLAYER
 10
270.6650774991
 20
62.75
 40
1.0
100
AcDbArc
 50
90.0
 51
180.0
  0
ARC
  5
406
100
AcDbEntity
  8
0
100
AcDbCircle
 62
7
  6
BYLAYER
 10
283.6650774991
 20
64.75
 40
1.0
100
AcDbArc
 50
270.0
 51
360.0
  0
ARC
  5
407
100
AcDbEntity
  8
0
100
AcDbCircle
 62
7
  6
BYLAYER
 10
243.6650774991
 20
89.75
 40
30.0
100
AcDbArc
 50
270.0
 51
360.0
  0
ARC
  5
408
100
AcDbEntity
  8
0
100
AcDbCircle
 62
7
  6
BYLAYER
 10
243.6650774991
 20
89.75
 40
28.2283109098
100
AcDbArc
 50
269.9999999996
 51
360.0
  0
ARC
  5
409
100
AcDbEntity
  8
0
100
AcDbCircle
 62
7
  6
BYLAYER
 10
243.6650774991
 20
89.75
 40
28.2091103384
100
AcDbArc
 50
269.9999999967
 51
360.0
  0
ARC
  5
40A
100
AcDbEntity
  8
0
100
AcDbCircle
 62
7
  6
BYLAYER
 10
243.6650774991
 20
89.75
 40
27.7779702346
100
AcDbArc
 50
270.0000000014
 51
359.9999999967
  0
ARC
  5
40B
100
AcDbEntity
  8
0
100
AcDbCircle
 62
7
  6
BYLAYER
 10
243.6630774991
 20
89.752
 40
12.78
100
AcDbArc
 50
270.0
 51
360.0
  0
ARC
  5
40C
100
AcDbEntity
  8
0
100
AcDbCircle
 62
7
  6
BYLAYER
 10
243.6630774991
 20
89.752
 40
10.58
100
AcDbArc
 50
270.0
 51
360.0
  0
ARC
  5
40D
100
AcDbEntity
  8
0
100
AcDbCircle
 62
7
  6
BYLAYER
 10
278.6650774991
 20
98.75
 40
5.25
100
AcDbArc
 50
270.0
 51
90.0
  0
CIRCLE
  5
40E
100
AcDbEntity
  8
0
100
AcDbCircle
 62
7
  6
BYLAYER
 10
264.1650774991
 20
98.75
 40
4.5
  0
CIRCLE
  5
40F
100
AcDbEntity
  8
0
100
AcDbCircle
 62
7
  6
BYLAYER
 10
278.6650774991
 20
98.75
 40
4.25
  0
CIRCLE
  5
410
100
AcDbEntity
  8
0
100
AcDbCircle
 62
7
  6
BYLAYER
 10
264.1392054984
 20
98.7851319856
 40
3.5
  0
ARC
  5
411
100
AcDbEntity
  8
0
100
AcDbCircle
 62
7
  6
BYLAYER
 10
180.3830774991
 20
299.87
 40
3.72
100
AcDbArc
 50
180.0
 51
269.9999917706
  0
ARC
  5
412
100
AcDbEntity
  8
0
100
AcDbCircle
 62
7
  6
BYLAYER
 10
161.6630774991
 20
347.748
 40
12.78
100
AcDbArc
 50
90.0
 51
180.0
  0
ARC
  5
413
100
AcDbEntity
  8
0
100
AcDbCircle
 62
7
  6
BYLAYER
 10
161.6630774991
 20
347.748
 40
10.58
100
AcDbArc
 50
90.0
 51
180.0
  0
ARC
  5
414
100
AcDbEntity
  8
0
100
AcDbCircle
 62
7
  6
BYLAYER
 10
159.6650774991
 20
382.75
 40
5.25
100
AcDbArc
 50
0.0
 51
180.0
  0
CIRCLE
  5
415
100
AcDbEntity
  8
0
100
AcDbCircle
 62
7
  6
BYLAYER
 10
159.6650774991
 20
367.75
 40
4.5
  0
CIRCLE
  5
416
100
AcDbEntity
  8
0
100
AcDbCircle
 62
7
  6
BYLAYER
 10
159.6650774991
 20
382.75
 40
4.25
  0
ARC
  5
417
100
AcDbEntity
  8
0
100
AcDbCircle
 62
7
  6
BYLAYER
 10
180.3830774991
 20
311.93
 40
3.72
100
AcDbArc
 50
90.0000050668
 51
180.0
  0
CIRCLE
  5
418
100
AcDbEntity
  8
0
100
AcDbCircle
 62
7
  6
BYLAYER
 10
159.7159158685
 20
367.6789328959
 40
3.5
  0
ARC
  5
419
100
AcDbEntity
  8
0
100
AcDbCircle
 62
7
  6
BYLAYER
 10
278.6650774991
 20
218.75
 40
5.25
100
AcDbArc
 50
270.0
 51
90.0
  0
CIRCLE
  5
41A
100
AcDbEntity
  8
0
100
AcDbCircle
 62
7
  6
BYLAYER
 10
264.1650774991
 20
218.75
 40
4.5
  0
CIRCLE
  5
41B
100
AcDbEntity
  8
0
100
AcDbCircle
 62
7
  6
BYLAYER
 10
278.6650774991
 20
218.75
 40
4.25
  0
ARC
  5
41C
100
AcDbEntity
  8
0
100
AcDbCircle
 62
7
  6
BYLAYER
 10
224.9430774991
 20
299.87
 40
3.72
100
AcDbArc
 50
270.0000050668
 51
359.9999919114
  0
CIRCLE
  5
41D
100
AcDbEntity
  8
0
100
AcDbCircle
 62
7
  6
BYLAYER
 10
264.1392054984
 20
218.7520263442
 40
3.5
  0
ARC
  5
41E
100
AcDbEntity
  8
0
100
AcDbCircle
 62
7
  6
BYLAYER
 10
243.6650774991
 20
347.75
 40
30.0
100
AcDbArc
 50
0.0
 51
89.9999999999
  0
ARC
  5
41F
100
AcDbEntity
  8
0
100
AcDbCircle
 62
7
  6
BYLAYER
 10
243.6650774991
 20
347.75
 40
28.2283109098
100
AcDbArc
 50
0.0
 51
90.0000000014
  0
ARC
  5
420
100
AcDbEntity
  8
0
100
AcDbCircle
 62
7
  6
BYLAYER
 10
243.6650774991
 20
347.75
 40
28.2091103384
100
AcDbArc
 50
0.0
 51
90.0000000033
  0
ARC
  5
421
100
AcDbEntity
  8
0
100
AcDbCircle
 62
7
  6
BYLAYER
 10
243.6650774991
 20
347.75
 40
27.7779702346
100
AcDbArc
 50
0.0000000015
 51
89.9999999967
  0
ARC
  5
422
100
AcDbEntity
  8
0
100
AcDbCircle
 62
7
  6
BYLAYER
 10
243.6630774991
 20
347.748
 40
12.78
100
AcDbArc
 50
0.0
 51
90.0
  0
ARC
  5
423
100
AcDbEntity
  8
0
100
AcDbCircle
 62
7
  6
BYLAYER
 10
243.6630774991
 20
347.748
 40
10.58
100
AcDbArc
 50
0.0
 51
90.0
  0
ARC
  5
424
100
AcDbEntity
  8
0
100
AcDbCircle
 62
7
  6
BYLAYER
 10
224.9430774991
 20
311.93
 40
3.72
100
AcDbArc
 50
359.9987926356
 51
89.9999917706
  0
ARC
  5
425
100
AcDbEntity
  8
0
100
AcDbCircle
 62
7
  6
BYLAYER
 10
278.6650774991
 20
338.75
 40
5.25
100
AcDbArc
 50
270.0
 51
90.0
  0
CIRCLE
  5
426
100
AcDbEntity
  8
0
100
AcDbCircle
 62
7
  6
BYLAYER
 10
264.1650774991
 20
338.75
 40
4.5
  0
CIRCLE
  5
427
100
AcDbEntity
  8
0
100
AcDbCircle
 62
7
  6
BYLAYER
 10
278.6650774991
 20
338.75
 40
4.25
  0
CIRCLE
  5
428
100
AcDbEntity
  8
0
100
AcDbCircle
 62
7
  6
BYLAYER
 10
264.1392054984
 20
338.8981564104
 40
3.5
  0
ARC
  5
429
100
AcDbEntity
  8
0
100
AcDbCircle
 62
7
  6
BYLAYER
 10
275.1650774991
 20
369.95
 40
6.5
100
AcDbArc
 50
36.6289184097
 51
64.9710005124
  0
ARC
  5
42A
100
AcDbEntity
  8
0
100
AcDbCircle
 62
7
  6
BYLAYER
 10
275.1650774991
 20
369.95
 40
6.5
100
AcDbArc
 50
115.0289994876
 51
140.969844657
  0
ARC
  5
42B
100
AcDbEntity
  8
0
100
AcDbCircle
 62
7
  6
BYLAYER
 10
281.6650774991
 20
383.55
 40
3.0
100
AcDbArc
 50
0.0
 51
90.0
  0
ARC
  5
42C
100
AcDbEntity
  8
0
100
AcDbCircle
 62
7
  6
BYLAYER
 10
275.1650774991
 20
379.95
 40
2.75
100
AcDbArc
 50
0.0
 51
180.0000000001
  0
ARC
  5
42D
100
AcDbEntity
  8
0
100
AcDbCircle
 62
7
  6
BYLAYER
 10
283.6650774991
 20
372.75
 40
1.0
100
AcDbArc
 50
0.0
 51
90.0
  0
ARC
  5
42E
100
AcDbEntity
  8
0
100
AcDbCircle
 62
7
  6
BYLAYER
 10
270.6650774991
 20
374.75
 40
1.0
100
AcDbArc
 50
180.0
 51
270.0
  0
ARC
  5
42F
100
AcDbEntity
  8
0
100
AcDbCircle
 62
7
  6
BYLAYER
 10
268.6650774991
 20
387.75
 40
1.0
100
AcDbArc
 50
0.0
 51
90.0
  0
SPLINE
  5
430
100
AcDbEntity
  8
0
100
AcDbSpline
 62
7
  6
BYLAYER
 70
0
 71
3
 72
11
 73
7
 74
0
 42
0.0000001
 43
0.0000001
 44
0.0000000001
 40
0.0
 40
0.0
 40
0.0
 40
0.0
 40
0.2500285136
 40
0.500002132
 40
0.7499760202
 40
1.0
 40
1.0
 40
1.0
 40
1.0
 10
166.0590528798
 20
325.2116062077
 30
0.0
 10
165.1723082507
 20
325.2107152961
 30
0.0
 10
163.3797076562
 20
324.8574200209
 30
0.0
 10
161.1128908826
 20
323.3413955199
 30
0.0
 10
159.5947973487
 20
321.0760915805
 30
0.0
 10
159.2397050531
 20
319.2836941477
 30
0.0
 10
159.2385485688
 20
318.3969659047
 30
0.0
  0
SPLINE
  5
431
100
AcDbEntity
  8
0
100
AcDbSpline
 62
7
  6
BYLAYER
 70
0
 71
3
 72
11
 73
7
 74
0
 42
0.0000001
 43
0.0000001
 44
0.0000000001
 40
0.0
 40
0.0
 40
0.0
 40
0.0
 40
0.2500238925
 40
0.4999977625
 40
0.7499714218
 40
1.0
 40
1.0
 40
1.0
 40
1.0
 10
159.2385498198
 20
293.4030493214
 30
0.0
 10
159.2397064395
 20
292.5163212722
 30
0.0
 10
159.5947850526
 20
290.723922343
 30
0.0
 10
161.112871425
 20
288.4586121714
 30
0.0
 10
163.3796827466
 20
286.9425772175
 30
0.0
 10
165.1722845365
 20
286.5892823927
 30
0.0
 10
166.0590295092
 20
286.5883898706
 30
0.0
  0
SPLINE
  5
432
100
AcDbEntity
  8
0
100
AcDbSpline
 62
7
  6
BYLAYER
 70
0
 71
3
 72
11
 73
7
 74
0
 42
0.0000001
 43
0.0000001
 44
0.0000000001
 40
0.0
 40
0.0
 40
0.0
 40
0.0
 40
0.2500285103
 40
0.5000021284
 40
0.7499760158
 40
1.0
 40
1.0
 40
1.0
 40
1.0
 10
239.267109263
 20
286.5883936671
 30
0.0
 10
240.1538540578
 20
286.5892852408
 30
0.0
 10
241.9464547205
 20
286.9425826219
 30
0.0
 10
244.2132700159
 20
288.4586102715
 30
0.0
 10
245.7313608524
 20
290.7239168592
 30
0.0
 10
246.0864503638
 20
292.5163150753
 30
0.0
 10
246.0876061263
 20
293.4030435129
 30
0.0
  0
SPLINE
  5
433
100
AcDbEntity
  8
0
100
AcDbSpline
 62
7
  6
BYLAYER
 70
0
 71
3
 72
11
 73
7
 74
0
 42
0.0000001
 43
0.0000001
 44
0.0000000001
 40
0.0
 40
0.0
 40
0.0
 40
0.0
 40
0.2500238981
 40
0.4999977671
 40
0.7499714258
 40
1.0
 40
1.0
 40
1.0
 40
1.0
 10
246.08760476
 20
318.3969388814
 30
0.0
 10
246.0864491114
 20
319.2836673063
 30
0.0
 10
245.7313733826
 20
321.0760674256
 30
0.0
 10
244.2132899202
 20
323.3413810385
 30
0.0
 10
241.9464798511
 20
324.8574197023
 30
0.0
 10
240.1538776576
 20
325.2107171991
 30
0.0
 10
239.267132345
 20
325.211610218
 30
0.0
  0
SPLINE
  5
434
100
AcDbEntity
  8
0
100
AcDbSpline
 62
7
  6
BYLAYER
 70
0
 71
3
 72
11
 73
7
 74
0
 42
0.0000001
 43
0.0000001
 44
0.0000000001
 40
0.0
 40
0.0
 40
0.0
 40
0.0
 40
0.4278254874
 40
0.7358665911
 40
0.9245398763
 40
1.0
 40
1.0
 40
1.0
 40
1.0
 10
231.9779055564
 20
59.9869566528
 30
0.0
 10
232.0051646405
 20
59.9893866414
 30
0.0
 10
232.0510963913
 20
59.9939017731
 30
0.0
 10
232.112554575
 20
60.0020432497
 30
0.0
 10
232.1434227342
 20
60.0088950394
 30
0.0
 10
232.1650774991
 20
60.0157409654
 30
0.0
 10
232.1650774991
 20
60.0205680054
 30
0.0
  0
SPLINE
  5
435
100
AcDbEntity
  8
0
100
AcDbSpline
 62
7
  6
BYLAYER
 70
0
 71
3
 72
11
 73
7
 74
0
 42
0.0000001
 43
0.0000001
 44
0.0000000001
 40
0.0
 40
0.0
 40
0.0
 40
0.0
 40
0.0754325458
 40
0.2640968377
 40
0.5721485671
 40
1.0
 40
1.0
 40
1.0
 40
1.0
 10
87.1650774996
 20
60.0205691468
 30
0.0
 10
87.1650722709
 20
60.0157434463
 30
0.0
 10
87.1867323792
 20
60.0088913735
 30
0.0
 10
87.2175955891
 20
60.0020445822
 30
0.0
 10
87.2790647502
 20
59.9938996422
 30
0.0
 10
87.3250016819
 20
59.9893851754
 30
0.0
 10
87.3522648495
 20
59.9869550018
 30
0.0
  0
SPLINE
  5
436
100
AcDbEntity
  8
0
100
AcDbSpline
 62
7
  6
BYLAYER
 70
0
 71
3
 72
10
 73
6
 74
0
 42
0.0000001
 43
0.0000001
 44
0.0000000001
 40
0.0
 40
0.0
 40
0.0
 40
0.0
 40
0.3389942557
 40
0.6481870182
 40
1.0
 40
1.0
 40
1.0
 40
1.0
 10
92.2703916245
 20
133.5620387096
 30
0.0
 10
92.2721877547
 20
133.5619381225
 30
0.0
 10
92.2756022686
 20
133.5613915308
 30
0.0
 10
92.2809260176
 20
133.5617695768
 30
0.0
 10
92.2844105359
 20
133.5612407104
 30
0.0
 10
92.2862744751
 20
133.5611343753
 30
0.0
  0
SPLINE
  5
437
100
AcDbEntity
  8
0
100
AcDbSpline
 62
7
  6
BYLAYER
 70
0
 71
3
 72
10
 73
6
 74
0
 42
0.0000001
 43
0.0000001
 44
0.0000000001
 40
0.0
 40
0.0
 40
0.0
 40
0.0
 40
0.3405377184
 40
0.674414659
 40
1.0
 40
1.0
 40
1.0
 40
1.0
 10
91.4864589528
 20
133.5611891989
 30
0.0
 10
91.4880524569
 20
133.5612801654
 30
0.0
 10
91.4911899433
 20
133.5617837921
 30
0.0
 10
91.4958947827
 20
133.561405968
 30
0.0
 10
91.4989616844
 20
133.5619084189
 30
0.0
 10
91.5004853
 20
133.5619939914
 30
0.0
  0
LINE
  5
438
100
AcDbEntity
  8
0
100
AcDbLine
 62
7
  6
BYLAYER
 10
91.5004853
 20
133.5619939914
 11
91.5066201508
 21
133.898168766
  0
SPLINE
  5
439
100
AcDbEntity
  8
0
100
AcDbSpline
 62
7
  6
BYLAYER
 70
0
 71
3
 72
10
 73
6
 74
0
 42
0.0000001
 43
0.0000001
 44
0.0000000001
 40
0.0
 40
0.0
 40
0.0
 40
0.0
 40
0.3267533352
 40
0.6565837517
 40
1.0
 40
1.0
 40
1.0
 40
1.0
 10
91.371026203
 20
133.487040482
 30
0.0
 10
91.3808344067
 20
133.4857236639
 30
0.0
 10
91.4005532891
 20
133.4831654483
 30
0.0
 10
91.4305522267
 20
133.4789431665
 30
0.0
 10
91.4508984418
 20
133.4774124473
 30
0.0
 10
91.4612210443
 20
133.4761389151
 30
0.0
  0
SPLINE
  5
43A
100
AcDbEntity
  8
0
100
AcDbSpline
 62
7
  6
BYLAYER
 70
0
 71
3
 72
10
 73
6
 74
0
 42
0.0000001
 43
0.0000001
 44
0.0000000001
 40
0.0
 40
0.0
 40
0.0
 40
0.0
 40
0.3267030062
 40
0.6563478421
 40
1.0
 40
1.0
 40
1.0
 40
1.0
 10
91.3711476242
 20
132.4564562886
 30
0.0
 10
91.3724622237
 20
132.4662489946
 30
0.0
 10
91.3750124826
 20
132.4859329374
 30
0.0
 10
91.3792475211
 20
132.5158872392
 30
0.0
 10
91.3807178978
 20
132.5362118199
 30
0.0
 10
91.3819905762
 20
132.5465267502
 30
0.0
  0
SPLINE
  5
43B
100
AcDbEntity
  8
0
100
AcDbSpline
 62
7
  6
BYLAYER
 70
0
 71
3
 72
10
 73
6
 74
0
 42
0.0000001
 43
0.0000001
 44
0.0000000001
 40
0.0
 40
0.0
 40
0.0
 40
0.0
 40
0.3446509864
 40
0.6776667979
 40
1.0
 40
1.0
 40
1.0
 40
1.0
 10
91.1985266529
 20
132.4446937524
 30
0.0
 10
91.1545342893
 20
132.3921098556
 30
0.0
 10
91.0694148663
 20
132.2875516309
 30
0.0
 10
90.9486361096
 20
132.129438577
 30
0.0
 10
90.8737782177
 20
132.0226567294
 30
0.0
 10
90.8379818342
 20
131.9694591998
 30
0.0
  0
SPLINE
  5
43C
100
AcDbEntity
  8
0
100
AcDbSpline
 62
7
  6
BYLAYER
 70
0
 71
3
 72
10
 73
6
 74
0
 42
0.0000001
 43
0.0000001
 44
0.0000000001
 40
0.0
 40
0.0
 40
0.0
 40
0.0
 40
0.3223329819
 40
0.655325912
 40
1.0
 40
1.0
 40
1.0
 40
1.0
 10
90.8841721978
 20
131.9232707248
 30
0.0
 10
90.9373681097
 20
131.9590691803
 30
0.0
 10
91.04414149
 20
132.033930581
 30
0.0
 10
91.202252003
 20
132.1547119004
 30
0.0
 10
91.3068052306
 20
132.2398371227
 30
0.0
 10
91.3593907362
 20
132.2838344889
 30
0.0
  0
SPLINE
  5
43D
100
AcDbEntity
  8
0
100
AcDbSpline
 62
7
  6
BYLAYER
 70
0
 71
3
 72
10
 73
6
 74
0
 42
0.0000001
 43
0.0000001
 44
0.0000000001
 40
0.0
 40
0.0
 40
0.0
 40
0.0
 40
0.3439142301
 40
0.6734225364
 40
1.0
 40
1.0
 40
1.0
 40
1.0
 10
91.4612630284
 20
132.4672698119
 30
0.0
 10
91.4509355078
 20
132.4659952936
 30
0.0
 10
91.4305926033
 20
132.4645753167
 30
0.0
 10
91.4006263682
 20
132.4603193347
 30
0.0
 10
91.3809410182
 20
132.4577714491
 30
0.0
 10
91.3711476242
 20
132.4564562886
 30
0.0
  0
SPLINE
  5
43E
100
AcDbEntity
  8
0
100
AcDbSpline
 62
7
  6
BYLAYER
 70
0
 71
3
 72
10
 73
6
 74
0
 42
0.0000001
 43
0.0000001
 44
0.0000000001
 40
0.0
 40
0.0
 40
0.0
 40
0.0
 40
0.338994268
 40
0.6481870417
 40
1.0
 40
1.0
 40
1.0
 40
1.0
 10
91.5023659137
 20
132.3813785831
 30
0.0
 10
91.5005697834
 20
132.3814791702
 30
0.0
 10
91.4971552691
 20
132.3820257569
 30
0.0
 10
91.4918315205
 20
132.3816477129
 30
0.0
 10
91.4883470023
 20
132.3821765788
 30
0.0
 10
91.4864830634
 20
132.3822829139
 30
0.0
  0
SPLINE
  5
43F
100
AcDbEntity
  8
0
100
AcDbSpline
 62
7
  6
BYLAYER
 70
0
 71
3
 72
10
 73
6
 74
0
 42
0.0000001
 43
0.0000001
 44
0.0000000001
 40
0.0
 40
0.0
 40
0.0
 40
0.0
 40
0.3516064148
 40
0.6644021674
 40
1.0
 40
1.0
 40
1.0
 40
1.0
 10
92.2862985786
 20
132.3823660507
 30
0.0
 10
92.2842174263
 20
132.3822472312
 30
0.0
 10
92.280304766
 20
132.3816510617
 30
0.0
 10
92.274356905
 20
132.3820774911
 30
0.0
 10
92.2705406762
 20
132.3814717146
 30
0.0
 10
92.2685541472
 20
132.3813606259
 30
0.0
  0
SPLINE
  5
440
100
AcDbEntity
  8
0
100
AcDbSpline
 62
7
  6
BYLAYER
 70
0
 71
3
 72
10
 73
6
 74
0
 42
0.0000001
 43
0.0000001
 44
0.0000000001
 40
0.0
 40
0.0
 40
0.0
 40
0.0
 40
0.3268063494
 40
0.6562879426
 40
1.0
 40
1.0
 40
1.0
 40
1.0
 10
92.4015368931
 20
132.4565712406
 30
0.0
 10
92.3917569072
 20
132.4578842988
 30
0.0
 10
92.3721058923
 20
132.4604243961
 30
0.0
 10
92.3422026243
 20
132.4646789101
 30
0.0
 10
92.3219079316
 20
132.4660871676
 30
0.0
 10
92.3116078548
 20
132.4673581403
 30
0.0
  0
SPLINE
  5
441
100
AcDbEntity
  8
0
100
AcDbSpline
 62
7
  6
BYLAYER
 70
0
 71
3
 72
10
 73
6
 74
0
 42
0.0000001
 43
0.0000001
 44
0.0000000001
 40
0.0
 40
0.0
 40
0.0
 40
0.0
 40
0.3446528815
 40
0.677667913
 40
1.0
 40
1.0
 40
1.0
 40
1.0
 10
92.4133212135
 20
132.2839170428
 30
0.0
 10
92.4659131925
 20
132.2399168583
 30
0.0
 10
92.5704877275
 20
132.1547833496
 30
0.0
 10
92.7286243987
 20
132.033983697
 30
0.0
 10
92.8354224574
 20
131.9591136295
 30
0.0
 10
92.8886282144
 20
131.9233117098
 30
0.0
  0
SPLINE
  5
442
100
AcDbEntity
  8
0
100
AcDbSpline
 62
7
  6
BYLAYER
 70
0
 71
3
 72
10
 73
6
 74
0
 42
0.0000001
 43
0.0000001
 44
0.0000000001
 40
0.0
 40
0.0
 40
0.0
 40
0.0
 40
0.3223405912
 40
0.6553291009
 40
1.0
 40
1.0
 40
1.0
 40
1.0
 10
92.9348166909
 20
131.9695020753
 30
0.0
 10
92.8990115945
 20
132.0227078554
 30
0.0
 10
92.8241386745
 20
132.1294997572
 30
0.0
 10
92.7033342424
 20
132.2876331946
 30
0.0
 10
92.6181952688
 20
132.3922013917
 30
0.0
 10
92.5741905455
 20
132.4447943876
 30
0.0
  0
SPLINE
  5
443
100
AcDbEntity
  8
0
100
AcDbSpline
 62
7
  6
BYLAYER
 70
0
 71
3
 72
10
 73
6
 74
0
 42
0.0000001
 43
0.0000001
 44
0.0000000001
 40
0.0
 40
0.0
 40
0.0
 40
0.0
 40
0.3436784113
 40
0.6731579911
 40
1.0
 40
1.0
 40
1.0
 40
1.0
 10
92.3907472484
 20
132.5465009239
 30
0.0
 10
92.3920185292
 20
132.5362017959
 30
0.0
 10
92.3934265632
 20
132.5159079194
 30
0.0
 10
92.3976825809
 20
132.486004521
 30
0.0
 10
92.4002234256
 20
132.4663523653
 30
0.0
 10
92.4015368931
 20
132.4565712406
 30
0.0
  0
SPLINE
  5
444
100
AcDbEntity
  8
0
100
AcDbSpline
 62
7
  6
BYLAYER
 70
0
 71
3
 72
10
 73
6
 74
0
 42
0.0000001
 43
0.0000001
 44
0.0000000001
 40
0.0
 40
0.0
 40
0.0
 40
0.0
 40
0.3267030062
 40
0.656347842
 40
1.0
 40
1.0
 40
1.0
 40
1.0
 10
92.4016099143
 20
133.4869610007
 30
0.0
 10
92.4002953148
 20
133.4771682946
 30
0.0
 10
92.3977450559
 20
133.4574843518
 30
0.0
 10
92.3935100174
 20
133.42753005
 30
0.0
 10
92.3920396407
 20
133.4072054693
 30
0.0
 10
92.3907669623
 20
133.3968905391
 30
0.0
  0
SPLINE
  5
445
100
AcDbEntity
  8
0
100
AcDbSpline
 62
7
  6
BYLAYER
 70
0
 71
3
 72
10
 73
6
 74
0
 42
0.0000001
 43
0.0000001
 44
0.0000000001
 40
0.0
 40
0.0
 40
0.0
 40
0.0
 40
0.3446509919
 40
0.6776667986
 40
1.0
 40
1.0
 40
1.0
 40
1.0
 10
92.574230885
 20
133.4987235347
 30
0.0
 10
92.6182232494
 20
133.5513074325
 30
0.0
 10
92.70334267
 20
133.6558656599
 30
0.0
 10
92.8241214307
 20
133.8139787117
 30
0.0
 10
92.8989793207
 20
133.9207605598
 30
0.0
 10
92.9347757043
 20
133.9739580895
 30
0.0
  0
SPLINE
  5
446
100
AcDbEntity
  8
0
100
AcDbSpline
 62
7
  6
BYLAYER
 70
0
 71
3
 72
10
 73
6
 74
0
 42
0.0000001
 43
0.0000001
 44
0.0000000001
 40
0.0
 40
0.0
 40
0.0
 40
0.0
 40
0.3223354782
 40
0.6553284975
 40
1.0
 40
1.0
 40
1.0
 40
1.0
 10
92.8885853407
 20
134.0201465645
 30
0.0
 10
92.8353890759
 20
133.9843478715
 30
0.0
 10
92.7286154763
 20
133.9094861542
 30
0.0
 10
92.5705048018
 20
133.788705379
 30
0.0
 10
92.4659530618
 20
133.7035793527
 30
0.0
 10
92.4133680053
 20
133.6595823698
 30
0.0
  0
SPLINE
  5
447
100
AcDbEntity
  8
0
100
AcDbSpline
 62
7
  6
BYLAYER
 70
0
 71
3
 72
10
 73
6
 74
0
 42
0.0000001
 43
0.0000001
 44
0.0000000001
 40
0.0
 40
0.0
 40
0.0
 40
0.0
 40
0.339555665
 40
0.6588159137
 40
1.0
 40
1.0
 40
1.0
 40
1.0
 10
92.2718535533
 20
133.4761411457
 30
0.0
 10
92.2763259223
 20
133.4760631759
 30
0.0
 10
92.2850046042
 20
133.4760125851
 30
0.0
 10
92.2981743916
 20
133.4756001534
 30
0.0
 10
92.3068761522
 20
133.4758620173
 30
0.0
 10
92.3113699682
 20
133.4757835992
 30
0.0
  0
SPLINE
  5
448
100
AcDbEntity
  8
0
100
AcDbSpline
 62
7
  6
BYLAYER
 70
0
 71
3
 72
10
 73
6
 74
0
 42
0.0000001
 43
0.0000001
 44
0.0000000001
 40
0.0
 40
0.0
 40
0.0
 40
0.0
 40
0.3433399599
 40
0.6731828032
 40
1.0
 40
1.0
 40
1.0
 40
1.0
 10
92.3116100367
 20
133.4760683404
 30
0.0
 10
92.3219081292
 20
133.4773395756
 30
0.0
 10
92.3422073624
 20
133.4788812214
 30
0.0
 10
92.37214214
 20
133.4830919391
 30
0.0
 10
92.3918208718
 20
133.4856464245
 30
0.0
 10
92.4016099143
 20
133.4869610007
 30
0.0
  0
SPLINE
  5
449
100
AcDbEntity
  8
0
100
AcDbSpline
 62
7
  6
BYLAYER
 70
0
 71
3
 72
10
 73
6
 74
0
 42
0.0000001
 43
0.0000001
 44
0.0000000001
 40
0.0
 40
0.0
 40
0.0
 40
0.0
 40
0.3354562363
 40
0.6663089792
 40
1.0
 40
1.0
 40
1.0
 40
1.0
 10
92.391620666
 20
133.3575033148
 30
0.0
 10
92.3915439707
 20
133.3618834843
 30
0.0
 10
92.3902679373
 20
133.3705286201
 30
0.0
 10
92.3903614387
 20
133.3836078911
 30
0.0
 10
92.3905455689
 20
133.3922825416
 30
0.0
 10
92.3904693514
 20
133.3966396634
 30
0.0
  0
SPLINE
  5
44A
100
AcDbEntity
  8
0
100
AcDbSpline
 62
7
  6
BYLAYER
 70
0
 71
3
 72
10
 73
6
 74
0
 42
0.0000001
 43
0.0000001
 44
0.0000000001
 40
0.0
 40
0.0
 40
0.0
 40
0.0
 40
0.3216644285
 40
0.6777787562
 40
1.0
 40
1.0
 40
1.0
 40
1.0
 10
92.3904693514
 20
133.3966396634
 30
0.0
 10
92.3827220889
 20
133.4058301483
 30
0.0
 10
92.3666349184
 20
133.4254106019
 30
0.0
 10
92.3400774912
 20
133.4518165878
 30
0.0
 10
92.320575702
 20
133.4680221426
 30
0.0
 10
92.3113699682
 20
133.4757835992
 30
0.0
  0
SPLINE
  5
44B
100
AcDbEntity
  8
0
100
AcDbSpline
 62
7
  6
BYLAYER
 70
0
 71
3
 72
10
 73
6
 74
0
 42
0.0000001
 43
0.0000001
 44
0.0000000001
 40
0.0
 40
0.0
 40
0.0
 40
0.0
 40
0.3337744053
 40
0.6701307087
 40
1.0
 40
1.0
 40
1.0
 40
1.0
 10
92.2716888805
 20
133.506772737
 30
0.0
 10
92.2345720233
 20
133.5335013113
 30
0.0
 10
92.1546328985
 20
133.5802933381
 30
0.0
 10
92.0231139299
 20
133.62220774
 30
0.0
 10
91.9315693677
 20
133.6317095688
 30
0.0
 10
91.8863652738
 20
133.6317086445
 30
0.0
  0
SPLINE
  5
44C
100
AcDbEntity
  8
0
100
AcDbSpline
 62
7
  6
BYLAYER
 70
0
 71
3
 72
10
 73
6
 74
0
 42
0.0000001
 43
0.0000001
 44
0.0000000001
 40
0.0
 40
0.0
 40
0.0
 40
0.0
 40
0.3309604537
 40
0.6650141565
 40
1.0
 40
1.0
 40
1.0
 40
1.0
 10
91.8863922647
 20
132.3117086448
 30
0.0
 10
91.9314772509
 20
132.3117095666
 30
0.0
 10
92.0223119998
 20
132.3211199516
 30
0.0
 10
92.1531116472
 20
132.3625199879
 30
0.0
 10
92.2325715937
 20
132.4087443121
 30
0.0
 10
92.269699917
 20
132.4352752312
 30
0.0
  0
SPLINE
  5
44D
100
AcDbEntity
  8
0
100
AcDbSpline
 62
7
  6
BYLAYER
 70
0
 71
3
 72
10
 73
6
 74
0
 42
0.0000001
 43
0.0000001
 44
0.0000000001
 40
0.0
 40
0.0
 40
0.0
 40
0.0
 40
0.3358234032
 40
0.6484930609
 40
1.0
 40
1.0
 40
1.0
 40
1.0
 10
92.2703411969
 20
132.4664132917
 30
0.0
 10
92.2749365272
 20
132.4664937658
 30
0.0
 10
92.2837460578
 20
132.4679040643
 30
0.0
 10
92.2974551193
 20
132.4677624529
 30
0.0
 10
92.3065400385
 20
132.4675798543
 30
0.0
 10
92.3113499802
 20
132.4676639969
 30
0.0
  0
SPLINE
  5
44E
100
AcDbEntity
  8
0
100
AcDbSpline
 62
7
  6
BYLAYER
 70
0
 71
3
 72
10
 73
6
 74
0
 42
0.0000001
 43
0.0000001
 44
0.0000000001
 40
0.0
 40
0.0
 40
0.0
 40
0.0
 40
0.3375819476
 40
0.6568964007
 40
1.0
 40
1.0
 40
1.0
 40
1.0
 10
92.3904412932
 20
132.5467588593
 30
0.0
 10
92.3905231845
 20
132.5514510709
 30
0.0
 10
92.3901895554
 20
132.5605843952
 30
0.0
 10
92.3906689093
 20
132.574482209
 30
0.0
 10
92.3906465978
 20
132.5836916516
 30
0.0
 10
92.390729733
 20
132.588460613
 30
0.0
  0
SPLINE
  5
44F
100
AcDbEntity
  8
0
100
AcDbSpline
 62
7
  6
BYLAYER
 70
0
 71
3
 72
11
 73
7
 74
0
 42
0.0000001
 43
0.0000001
 44
0.0000000001
 40
0.0
 40
0.0
 40
0.0
 40
0.0
 40
0.2509759932
 40
0.4996118116
 40
0.7475291409
 40
1.0
 40
1.0
 40
1.0
 40
1.0
 10
92.4228255088
 20
132.5884075853
 30
0.0
 10
92.4626061356
 20
132.6440823272
 30
0.0
 10
92.5256766967
 20
132.7677908762
 30
0.0
 10
92.5568188254
 20
132.9724717745
 30
0.0
 10
92.52511446
 20
133.177445845
 30
0.0
 10
92.4616123414
 20
133.3012188759
 30
0.0
 10
92.4213812084
 20
133.3570720158
 30
0.0
  0
SPLINE
  5
450
100
AcDbEntity
  8
0
100
AcDbSpline
 62
7
  6
BYLAYER
 70
0
 71
3
 72
10
 73
6
 74
0
 42
0.0000001
 43
0.0000001
 44
0.0000000001
 40
0.0
 40
0.0
 40
0.0
 40
0.0
 40
0.3364882637
 40
0.6659214149
 40
1.0
 40
1.0
 40
1.0
 40
1.0
 10
91.4983290147
 20
133.476994644
 30
0.0
 10
91.4941892802
 20
133.4769221618
 30
0.0
 10
91.4860543324
 20
133.4756481964
 30
0.0
 10
91.4737287368
 20
133.4757582947
 30
0.0
 10
91.465568607
 20
133.475929057
 30
0.0
 10
91.461458517
 20
133.4758571646
 30
0.0
  0
SPLINE
  5
451
100
AcDbEntity
  8
0
100
AcDbSpline
 62
7
  6
BYLAYER
 70
0
 71
3
 72
10
 73
6
 74
0
 42
0.0000001
 43
0.0000001
 44
0.0000000001
 40
0.0
 40
0.0
 40
0.0
 40
0.0
 40
0.3222122554
 40
0.6772147359
 40
1.0
 40
1.0
 40
1.0
 40
1.0
 10
91.461458517
 20
133.4758571646
 30
0.0
 10
91.4522350945
 20
133.4680832272
 30
0.0
 10
91.432676639
 20
133.4519317872
 30
0.0
 10
91.406205407
 20
133.4253469201
 30
0.0
 10
91.389985384
 20
133.4058224416
 30
0.0
 10
91.3821984124
 20
133.3965819502
 30
0.0
  0
SPLINE
  5
452
100
AcDbEntity
  8
0
100
AcDbSpline
 62
7
  6
BYLAYER
 70
0
 71
3
 72
11
 73
7
 74
0
 42
0.0000001
 43
0.0000001
 44
0.0000000001
 40
0.0
 40
0.0
 40
0.0
 40
0.0
 40
0.2509199916
 40
0.4996486227
 40
0.7477727764
 40
1.0
 40
1.0
 40
1.0
 40
1.0
 10
91.352760156
 20
133.3590635289
 30
0.0
 10
91.3123316531
 20
133.3033693773
 30
0.0
 10
91.2481413527
 20
133.179255252
 30
0.0
 10
91.2157941486
 20
132.9734092534
 30
0.0
 10
91.2471578782
 20
132.767057925
 30
0.0
 10
91.3109437881
 20
132.6424782161
 30
0.0
 10
91.3513768206
 20
132.5863448858
 30
0.0
  0
SPLINE
  5
453
100
AcDbEntity
  8
0
100
AcDbSpline
 62
7
  6
BYLAYER
 70
0
 71
3
 72
10
 73
6
 74
0
 42
0.0000001
 43
0.0000001
 44
0.0000000001
 40
0.0
 40
0.0
 40
0.0
 40
0.0
 40
0.3280467195
 40
0.658760344
 40
1.0
 40
1.0
 40
1.0
 40
1.0
 10
91.3811368725
 20
132.5859139745
 30
0.0
 10
91.3812118749
 20
132.5816304878
 30
0.0
 10
91.3824886294
 20
132.573084747
 30
0.0
 10
91.3824026247
 20
132.5600046544
 30
0.0
 10
91.3822102443
 20
132.5512333813
 30
0.0
 10
91.382288187
 20
132.5467776259
 30
0.0
  0
SPLINE
  5
454
100
AcDbEntity
  8
0
100
AcDbSpline
 62
7
  6
BYLAYER
 70
0
 71
3
 72
10
 73
6
 74
0
 42
0.0000001
 43
0.0000001
 44
0.0000000001
 40
0.0
 40
0.0
 40
0.0
 40
0.0
 40
0.3216364905
 40
0.6777741906
 40
1.0
 40
1.0
 40
1.0
 40
1.0
 10
91.382288187
 20
132.5467776259
 30
0.0
 10
91.3900443729
 20
132.5375765555
 30
0.0
 10
91.4061561661
 20
132.5179770726
 30
0.0
 10
91.4327335778
 20
132.4915226669
 30
0.0
 10
91.4523006459
 20
132.4753434386
 30
0.0
 10
91.4615195552
 20
132.4675742044
 30
0.0
  0
SPLINE
  5
455
100
AcDbEntity
  8
0
100
AcDbSpline
 62
7
  6
BYLAYER
 70
0
 71
3
 72
10
 73
6
 74
0
 42
0.0000001
 43
0.0000001
 44
0.0000000001
 40
0.0
 40
0.0
 40
0.0
 40
0.0
 40
0.3459164157
 40
0.6560192299
 40
1.0
 40
1.0
 40
1.0
 40
1.0
 10
91.4615195552
 20
132.4675742044
 30
0.0
 10
91.4657571618
 20
132.467500246
 30
0.0
 10
91.4737760276
 20
132.4677457763
 30
0.0
 10
91.4861049868
 20
132.4680963606
 30
0.0
 10
91.4939092904
 20
132.465797813
 30
0.0
 10
91.4978752365
 20
132.4643717748
 30
0.0
  0
SPLINE
  5
456
100
AcDbEntity
  8
0
100
AcDbSpline
 62
7
  6
BYLAYER
 70
0
 71
3
 72
10
 73
6
 74
0
 42
0.0000001
 43
0.0000001
 44
0.0000000001
 40
0.0
 40
0.0
 40
0.0
 40
0.0
 40
0.333765173
 40
0.6702249693
 40
1.0
 40
1.0
 40
1.0
 40
1.0
 10
91.5010478009
 20
132.4366780204
 30
0.0
 10
91.5381652923
 20
132.4099458704
 30
0.0
 10
91.6181095186
 20
132.3631210674
 30
0.0
 10
91.7496448122
 20
132.3212098783
 30
0.0
 10
91.8411972647
 20
132.3117077206
 30
0.0
 10
91.8863922647
 20
132.3117086448
 30
0.0
  0
SPLINE
  5
457
100
AcDbEntity
  8
0
100
AcDbSpline
 62
7
  6
BYLAYER
 70
0
 71
3
 72
10
 73
6
 74
0
 42
0.0000001
 43
0.0000001
 44
0.0000000001
 40
0.0
 40
0.0
 40
0.0
 40
0.0
 40
0.331236427
 40
0.6652230876
 40
1.0
 40
1.0
 40
1.0
 40
1.0
 10
91.8863652738
 20
133.6317086445
 30
0.0
 10
91.8406969291
 20
133.6317077107
 30
0.0
 10
91.7487233337
 20
133.6220620658
 30
0.0
 10
91.6165045423
 20
133.5796064485
 30
0.0
 10
91.5363463719
 20
133.5324140951
 30
0.0
 10
91.4989952976
 20
133.5052973501
 30
0.0
  0
SPLINE
  5
458
100
AcDbEntity
  8
0
100
AcDbSpline
 62
7
  6
BYLAYER
 70
0
 71
3
 72
10
 73
6
 74
0
 42
0.0000001
 43
0.0000001
 44
0.0000000001
 40
0.0
 40
0.0
 40
0.0
 40
0.0
 40
0.3267993998
 40
0.6566348307
 40
1.0
 40
1.0
 40
1.0
 40
1.0
 10
91.371026203
 20
133.487040482
 30
0.0
 10
91.3723437732
 20
133.4772285894
 30
0.0
 10
91.3749140419
 20
133.4575049657
 30
0.0
 10
91.3791132072
 20
133.42749566
 30
0.0
 10
91.3806393612
 20
133.4071456534
 30
0.0
 10
91.3819133563
 20
133.3968221673
 30
0.0
  0
SPLINE
  5
459
100
AcDbEntity
  8
0
100
AcDbSpline
 62
7
  6
BYLAYER
 70
0
 71
3
 72
10
 73
6
 74
0
 42
0.0000001
 43
0.0000001
 44
0.0000000001
 40
0.0
 40
0.0
 40
0.0
 40
0.0
 40
0.3380183642
 40
0.6510395098
 40
1.0
 40
1.0
 40
1.0
 40
1.0
 10
91.3809258885
 20
133.3596949664
 30
0.0
 10
91.3809986083
 20
133.3638568959
 30
0.0
 10
91.3824668491
 20
133.3717972118
 30
0.0
 10
91.3822913149
 20
133.3841392951
 30
0.0
 10
91.3821234297
 20
133.3922852916
 30
0.0
 10
91.3821984124
 20
133.3965819502
 30
0.0
  0
SPLINE
  5
45A
100
AcDbEntity
  8
0
100
AcDbSpline
 62
7
  6
BYLAYER
 70
0
 71
3
 72
10
 73
6
 74
0
 42
0.0000001
 43
0.0000001
 44
0.0000000001
 40
0.0
 40
0.0
 40
0.0
 40
0.0
 40
0.3223344528
 40
0.6553246694
 40
1.0
 40
1.0
 40
1.0
 40
1.0
 10
90.8379408478
 20
133.9739152142
 30
0.0
 10
90.8737333729
 20
133.9207281147
 30
0.0
 10
90.9485800057
 20
133.8139717879
 30
0.0
 10
91.0693414404
 20
133.6558886741
 30
0.0
 10
91.1544505702
 20
133.5513523541
 30
0.0
 10
91.1984399219
 20
133.498775038
 30
0.0
  0
SPLINE
  5
45B
100
AcDbEntity
  8
0
100
AcDbSpline
 62
7
  6
BYLAYER
 70
0
 71
3
 72
10
 73
6
 74
0
 42
0.0000001
 43
0.0000001
 44
0.0000000001
 40
0.0
 40
0.0
 40
0.0
 40
0.0
 40
0.3446569308
 40
0.6776736291
 40
1.0
 40
1.0
 40
1.0
 40
1.0
 10
91.3592841212
 20
133.6596274461
 30
0.0
 10
91.3067078923
 20
133.7036122025
 30
0.0
 10
91.2021652647
 20
133.7887157224
 30
0.0
 10
91.0440789803
 20
133.9094723849
 30
0.0
 10
90.9373164581
 20
133.9843161908
 30
0.0
 10
90.8841293239
 20
134.0201055793
 30
0.0
  0
SPLINE
  5
45C
100
AcDbEntity
  8
0
100
AcDbSpline
 62
7
  6
BYLAYER
 70
0
 71
3
 72
10
 73
6
 74
0
 42
0.0000001
 43
0.0000001
 44
0.0000000001
 40
0.0
 40
0.0
 40
0.0
 40
0.0
 40
0.3235883999
 40
0.6793231464
 40
1.0
 40
1.0
 40
1.0
 40
1.0
 10
92.3907472484
 20
132.5465009239
 30
0.0
 10
92.3829550134
 20
132.5372580115
 30
0.0
 10
92.3663602522
 20
132.5180419107
 30
0.0
 10
92.3399440457
 20
132.491557113
 30
0.0
 10
92.3207672755
 20
132.4750806509
 30
0.0
 10
92.3116078548
 20
132.4673581403
 30
0.0
  0
SPLINE
  5
45D
100
AcDbEntity
  8
0
100
AcDbSpline
 62
7
  6
BYLAYER
 70
0
 71
3
 72
10
 73
6
 74
0
 42
0.0000001
 43
0.0000001
 44
0.0000000001
 40
0.0
 40
0.0
 40
0.0
 40
0.0
 40
0.3334622177
 40
0.6660281004
 40
1.0
 40
1.0
 40
1.0
 40
1.0
 10
92.0439184176
 20
132.0862699982
 30
0.0
 10
92.0655976938
 20
132.0723928046
 30
0.0
 10
92.1098483131
 20
132.0460569016
 30
0.0
 10
92.1799888723
 20
132.0135662103
 30
0.0
 10
92.2282942625
 20
131.9956840854
 30
0.0
 10
92.2528143248
 20
131.9877241217
 30
0.0
  0
SPLINE
  5
45E
100
AcDbEntity
  8
0
100
AcDbSpline
 62
7
  6
BYLAYER
 70
0
 71
3
 72
10
 73
6
 74
0
 42
0.0000001
 43
0.0000001
 44
0.0000000001
 40
0.0
 40
0.0
 40
0.0
 40
0.0
 40
0.3343334163
 40
0.6663509255
 40
1.0
 40
1.0
 40
1.0
 40
1.0
 10
92.9272328971
 20
132.8334002507
 30
0.0
 10
92.9140382004
 20
132.8556214258
 30
0.0
 10
92.885697569
 20
132.898697714
 30
0.0
 10
92.8385087581
 20
132.9600749447
 30
0.0
 10
92.8026215651
 20
132.9970722598
 30
0.0
 10
92.7842451754
 20
133.0151680492
 30
0.0
  0
SPLINE
  5
45F
100
AcDbEntity
  8
0
100
AcDbSpline
 62
7
  6
BYLAYER
 70
0
 71
3
 72
10
 73
6
 74
0
 42
0.0000001
 43
0.0000001
 44
0.0000000001
 40
0.0
 40
0.0
 40
0.0
 40
0.0
 40
0.3584109121
 40
0.6904282391
 40
1.0
 40
1.0
 40
1.0
 40
1.0
 10
93.0591165995
 20
132.0365216327
 30
0.0
 10
92.9682350574
 20
131.9990849493
 30
0.0
 10
92.7847537512
 20
131.9451722787
 30
0.0
 10
92.5087313342
 20
131.9293178346
 30
0.0
 10
92.3335627248
 20
131.9615117753
 30
0.0
 10
92.2528144114
 20
131.9877251528
 30
0.0
  0
SPLINE
  5
460
100
AcDbEntity
  8
0
100
AcDbSpline
 62
7
  6
BYLAYER
 70
0
 71
3
 72
21
 73
17
 74
0
 42
0.0000001
 43
0.0000001
 44
0.0000000001
 40
0.0
 40
0.0
 40
0.0
 40
0.0
 40
0.0705477352
 40
0.1430667927
 40
0.2127737763
 40
0.2834381636
 40
0.356928634
 40
0.4276934255
 40
0.4988323849
 40
0.5704829435
 40
0.6417186326
 40
0.7154658805
 40
0.7864628781
 40
0.8566781612
 40
0.9290566241
 40
1.0
 40
1.0
 40
1.0
 40
1.0
 10
92.0439184176
 20
132.0862699982
 30
0.0
 10
91.943614743
 20
132.0693932799
 30
0.0
 10
91.7330522867
 20
132.0708883558
 30
0.0
 10
91.4371743216
 20
132.1715165237
 30
0.0
 10
91.1940806521
 20
132.3699719529
 30
0.0
 10
91.0355631023
 20
132.640951856
 30
0.0
 10
90.9689644431
 20
132.9497131453
 30
0.0
 10
91.0160668517
 20
133.2639432303
 30
0.0
 10
91.1698273118
 20
133.5373768419
 30
0.0
 10
91.4010251483
 20
133.7500710868
 30
0.0
 10
91.6969470822
 20
133.8708741218
 30
0.0
 10
92.0146964768
 20
133.8759953311
 30
0.0
 10
92.3157062553
 20
133.781915531
 30
0.0
 10
92.5653776124
 20
133.589843474
 30
0.0
 10
92.7294324414
 20
133.3224134441
 30
0.0
 10
92.7781076485
 20
133.1172677375
 30
0.0
 10
92.7842451754
 20
133.0151680492
 30
0.0
  0
SPLINE
  5
461
100
AcDbEntity
  8
0
100
AcDbSpline
 62
7
  6
BYLAYER
 70
0
 71
3
 72
103
 73
99
 74
0
 42
0.0000001
 43
0.0000001
 44
0.0000000001
 40
0.0
 40
0.0
 40
0.0
 40
0.0
 40
0.0024069934
 40
0.0050400593
 40
0.0079246729
 40
0.0110887179
 40
0.0145648475
 40
0.018390138
 40
0.022611001
 40
0.027279931
 40
0.0324588562
 40
0.0382266764
 40
0.0446806258
 40
0.0519429706
 40
0.060151448
 40
0.0694995871
 40
0.0801296128
 40
0.0916841529
 40
0.1032495545
 40
0.1143266521
 40
0.1252230316
 40
0.1364162972
 40
0.148054093
 40
0.1597369811
 40
0.170975362
 40
0.1819052773
 40
0.1928630835
 40
0.2041354249
 40
0.2158364804
 40
0.2274443355
 40
0.2386735225
 40
0.2496970467
 40
0.2608528648
 40
0.2722492498
 40
0.2839140877
 40
0.2954574517
 40
0.3066872101
 40
0.3178235127
 40
0.329187254
 40
0.3407054794
 40
0.3523029186
 40
0.3637208693
 40
0.3749585612
 40
0.3862280922
 40
0.3977817437
 40
0.4093719586
 40
0.4208141622
 40
0.4320283227
 40
0.4431368548
 40
0.4544340667
 40
0.466108657
 40
0.4776989243
 40
0.488982021
 40
0.5000160996
 40
0.5110791606
 40
0.5224002239
 40
0.5341121072
 40
0.5457072048
 40
0.5569019108
 40
0.5678769955
 40
0.578976234
 40
0.5903537278
 40
0.6020591165
 40
0.6136069203
 40
0.6248575145
 40
0.6359936686
 40
0.6473217729
 40
0.658818225
 40
0.670453974
 40
0.6818779146
 40
0.6930709081
 40
0.7042910315
 40
0.7157951388
 40
0.7273354118
 40
0.7388351383
 40
0.7501148987
 40
0.7612996336
 40
0.7726288459
 40
0.7842833122
 40
0.7958791681
 40
0.8072047846
 40
0.8182786217
 40
0.8293708552
 40
0.8407427554
 40
0.8524742618
 40
0.8639863142
 40
0.8751285741
 40
0.8860550709
 40
0.8971159488
 40
0.908448099
 40
0.9201336426
 40
0.9317455571
 40
0.9430465868
 40
0.9542168932
 40
0.9655471094
 40
0.9770110754
 40
0.988525017
 40
1.0
 40
1.0
 40
1.0
 40
1.0
 10
92.2765045321
 20
133.7818365968
 30
0.0
 10
92.2658676073
 20
133.786836466
 30
0.0
 10
92.2433822911
 20
133.796860118
 30
0.0
 10
92.2074062492
 20
133.8111436846
 30
0.0
 10
92.1673312384
 20
133.8250170662
 30
0.0
 10
92.1226786263
 20
133.8380983341
 30
0.0
 10
92.0729275609
 20
133.8498860993
 30
0.0
 10
92.0174975535
 20
133.8597266611
 30
0.0
 10
91.9557643886
 20
133.8667565933
 30
0.0
 10
91.8870751963
 20
133.8698268461
 30
0.0
 10
91.810779198
 20
133.8673941348
 30
0.0
 10
91.7262844737
 20
133.857359587
 30
0.0
 10
91.6332080399
 20
133.8368105237
 30
0.0
 10
91.5317425791
 20
133.8017632164
 30
0.0
 10
91.4233831379
 20
133.7465296326
 30
0.0
 10
91.3111034961
 20
133.6659734821
 30
0.0
 10
91.2013880111
 20
133.5569363293
 30
0.0
 10
91.1053745169
 20
133.4219270474
 30
0.0
 10
91.0338493066
 20
133.2700310425
 30
0.0
 10
90.991965785
 20
133.1106829441
 30
0.0
 10
90.9821336708
 20
132.9479976998
 30
0.0
 10
91.0035394233
 20
132.7837663416
 30
0.0
 10
91.0552024993
 20
132.6223945295
 30
0.0
 10
91.134841387
 20
132.4725800735
 30
0.0
 10
91.2377180065
 20
132.3420664203
 30
0.0
 10
91.360280488
 20
132.234966801
 30
0.0
 10
91.5016226104
 20
132.1539379732
 30
0.0
 10
91.6588208121
 20
132.0988649598
 30
0.0
 10
91.8264771375
 20
132.0721016681
 30
0.0
 10
91.9959957734
 20
132.075584792
 30
0.0
 10
92.1589290176
 20
132.1088964551
 30
0.0
 10
92.3104600812
 20
132.1721304675
 30
0.0
 10
92.4473733963
 20
132.2640875847
 30
0.0
 10
92.5677124842
 20
132.3812448953
 30
0.0
 10
92.6666116141
 20
132.5193754607
 30
0.0
 10
92.7389257222
 20
132.6722088822
 30
0.0
 10
92.7812104379
 20
132.833382729
 30
0.0
 10
92.7904023278
 20
132.9989110815
 30
0.0
 10
92.7678973874
 20
133.1644392735
 30
0.0
 10
92.7155478926
 20
133.3253846726
 30
0.0
 10
92.6355291896
 20
133.4748369849
 30
0.0
 10
92.5308034491
 20
133.6064759289
 30
0.0
 10
92.403942439
 20
133.7147235395
 30
0.0
 10
92.2574051967
 20
133.7955979538
 30
0.0
 10
92.0969723659
 20
133.8485862441
 30
0.0
 10
91.9288582275
 20
133.8723141729
 30
0.0
 10
91.7608681631
 20
133.8660809374
 30
0.0
 10
91.5989492437
 20
133.8300703875
 30
0.0
 10
91.4478502111
 20
133.7631607248
 30
0.0
 10
91.3107498586
 20
133.6671354948
 30
0.0
 10
91.1916440565
 20
133.5462792489
 30
0.0
 10
91.0959233672
 20
133.4062803673
 30
0.0
 10
91.0278084426
 20
133.2543955081
 30
0.0
 10
90.9893922122
 20
133.094933412
 30
0.0
 10
90.9833599572
 20
132.9308264676
 30
0.0
 10
91.0082111586
 20
132.7652924078
 30
0.0
 10
91.0630402009
 20
132.6043665641
 30
0.0
 10
91.1452948531
 20
132.4563082567
 30
0.0
 10
91.2505172638
 20
132.3281532306
 30
0.0
 10
91.3764697906
 20
132.223903175
 30
0.0
 10
91.5210387748
 20
132.1457937654
 30
0.0
 10
91.6805773622
 20
132.0938566639
 30
0.0
 10
91.8490077329
 20
132.07065077
 30
0.0
 10
92.0182493493
 20
132.0778675712
 30
0.0
 10
92.1807025594
 20
132.1154590733
 30
0.0
 10
92.3314610452
 20
132.1842561063
 30
0.0
 10
92.4672391061
 20
132.2810933435
 30
0.0
 10
92.5852288827
 20
132.402293195
 30
0.0
 10
92.6802784461
 20
132.5428079993
 30
0.0
 10
92.7479886802
 20
132.6967811511
 30
0.0
 10
92.784839692
 20
132.858967106
 30
0.0
 10
92.7884432176
 20
133.0255976549
 30
0.0
 10
92.7610084472
 20
133.1915708609
 30
0.0
 10
92.7041176549
 20
133.3513074067
 30
0.0
 10
92.6205156529
 20
133.4975712092
 30
0.0
 10
92.5128715804
 20
133.625055705
 30
0.0
 10
92.3827986469
 20
133.7283877871
 30
0.0
 10
92.2335539751
 20
133.805162087
 30
0.0
 10
92.0710161541
 20
133.8541732344
 30
0.0
 10
91.9023945895
 20
133.8735603657
 30
0.0
 10
91.7358430882
 20
133.8629272029
 30
0.0
 10
91.5763360357
 20
133.8224101517
 30
0.0
 10
91.4278507669
 20
133.7508801356
 30
0.0
 10
91.2927914758
 20
133.6511460777
 30
0.0
 10
91.1763685458
 20
133.5273344195
 30
0.0
 10
91.0843735281
 20
133.3858179933
 30
0.0
 10
91.0205647773
 20
133.2337660069
 30
0.0
 10
90.9871110014
 20
133.0744330194
 30
0.0
 10
90.9853826642
 20
132.9107648305
 30
0.0
 10
91.013700667
 20
132.7459122055
 30
0.0
 10
91.0715752093
 20
132.5860589063
 30
0.0
 10
91.1569115755
 20
132.4391919667
 30
0.0
 10
91.2661370203
 20
132.3122499485
 30
0.0
 10
91.3973660403
 20
132.2103500872
 30
0.0
 10
91.5462885947
 20
132.1352075605
 30
0.0
 10
91.707834862
 20
132.0875739719
 30
0.0
 10
91.8759005988
 20
132.0690979647
 30
0.0
 10
91.98863336
 20
132.0771456277
 30
0.0
 10
92.0438893441
 20
132.0864427914
 30
0.0
  0
SPLINE
  5
462
100
AcDbEntity
  8
0
100
AcDbSpline
 62
7
  6
BYLAYER
 70
0
 71
3
 72
10
 73
6
 74
0
 42
0.0000001
 43
0.0000001
 44
0.0000000001
 40
0.0
 40
0.0
 40
0.0
 40
0.0
 40
0.3105012166
 40
0.644673626
 40
1.0
 40
1.0
 40
1.0
 40
1.0
 10
92.9272276426
 20
132.8334019517
 30
0.0
 10
92.970696358
 20
132.7601963324
 30
0.0
 10
93.0411965493
 20
132.5957752484
 30
0.0
 10
93.0870957385
 20
132.3231866437
 30
0.0
 10
93.075526475
 20
132.1325593589
 30
0.0
 10
93.0591165995
 20
132.0365216327
 30
0.0
  0
SPLINE
  5
463
100
AcDbEntity
  8
0
100
AcDbSpline
 62
7
  6
BYLAYER
 70
0
 71
3
 72
17
 73
13
 74
0
 42
0.0000001
 43
0.0000001
 44
0.0000000001
 40
0.0
 40
0.0
 40
0.0
 40
0.0
 40
0.1007000436
 40
0.2007833838
 40
0.3014905141
 40
0.4012802233
 40
0.5012577222
 40
0.6013848434
 40
0.7013136647
 40
0.8007860993
 40
0.9003692772
 40
1.0
 40
1.0
 40
1.0
 40
1.0
 10
90.386573195
 20
132.9717207181
 30
0.0
 10
90.3865342667
 20
133.1292250607
 30
0.0
 10
90.43655756
 20
133.4456021144
 30
0.0
 10
90.6556473222
 20
133.8716465812
 30
0.0
 10
90.9948215457
 20
134.2085369349
 30
0.0
 10
91.4213856866
 20
134.4237672809
 30
0.0
 10
91.8926619215
 20
134.4959185635
 30
0.0
 10
92.3637288473
 20
134.4201626699
 30
0.0
 10
92.786793975
 20
134.2014210923
 30
0.0
 10
93.1221729506
 20
133.8646271576
 30
0.0
 10
93.3367509401
 20
133.4412257665
 30
0.0
 10
93.3858587472
 20
133.127549464
 30
0.0
 10
93.3862410167
 20
132.9717181038
 30
0.0
  0
SPLINE
  5
464
100
AcDbEntity
  8
0
100
AcDbSpline
 62
7
  6
BYLAYER
 70
0
 71
3
 72
17
 73
13
 74
0
 42
0.0000001
 43
0.0000001
 44
0.0000000001
 40
0.0
 40
0.0
 40
0.0
 40
0.0
 40
0.1013640629
 40
0.2023232995
 40
0.3025434892
 40
0.4031387072
 40
0.5031921671
 40
0.602953284
 40
0.7029987061
 40
0.8023200546
 40
0.9019004883
 40
1.0
 40
1.0
 40
1.0
 40
1.0
 10
93.3862410167
 20
132.9717181038
 30
0.0
 10
93.3866299334
 20
132.813177009
 30
0.0
 10
93.3349529825
 20
132.4944039815
 30
0.0
 10
93.1139902612
 20
132.0675295664
 30
0.0
 10
92.772401126
 20
131.7302546648
 30
0.0
 10
92.3438157922
 20
131.5176563056
 30
0.0
 10
91.8714641968
 20
131.4466153301
 30
0.0
 10
91.401401085
 20
131.5266464093
 30
0.0
 10
90.9796215883
 20
131.7462096189
 30
0.0
 10
90.6462833636
 20
132.0851550399
 30
0.0
 10
90.4351981639
 20
132.5070627027
 30
0.0
 10
90.3862859769
 20
132.8182417146
 30
0.0
 10
90.3864359018
 20
132.9716771918
 30
0.0
  0
SPLINE
  5
465
100
AcDbEntity
  8
0
100
AcDbSpline
 62
7
  6
BYLAYER
 70
0
 71
3
 72
69
 73
65
 74
0
 42
0.0000001
 43
0.0000001
 44
0.0000000001
 40
0.0
 40
0.0
 40
0.0
 40
0.0
 40
0.0163002302
 40
0.0326947059
 40
0.0490442167
 40
0.0651711118
 40
0.0811030045
 40
0.097210611
 40
0.1137428918
 40
0.130325223
 40
0.1466002466
 40
0.1624759098
 40
0.1782382914
 40
0.1943406953
 40
0.2109484556
 40
0.2274251279
 40
0.2436085248
 40
0.2594763406
 40
0.2754773269
 40
0.2918717939
 40
0.308507045
 40
0.3247069834
 40
0.3405706188
 40
0.3561982724
 40
0.3720394445
 40
0.3882406671
 40
0.4048800154
 40
0.4212549945
 40
0.4372045907
 40
0.4530519705
 40
0.4692333775
 40
0.4856533828
 40
0.5022070669
 40
0.5183743857
 40
0.5342669453
 40
0.5502750764
 40
0.5666690148
 40
0.5831103283
 40
0.5995027091
 40
0.6155182797
 40
0.6314644797
 40
0.6476664078
 40
0.6642380186
 40
0.6806489041
 40
0.6968020042
 40
0.7126239475
 40
0.7285788908
 40
0.7449680326
 40
0.7616180613
 40
0.7778048294
 40
0.7936069527
 40
0.8091782537
 40
0.8249977581
 40
0.8412620944
 40
0.8579605979
 40
0.8742731726
 40
0.8901463321
 40
0.9058833839
 40
0.9219669194
 40
0.9384921385
 40
0.9551445606
 40
0.971182588
 40
0.9862213545
 40
1.0
 40
1.0
 40
1.0
 40
1.0
 10
92.2766645883
 20
133.7821848549
 30
0.0
 10
92.2259791887
 20
133.8060091539
 30
0.0
 10
92.1193196642
 20
133.8436292293
 30
0.0
 10
91.9522873174
 20
133.8713528578
 30
0.0
 10
91.7834672613
 20
133.8688381796
 30
0.0
 10
91.6193752172
 20
133.836339883
 30
0.0
 10
91.4652355264
 20
133.7731212024
 30
0.0
 10
91.3256730531
 20
133.6797308552
 30
0.0
 10
91.2040919578
 20
133.5608556506
 30
0.0
 10
91.1052862191
 20
133.4217758448
 30
0.0
 10
91.033649952
 20
133.2694521015
 30
0.0
 10
90.9915894567
 20
133.1092442285
 30
0.0
 10
90.9821243525
 20
132.9444071826
 30
0.0
 10
91.0046762461
 20
132.7784311258
 30
0.0
 10
91.057541417
 20
132.6169470421
 30
0.0
 10
91.1383492281
 20
132.4671822825
 30
0.0
 10
91.2430370258
 20
132.3362153375
 30
0.0
 10
91.3693806651
 20
132.2282646125
 30
0.0
 10
91.5154492405
 20
132.1475324006
 30
0.0
 10
91.6763286124
 20
132.0945266962
 30
0.0
 10
91.8447721153
 20
132.071093105
 30
0.0
 10
92.0128299793
 20
132.0777091012
 30
0.0
 10
92.1737075082
 20
132.1135663714
 30
0.0
 10
92.3235579308
 20
132.1794167322
 30
0.0
 10
92.4587704636
 20
132.273531719
 30
0.0
 10
92.5773934662
 20
132.3926770101
 30
0.0
 10
92.6741917876
 20
132.5324479074
 30
0.0
 10
92.7440352327
 20
132.6865129282
 30
0.0
 10
92.7834620164
 20
132.8483555623
 30
0.0
 10
92.789611725
 20
133.014162786
 30
0.0
 10
92.7642960035
 20
133.179627143
 30
0.0
 10
92.7091270083
 20
133.3401926247
 30
0.0
 10
92.6264424599
 20
133.4884444147
 30
0.0
 10
92.5194939623
 20
133.6180031058
 30
0.0
 10
92.3909492273
 20
133.7234431202
 30
0.0
 10
92.2433699852
 20
133.801528894
 30
0.0
 10
92.0823284132
 20
133.8518561356
 30
0.0
 10
91.9136196446
 20
133.873023321
 30
0.0
 10
91.7451151162
 20
133.8640191658
 30
0.0
 10
91.5826346484
 20
133.8246706091
 30
0.0
 10
91.4318193108
 20
133.7539016488
 30
0.0
 10
91.2960040395
 20
133.6544037578
 30
0.0
 10
91.1792986591
 20
133.5309266431
 30
0.0
 10
91.0863803801
 20
133.3889128038
 30
0.0
 10
91.0212465471
 20
133.2349473547
 30
0.0
 10
90.9865476857
 20
133.0728659598
 30
0.0
 10
90.984987988
 20
132.906323193
 30
0.0
 10
91.0147635209
 20
132.7397041222
 30
0.0
 10
91.0741717434
 20
132.5803643243
 30
0.0
 10
91.1597372717
 20
132.4358099587
 30
0.0
 10
91.2673826863
 20
132.3115987755
 30
0.0
 10
91.3960362773
 20
132.2112019194
 30
0.0
 10
91.5429328749
 20
132.1367471659
 30
0.0
 10
91.7044131006
 20
132.0886778235
 30
0.0
 10
91.8735937719
 20
132.0697915648
 30
0.0
 10
92.0420671196
 20
132.081424618
 30
0.0
 10
92.2024196797
 20
132.123196935
 30
0.0
 10
92.3505260175
 20
132.1957506154
 30
0.0
 10
92.4841614569
 20
132.2959402182
 30
0.0
 10
92.599925368
 20
132.4206553108
 30
0.0
 10
92.691559255
 20
132.5638569517
 30
0.0
 10
92.7540245658
 20
132.7165306772
 30
0.0
 10
92.7847473747
 20
132.8684251683
 30
0.0
 10
92.7871215205
 20
132.967947941
 30
0.0
 10
92.7842807995
 20
133.0152042257
 30
0.0
  0
SPLINE
  5
466
100
AcDbEntity
  8
0
100
AcDbSpline
 62
7
  6
BYLAYER
 70
0
 71
3
 72
53
 73
49
 74
0
 42
0.0000001
 43
0.0000001
 44
0.0000000001
 40
0.0
 40
0.0
 40
0.0
 40
0.0
 40
0.0217161355
 40
0.0434070835
 40
0.0651319632
 40
0.0865371026
 40
0.1083863263
 40
0.1302410951
 40
0.152262977
 40
0.1741469825
 40
0.1955545588
 40
0.2170143097
 40
0.2389200451
 40
0.2609801787
 40
0.2828250892
 40
0.3045462272
 40
0.3261654225
 40
0.3477840922
 40
0.3694306672
 40
0.391285817
 40
0.4131088205
 40
0.4348944368
 40
0.4566415114
 40
0.478326149
 40
0.4999727861
 40
0.521625588
 40
0.5433225031
 40
0.5650819258
 40
0.5869212392
 40
0.6087927302
 40
0.6306852383
 40
0.652401264
 40
0.6741518748
 40
0.6960387588
 40
0.7178543671
 40
0.7395525013
 40
0.76133752
 40
0.7830766289
 40
0.8046632761
 40
0.8263684727
 40
0.8483134173
 40
0.8701395897
 40
0.8918893513
 40
0.9135814733
 40
0.9349839089
 40
0.9567529865
 40
0.9783131051
 40
1.0
 40
1.0
 40
1.0
 40
1.0
 10
91.0093732595
 20
133.171855026
 30
0.0
 10
90.9849163937
 20
133.0641397751
 30
0.0
 10
90.974995661
 20
132.8375918791
 30
0.0
 10
91.0857205578
 20
132.5174204696
 30
0.0
 10
91.3033297207
 20
132.2597183092
 30
0.0
 10
91.5993836588
 20
132.0968073671
 30
0.0
 10
91.9354316112
 20
132.0521058124
 30
0.0
 10
92.267688794
 20
132.1333752704
 30
0.0
 10
92.5478375039
 20
132.3303467922
 30
0.0
 10
92.7348078476
 20
132.6144305137
 30
0.0
 10
92.8059058979
 20
132.9435082394
 30
0.0
 10
92.7552383752
 20
133.2765443513
 30
0.0
 10
92.5853595004
 20
133.5718636495
 30
0.0
 10
92.3174326872
 20
133.7855524412
 30
0.0
 10
91.9911631967
 20
133.886626075
 30
0.0
 10
91.6527306282
 20
133.8623298242
 30
0.0
 10
91.347342995
 20
133.7175872208
 30
0.0
 10
91.1144512635
 20
133.4732768872
 30
0.0
 10
90.9849056959
 20
133.1601115153
 30
0.0
 10
90.9782289954
 20
132.8201142101
 30
0.0
 10
91.0954152505
 20
132.5002344016
 30
0.0
 10
91.3204372806
 20
132.2450445766
 30
0.0
 10
91.6223442969
 20
132.0898878215
 30
0.0
 10
91.9589966019
 20
132.054109399
 30
0.0
 10
92.2855854731
 20
132.1418901518
 30
0.0
 10
92.5580543372
 20
132.3423182646
 30
0.0
 10
92.740271844
 20
132.627845264
 30
0.0
 10
92.8074384262
 20
132.9610025741
 30
0.0
 10
92.7480515838
 20
133.2966582019
 30
0.0
 10
92.5703498848
 20
133.5881918457
 30
0.0
 10
92.299362114
 20
133.795031566
 30
0.0
 10
91.9722386032
 20
133.888426567
 30
0.0
 10
91.6336402908
 20
133.8569998636
 30
0.0
 10
91.3287632953
 20
133.7048506826
 30
0.0
 10
91.1006989453
 20
133.4520208131
 30
0.0
 10
90.9803206702
 20
133.1343065787
 30
0.0
 10
90.9826626774
 20
132.7948837473
 30
0.0
 10
91.1079493386
 20
132.4799627995
 30
0.0
 10
91.338378215
 20
132.232269819
 30
0.0
 10
91.6434143258
 20
132.0834093703
 30
0.0
 10
91.9832627156
 20
132.0555947638
 30
0.0
 10
92.3097688637
 20
132.154151308
 30
0.0
 10
92.5773355887
 20
132.3632870322
 30
0.0
 10
92.7501395078
 20
132.6531984818
 30
0.0
 10
92.8065624535
 20
132.9857629329
 30
0.0
 10
92.7400486863
 20
133.3159992797
 30
0.0
 10
92.558648268
 20
133.6012759736
 30
0.0
 10
92.3759895715
 20
133.7342218362
 30
0.0
 10
92.2766577393
 20
133.7821912687
 30
0.0
  0
SPLINE
  5
467
100
AcDbEntity
  8
0
100
AcDbSpline
 62
7
  6
BYLAYER
 70
0
 71
3
 72
17
 73
13
 74
0
 42
0.0000001
 43
0.0000001
 44
0.0000000001
 40
0.0
 40
0.0
 40
0.0
 40
0.0
 40
0.0994425719
 40
0.1987834208
 40
0.2987906069
 40
0.398154554
 40
0.4972811909
 40
0.596991962
 40
0.6972888269
 40
0.7982054709
 40
0.8993558182
 40
1.0
 40
1.0
 40
1.0
 40
1.0
 10
93.3863102439
 20
132.9717303986
 30
0.0
 10
93.3861211579
 20
132.8161811693
 30
0.0
 10
93.3374855706
 20
132.5029905536
 30
0.0
 10
93.1224467022
 20
132.0797766114
 30
0.0
 10
92.7882300295
 20
131.7421733074
 30
0.0
 10
92.3662300327
 20
131.5250745896
 30
0.0
 10
91.8986688307
 20
131.447189427
 30
0.0
 10
91.4282006326
 20
131.5175270973
 30
0.0
 10
90.9999912575
 20
131.7309562112
 30
0.0
 10
90.656980204
 20
132.0683109575
 30
0.0
 10
90.4374125745
 20
132.4964777564
 30
0.0
 10
90.3863090398
 20
132.8142515063
 30
0.0
 10
90.3863901444
 20
132.9716804032
 30
0.0
  0
SPLINE
  5
468
100
AcDbEntity
  8
0
100
AcDbSpline
 62
7
  6
BYLAYER
 70
0
 71
3
 72
89
 73
85
 74
0
 42
0.0000001
 43
0.0000001
 44
0.0000000001
 40
0.0
 40
0.0
 40
0.0
 40
0.0
 40
0.0218134077
 40
0.0433592898
 40
0.0649051637
 40
0.0867110968
 40
0.108689011
 40
0.1304462007
 40
0.1521268722
 40
0.1739382496
 40
0.1956095366
 40
0.2171425571
 40
0.2388439202
 40
0.260457464
 40
0.2819613354
 40
0.3033999927
 40
0.3247516064
 40
0.3462712156
 40
0.3679209961
 40
0.3896146346
 40
0.4111753629
 40
0.4327402957
 40
0.4543072984
 40
0.4758007541
 40
0.4972641381
 40
0.5187340292
 40
0.5402453365
 40
0.5618036262
 40
0.5834033783
 40
0.6050455947
 40
0.6266711135
 40
0.6482691507
 40
0.6697916049
 40
0.6914154152
 40
0.7131339627
 40
0.7347080929
 40
0.7563341635
 40
0.7779608804
 40
0.7990625523
 40
0.8184211565
 40
0.8355986456
 40
0.8510098
 40
0.8646264208
 40
0.8766916066
 40
0.8875011994
 40
0.8972998682
 40
0.9061631075
 40
0.9141945646
 40
0.9215121988
 40
0.9282868075
 40
0.9345328967
 40
0.9402658855
 40
0.9454561318
 40
0.9501667946
 40
0.954482369
 40
0.9584418952
 40
0.9620567228
 40
0.9653591702
 40
0.9683788719
 40
0.9711389976
 40
0.9736656408
 40
0.9759799618
 40
0.9781036273
 40
0.9800530412
 40
0.981839664
 40
0.9834756789
 40
0.9849733159
 40
0.9863448518
 40
0.9876026126
 40
0.988758971
 40
0.9898263442
 40
0.9908171608
 40
0.9917438473
 40
0.9926188698
 40
0.9934547257
 40
0.9942639339
 40
0.9950591044
 40
0.9958537371
 40
0.9966608048
 40
0.9974557826
 40
0.9981864265
 40
0.9988758353
 40
0.9994566086
 40
1.0
 40
1.0
 40
1.0
 40
1.0
 10
92.2766690803
 20
133.7821848519
 30
0.0
 10
92.3766685871
 20
133.7338924234
 30
0.0
 10
92.5598650408
 20
133.6001955267
 30
0.0
 10
92.7403501956
 20
133.3146606445
 30
0.0
 10
92.8068147112
 20
132.9834202895
 30
0.0
 10
92.7489497375
 20
132.6479881276
 30
0.0
 10
92.5713836166
 20
132.3560980051
 30
0.0
 10
92.300459677
 20
132.1495288268
 30
0.0
 10
91.9740504635
 20
132.0549305669
 30
0.0
 10
91.6358736522
 20
132.0856339605
 30
0.0
 10
91.332778896
 20
132.2365089327
 30
0.0
 10
91.1044708435
 20
132.4856399636
 30
0.0
 10
90.9817822771
 20
132.8004268956
 30
0.0
 10
90.9813143044
 20
133.1379419033
 30
0.0
 10
91.1012518694
 20
133.4518803884
 30
0.0
 10
91.3250001882
 20
133.7008993522
 30
0.0
 10
91.6230487458
 20
133.8531751534
 30
0.0
 10
91.956957256
 20
133.8894752251
 30
0.0
 10
92.2834739541
 20
133.8025492036
 30
0.0
 10
92.5562296086
 20
133.6028075498
 30
0.0
 10
92.738721862
 20
133.3189834948
 30
0.0
 10
92.8068926211
 20
132.9890221075
 30
0.0
 10
92.7511367709
 20
132.6571220581
 30
0.0
 10
92.5805769414
 20
132.3678118576
 30
0.0
 10
92.3182137196
 20
132.1587924301
 30
0.0
 10
91.9980476319
 20
132.0583100959
 30
0.0
 10
91.6627532995
 20
132.0791400233
 30
0.0
 10
91.3563606231
 20
132.2188843534
 30
0.0
 10
91.1208034081
 20
132.4606026979
 30
0.0
 10
90.9881100999
 20
132.7712236854
 30
0.0
 10
90.9760365956
 20
133.1087889109
 30
0.0
 10
91.0865137996
 20
133.4274336157
 30
0.0
 10
91.3045166706
 20
133.6844977031
 30
0.0
 10
91.6006148515
 20
133.8469874161
 30
0.0
 10
91.9359657695
 20
133.8910448982
 30
0.0
 10
92.2643252263
 20
133.8108475544
 30
0.0
 10
92.5416025279
 20
133.6183124328
 30
0.0
 10
92.7293599596
 20
133.3406109769
 30
0.0
 10
92.8025440645
 20
133.0260102704
 30
0.0
 10
92.7682336472
 20
132.7291593037
 30
0.0
 10
92.6569478347
 20
132.4851198455
 30
0.0
 10
92.5031652329
 20
132.3035257131
 30
0.0
 10
92.3310529385
 20
132.1813041216
 30
0.0
 10
92.1589008535
 20
132.1081610764
 30
0.0
 10
91.9951841296
 20
132.0737522333
 30
0.0
 10
91.8445236737
 20
132.0691514599
 30
0.0
 10
91.7092194768
 20
132.0863448608
 30
0.0
 10
91.5900066486
 20
132.1191518199
 30
0.0
 10
91.4859952283
 20
132.1631368064
 30
0.0
 10
91.3960359207
 20
132.2148706392
 30
0.0
 10
91.3188904015
 20
132.2714172503
 30
0.0
 10
91.2538859969
 20
132.3300598352
 30
0.0
 10
91.1999340633
 20
132.3887086882
 30
0.0
 10
91.1553543477
 20
132.445814032
 30
0.0
 10
91.1186757235
 20
132.5008878089
 30
0.0
 10
91.0888095848
 20
132.5535909179
 30
0.0
 10
91.0646261468
 20
132.6034412861
 30
0.0
 10
91.0452397495
 20
132.6501962006
 30
0.0
 10
91.0298551105
 20
132.6938207326
 30
0.0
 10
91.0178047581
 20
132.7343716494
 30
0.0
 10
91.0084785509
 20
132.7719398344
 30
0.0
 10
91.00136908
 20
132.8066853982
 30
0.0
 10
90.9960600236
 20
132.8387738828
 30
0.0
 10
90.9922201106
 20
132.8683625216
 30
0.0
 10
90.9895783085
 20
132.8955875317
 30
0.0
 10
90.9878908169
 20
132.9205825017
 30
0.0
 10
90.9869586358
 20
132.9435014901
 30
0.0
 10
90.9866173764
 20
132.964510412
 30
0.0
 10
90.9867343577
 20
132.9837838949
 30
0.0
 10
90.9872041393
 20
133.0015027191
 30
0.0
 10
90.9879456855
 20
133.0178517273
 30
0.0
 10
90.9888960468
 20
133.0330183661
 30
0.0
 10
90.9900100143
 20
133.0471916667
 30
0.0
 10
90.9912594039
 20
133.0605614382
 30
0.0
 10
90.9926296114
 20
133.0733179527
 30
0.0
 10
90.9941203576
 20
133.0856515117
 30
0.0
 10
90.9957362722
 20
133.097757553
 30
0.0
 10
90.9975342058
 20
133.1098274275
 30
0.0
 10
90.999569978
 20
133.1218577789
 30
0.0
 10
91.0015924099
 20
133.133560571
 30
0.0
 10
91.0033128522
 20
133.1447035245
 30
0.0
 10
91.0060913124
 20
133.1545705606
 30
0.0
 10
91.0073580313
 20
133.1635977598
 30
0.0
 10
91.0079245762
 20
133.1695964931
 30
0.0
 10
91.0094249945
 20
133.1719205916
 30
0.0
  0
SPLINE
  5
469
100
AcDbEntity
  8
0
100
AcDbSpline
 62
7
  6
BYLAYER
 70
0
 71
3
 72
21
 73
17
 74
0
 42
0.0000001
 43
0.0000001
 44
0.0000000001
 40
0.0
 40
0.0
 40
0.0
 40
0.0
 40
0.0416255476
 40
0.0881321831
 40
0.1399355714
 40
0.193621532
 40
0.250939606
 40
0.3123176177
 40
0.3772337083
 40
0.4466187833
 40
0.5214061176
 40
0.6022307115
 40
0.6897816212
 40
0.7847891043
 40
0.8879564457
 40
1.0
 40
1.0
 40
1.0
 40
1.0
 10
90.4241082179
 20
133.3055222025
 30
0.0
 10
90.4235587552
 20
133.3008831909
 30
0.0
 10
90.4210052442
 20
133.2912836043
 30
0.0
 10
90.4174807045
 20
133.2759932941
 30
0.0
 10
90.4144659417
 20
133.2591953161
 30
0.0
 10
90.4108833838
 20
133.2412804559
 30
0.0
 10
90.4074868688
 20
133.2222332433
 30
0.0
 10
90.4042094757
 20
133.201889172
 30
0.0
 10
90.4010027435
 20
133.180163692
 30
0.0
 10
90.397910377
 20
133.1569024431
 30
0.0
 10
90.3949836696
 20
133.1318210827
 30
0.0
 10
90.3922983986
 20
133.1046629561
 30
0.0
 10
90.3899501691
 20
133.0751962973
 30
0.0
 10
90.3880510086
 20
133.0431843831
 30
0.0
 10
90.3867652826
 20
133.0083912749
 30
0.0
 10
90.3864175223
 20
132.9842383737
 30
0.0
 10
90.3864222958
 20
132.971664256
 30
0.0
  0
SPLINE
  5
46A
100
AcDbEntity
  8
0
100
AcDbSpline
 62
7
  6
BYLAYER
 70
0
 71
3
 72
13
 73
9
 74
0
 42
0.0000001
 43
0.0000001
 44
0.0000000001
 40
0.0
 40
0.0
 40
0.0
 40
0.0
 40
0.1732653116
 40
0.3520446029
 40
0.5226499461
 40
0.6960662421
 40
0.8771435378
 40
1.0
 40
1.0
 40
1.0
 40
1.0
 10
92.4798085659
 20
132.295252093
 30
0.0
 10
92.5556289811
 20
132.363217658
 30
0.0
 10
92.6859012947
 20
132.5294173856
 30
0.0
 10
92.7921219678
 20
132.8237576816
 30
0.0
 10
92.7884172473
 20
133.1378476479
 30
0.0
 10
92.6753708805
 20
133.4309837867
 30
0.0
 10
92.4942417031
 20
133.6523485353
 30
0.0
 10
92.3420780868
 20
133.7507169682
 30
0.0
 10
92.2766544878
 20
133.7821487221
 30
0.0
  0
SPLINE
  5
46B
100
AcDbEntity
  8
0
100
AcDbSpline
 62
7
  6
BYLAYER
 70
0
 71
3
 72
51
 73
47
 74
0
 42
0.0000001
 43
0.0000001
 44
0.0000000001
 40
0.0
 40
0.0
 40
0.0
 40
0.0
 40
0.0226538398
 40
0.0456786632
 40
0.0678134486
 40
0.0907386203
 40
0.1150902783
 40
0.1381315603
 40
0.1617350166
 40
0.1842625781
 40
0.2064431866
 40
0.2295673087
 40
0.2518848847
 40
0.2744648547
 40
0.2976087758
 40
0.3200040172
 40
0.3432310304
 40
0.3656797359
 40
0.387723649
 40
0.4107256546
 40
0.4332854642
 40
0.4551969594
 40
0.4778982584
 40
0.5005210358
 40
0.5231615329
 40
0.5463273027
 40
0.5685559363
 40
0.5908324765
 40
0.613751731
 40
0.635947495
 40
0.6581868014
 40
0.6812033882
 40
0.7037509643
 40
0.7271491627
 40
0.7497073983
 40
0.7718447114
 40
0.7949902391
 40
0.8173495735
 40
0.839861037
 40
0.8630691207
 40
0.8852008482
 40
0.9088255306
 40
0.9319614219
 40
0.9545935755
 40
0.9773457438
 40
1.0
 40
1.0
 40
1.0
 40
1.0
 10
91.0097475404
 20
133.1717663956
 30
0.0
 10
91.0352589073
 20
133.2789078944
 30
0.0
 10
91.1280424402
 20
133.4865381637
 30
0.0
 10
91.361997577
 20
133.7293680513
 30
0.0
 10
91.6729910406
 20
133.8652678691
 30
0.0
 10
92.0168532057
 20
133.8795277379
 30
0.0
 10
92.3512725304
 20
133.7712374778
 30
0.0
 10
92.6133220287
 20
133.5328320788
 30
0.0
 10
92.7684273157
 20
133.2264860718
 30
0.0
 10
92.8045540301
 20
132.8878337291
 30
0.0
 10
92.7069333235
 20
132.5649434902
 30
0.0
 10
92.5078974558
 20
132.2947996382
 30
0.0
 10
92.2212474766
 20
132.1133667958
 30
0.0
 10
91.8880147528
 20
132.0560665147
 30
0.0
 10
91.5544067613
 20
132.1130190307
 30
0.0
 10
91.2630633617
 20
132.2941600623
 30
0.0
 10
91.0645434378
 20
132.5680250801
 30
0.0
 10
90.9689772343
 20
132.8906106337
 30
0.0
 10
91.0034519995
 20
133.2252537465
 30
0.0
 10
91.1556321531
 20
133.5241033785
 30
0.0
 10
91.3998686549
 20
133.7546137488
 30
0.0
 10
91.7130572815
 20
133.8720777628
 30
0.0
 10
92.046177309
 20
133.8743314008
 30
0.0
 10
92.3652389604
 20
133.760499809
 30
0.0
 10
92.6148415427
 20
133.5282956387
 30
0.0
 10
92.7681337286
 20
133.2276482669
 30
0.0
 10
92.8044321507
 20
132.8922871594
 30
0.0
 10
92.70941172
 20
132.5708839764
 30
0.0
 10
92.5136909645
 20
132.299756411
 30
0.0
 10
92.2310736186
 20
132.1182156164
 30
0.0
 10
91.9020198069
 20
132.0566547111
 30
0.0
 10
91.5688778646
 20
132.1071083864
 30
0.0
 10
91.273952306
 20
132.2844808884
 30
0.0
 10
91.069749605
 20
132.5567922023
 30
0.0
 10
90.9693938486
 20
132.8801417718
 30
0.0
 10
91.00141719
 20
133.2167481147
 30
0.0
 10
91.150292744
 20
133.5174769532
 30
0.0
 10
91.3945279753
 20
133.7519368501
 30
0.0
 10
91.7117789062
 20
133.8722040823
 30
0.0
 10
92.0483233252
 20
133.8747594398
 30
0.0
 10
92.3711279065
 20
133.7572853444
 30
0.0
 10
92.6205075097
 20
133.5206938797
 30
0.0
 10
92.7736403913
 20
133.2123845455
 30
0.0
 10
92.8025395667
 20
132.8716433154
 30
0.0
 10
92.6996943279
 20
132.5495977691
 30
0.0
 10
92.5622623065
 20
132.3700772693
 30
0.0
 10
92.4802501434
 20
132.2965614097
 30
0.0
  0
SPLINE
  5
46C
100
AcDbEntity
  8
0
100
AcDbSpline
 62
7
  6
BYLAYER
 70
0
 71
3
 72
17
 73
13
 74
0
 42
0.0000001
 43
0.0000001
 44
0.0000000001
 40
0.0
 40
0.0
 40
0.0
 40
0.0
 40
0.0901569792
 40
0.1811877122
 40
0.2759581322
 40
0.3717338468
 40
0.4681872777
 40
0.5683905923
 40
0.6733277574
 40
0.7789163867
 40
0.888756213
 40
1.0
 40
1.0
 40
1.0
 40
1.0
 10
92.8780771953
 20
132.9717428768
 30
0.0
 10
92.8899253438
 20
133.0807327268
 30
0.0
 10
92.8764502849
 20
133.3053894304
 30
0.0
 10
92.7486830823
 20
133.6216167033
 30
0.0
 10
92.5223913471
 20
133.8866948799
 30
0.0
 10
92.2188382756
 20
134.0704780186
 30
0.0
 10
91.8671228419
 20
134.1532440041
 30
0.0
 10
91.4955719386
 20
134.1234916567
 30
0.0
 10
91.1408523258
 20
133.9756135342
 30
0.0
 10
90.8406026784
 20
133.7175252039
 30
0.0
 10
90.6302919921
 20
133.3730123835
 30
0.0
 10
90.5667946284
 20
133.1064943806
 30
0.0
 10
90.5558649417
 20
132.9716628796
 30
0.0
  0
SPLINE
  5
46D
100
AcDbEntity
  8
0
100
AcDbSpline
 62
7
  6
BYLAYER
 70
0
 71
3
 72
10
 73
6
 74
0
 42
0.0000001
 43
0.0000001
 44
0.0000000001
 40
0.0
 40
0.0
 40
0.0
 40
0.0
 40
0.3326833109
 40
0.6751140034
 40
1.0
 40
1.0
 40
1.0
 40
1.0
 10
92.8780771953
 20
132.9717428768
 30
0.0
 10
92.868424881
 20
132.8829522708
 30
0.0
 10
92.8236933485
 20
132.7044881157
 30
0.0
 10
92.6862774917
 20
132.46967632
 30
0.0
 10
92.5528882135
 20
132.345673156
 30
0.0
 10
92.4810222119
 20
132.2962497076
 30
0.0
  0
SPLINE
  5
46E
100
AcDbEntity
  8
0
100
AcDbSpline
 62
7
  6
BYLAYER
 70
0
 71
3
 72
12
 73
8
 74
0
 42
0.0000001
 43
0.0000001
 44
0.0000000001
 40
0.0
 40
0.0
 40
0.0
 40
0.0
 40
0.2066635157
 40
0.407916191
 40
0.609544873
 40
0.8096798835
 40
1.0
 40
1.0
 40
1.0
 40
1.0
 10
91.8864447639
 20
131.4717665571
 30
0.0
 10
91.7338871663
 20
131.4827378439
 30
0.0
 10
91.4339299822
 20
131.5513533617
 30
0.0
 10
91.0403105428
 20
131.7856679505
 30
0.0
 10
90.74089677
 20
132.1269561177
 30
0.0
 10
90.5675548705
 20
132.5375224257
 30
0.0
 10
90.5444842402
 20
132.8312675456
 30
0.0
 10
90.5558649412
 20
132.9716628796
 30
0.0
  0
SPLINE
  5
46F
100
AcDbEntity
  8
0
100
AcDbSpline
 62
7
  6
BYLAYER
 70
0
 71
3
 72
14
 73
10
 74
0
 42
0.0000001
 43
0.0000001
 44
0.0000000001
 40
0.0
 40
0.0
 40
0.0
 40
0.0
 40
0.1297715586
 40
0.2709835936
 40
0.4089699744
 40
0.5509482271
 40
0.6965741198
 40
0.8422648305
 40
1.0
 40
1.0
 40
1.0
 40
1.0
 10
91.2932336858
 20
132.2949335642
 30
0.0
 10
91.3610525222
 20
132.2230708119
 30
0.0
 10
91.528773436
 20
132.0956619259
 30
0.0
 10
91.8310097799
 20
131.9982081907
 30
0.0
 10
92.1573484662
 20
132.0062580252
 30
0.0
 10
92.4671612181
 20
132.1195497985
 30
0.0
 10
92.7286250439
 20
132.3304872401
 30
0.0
 10
92.916394817
 20
132.6227090755
 30
0.0
 10
92.9733737369
 20
132.8520111859
 30
0.0
 10
92.9826791768
 20
132.9717535044
 30
0.0
  0
SPLINE
  5
470
100
AcDbEntity
  8
0
100
AcDbSpline
 62
7
  6
BYLAYER
 70
0
 71
3
 72
17
 73
13
 74
0
 42
0.0000001
 43
0.0000001
 44
0.0000000001
 40
0.0
 40
0.0
 40
0.0
 40
0.0
 40
0.0913850493
 40
0.1834456742
 40
0.2766815586
 40
0.3709448463
 40
0.4673397558
 40
0.5701944162
 40
0.6768899891
 40
0.783472471
 40
0.8924076154
 40
1.0
 40
1.0
 40
1.0
 40
1.0
 10
92.9826791768
 20
132.9717535044
 30
0.0
 10
92.991789257
 20
133.088981935
 30
0.0
 10
92.9715977427
 20
133.3289360738
 30
0.0
 10
92.8303227925
 20
133.6618721328
 30
0.0
 10
92.590644214
 20
133.9379577702
 30
0.0
 10
92.2738288066
 20
134.1311420102
 30
0.0
 10
91.9010459534
 20
134.2218192863
 30
0.0
 10
91.5016915486
 20
134.1916861899
 30
0.0
 10
91.1202388637
 20
134.0305469254
 30
0.0
 10
90.8039205993
 20
133.7517253008
 30
0.0
 10
90.590146335
 20
133.3871492681
 30
0.0
 10
90.5297110081
 20
133.1098251434
 30
0.0
 10
90.5210401093
 20
132.9716616817
 30
0.0
  0
SPLINE
  5
471
100
AcDbEntity
  8
0
100
AcDbSpline
 62
7
  6
BYLAYER
 70
0
 71
3
 72
12
 73
8
 74
0
 42
0.0000001
 43
0.0000001
 44
0.0000000001
 40
0.0
 40
0.0
 40
0.0
 40
0.0
 40
0.1978409211
 40
0.3970680044
 40
0.5950686252
 40
0.7932664019
 40
1.0
 40
1.0
 40
1.0
 40
1.0
 10
90.5210401112
 20
132.9716616817
 30
0.0
 10
90.5117664261
 20
132.8238933293
 30
0.0
 10
90.5420372081
 20
132.5220454578
 30
0.0
 10
90.7282813575
 20
132.1094776412
 30
0.0
 10
91.0331706989
 20
131.7744474951
 30
0.0
 10
91.4299453835
 20
131.5456843124
 30
0.0
 10
91.7319847723
 20
131.4806304858
 30
0.0
 10
91.8864447639
 20
131.4717665571
 30
0.0
  0
SPLINE
  5
472
100
AcDbEntity
  8
0
100
AcDbSpline
 62
7
  6
BYLAYER
 70
0
 71
3
 72
16
 73
12
 74
0
 42
0.0000001
 43
0.0000001
 44
0.0000000001
 40
0.0
 40
0.0
 40
0.0
 40
0.0
 40
0.1121745457
 40
0.2239422632
 40
0.3346846861
 40
0.4467141794
 40
0.5579552637
 40
0.6687097586
 40
0.780435094
 40
0.8911514443
 40
1.0
 40
1.0
 40
1.0
 40
1.0
 10
93.3863200115
 20
132.9717530991
 30
0.0
 10
93.3865889976
 20
133.134643201
 30
0.0
 10
93.3319309493
 20
133.4622529973
 30
0.0
 10
93.0994632826
 20
133.8983568661
 30
0.0
 10
92.739653849
 20
134.2375856349
 30
0.0
 10
92.2909561536
 20
134.4432897638
 30
0.0
 10
91.8000959418
 20
134.4962765686
 30
0.0
 10
91.3189745491
 20
134.3882600973
 30
0.0
 10
90.8969038292
 20
134.1345111694
 30
0.0
 10
90.5806690744
 20
133.761083402
 30
0.0
 10
90.4595243505
 20
133.4594659262
 30
0.0
 10
90.4240507381
 20
133.3054374303
 30
0.0
  0
SPLINE
  5
473
100
AcDbEntity
  8
0
100
AcDbSpline
 62
7
  6
BYLAYER
 70
0
 71
3
 72
10
 73
6
 74
0
 42
0.0000001
 43
0.0000001
 44
0.0000000001
 40
0.0
 40
0.0
 40
0.0
 40
0.0
 40
0.3389942557
 40
0.6481870182
 40
1.0
 40
1.0
 40
1.0
 40
1.0
 10
107.2698190871
 20
161.5623454186
 30
0.0
 10
107.2716152173
 20
161.5622448315
 30
0.0
 10
107.2750297312
 20
161.5616982398
 30
0.0
 10
107.2803534802
 20
161.5620762857
 30
0.0
 10
107.2838379985
 20
161.5615474194
 30
0.0
 10
107.2857019377
 20
161.5614410843
 30
0.0
  0
SPLINE
  5
474
100
AcDbEntity
  8
0
100
AcDbSpline
 62
7
  6
BYLAYER
 70
0
 71
3
 72
10
 73
6
 74
0
 42
0.0000001
 43
0.0000001
 44
0.0000000001
 40
0.0
 40
0.0
 40
0.0
 40
0.0
 40
0.3405377184
 40
0.674414659
 40
1.0
 40
1.0
 40
1.0
 40
1.0
 10
106.4858864154
 20
161.5614959078
 30
0.0
 10
106.4874799195
 20
161.5615868743
 30
0.0
 10
106.4906174059
 20
161.5620905011
 30
0.0
 10
106.4953222453
 20
161.5617126769
 30
0.0
 10
106.498389147
 20
161.5622151279
 30
0.0
 10
106.4999127626
 20
161.5623007003
 30
0.0
  0
LINE
  5
475
100
AcDbEntity
  8
0
100
AcDbLine
 62
7
  6
BYLAYER
 10
106.4999127626
 20
161.5623007003
 11
106.5060476134
 21
161.8984754749
  0
SPLINE
  5
476
100
AcDbEntity
  8
0
100
AcDbSpline
 62
7
  6
BYLAYER
 70
0
 71
3
 72
10
 73
6
 74
0
 42
0.0000001
 43
0.0000001
 44
0.0000000001
 40
0.0
 40
0.0
 40
0.0
 40
0.0
 40
0.3267533352
 40
0.6565837517
 40
1.0
 40
1.0
 40
1.0
 40
1.0
 10
106.3704536656
 20
161.4873471909
 30
0.0
 10
106.3802618693
 20
161.4860303728
 30
0.0
 10
106.3999807517
 20
161.4834721572
 30
0.0
 10
106.4299796892
 20
161.4792498754
 30
0.0
 10
106.4503259044
 20
161.4777191562
 30
0.0
 10
106.4606485069
 20
161.476445624
 30
0.0
  0
SPLINE
  5
477
100
AcDbEntity
  8
0
100
AcDbSpline
 62
7
  6
BYLAYER
 70
0
 71
3
 72
10
 73
6
 74
0
 42
0.0000001
 43
0.0000001
 44
0.0000000001
 40
0.0
 40
0.0
 40
0.0
 40
0.0
 40
0.3267030062
 40
0.6563478421
 40
1.0
 40
1.0
 40
1.0
 40
1.0
 10
106.3705750868
 20
160.4567629975
 30
0.0
 10
106.3718896863
 20
160.4665557036
 30
0.0
 10
106.3744399451
 20
160.4862396464
 30
0.0
 10
106.3786749837
 20
160.5161939482
 30
0.0
 10
106.3801453604
 20
160.5365185289
 30
0.0
 10
106.3814180388
 20
160.5468334591
 30
0.0
  0
SPLINE
  5
478
100
AcDbEntity
  8
0
100
AcDbSpline
 62
7
  6
BYLAYER
 70
0
 71
3
 72
10
 73
6
 74
0
 42
0.0000001
 43
0.0000001
 44
0.0000000001
 40
0.0
 40
0.0
 40
0.0
 40
0.0
 40
0.3446509864
 40
0.6776667979
 40
1.0
 40
1.0
 40
1.0
 40
1.0
 10
106.1979541155
 20
160.4450004613
 30
0.0
 10
106.1539617519
 20
160.3924165645
 30
0.0
 10
106.0688423289
 20
160.2878583398
 30
0.0
 10
105.9480635722
 20
160.1297452859
 30
0.0
 10
105.8732056803
 20
160.0229634384
 30
0.0
 10
105.8374092967
 20
159.9697659087
 30
0.0
  0
SPLINE
  5
479
100
AcDbEntity
  8
0
100
AcDbSpline
 62
7
  6
BYLAYER
 70
0
 71
3
 72
10
 73
6
 74
0
 42
0.0000001
 43
0.0000001
 44
0.0000000001
 40
0.0
 40
0.0
 40
0.0
 40
0.0
 40
0.3223329819
 40
0.655325912
 40
1.0
 40
1.0
 40
1.0
 40
1.0
 10
105.8835996604
 20
159.9235774337
 30
0.0
 10
105.9367955723
 20
159.9593758892
 30
0.0
 10
106.0435689526
 20
160.03423729
 30
0.0
 10
106.2016794656
 20
160.1550186094
 30
0.0
 10
106.3062326932
 20
160.2401438316
 30
0.0
 10
106.3588181987
 20
160.2841411978
 30
0.0
  0
SPLINE
  5
47A
100
AcDbEntity
  8
0
100
AcDbSpline
 62
7
  6
BYLAYER
 70
0
 71
3
 72
10
 73
6
 74
0
 42
0.0000001
 43
0.0000001
 44
0.0000000001
 40
0.0
 40
0.0
 40
0.0
 40
0.0
 40
0.3439142301
 40
0.6734225364
 40
1.0
 40
1.0
 40
1.0
 40
1.0
 10
106.460690491
 20
160.4675765208
 30
0.0
 10
106.4503629704
 20
160.4663020025
 30
0.0
 10
106.4300200659
 20
160.4648820257
 30
0.0
 10
106.4000538308
 20
160.4606260437
 30
0.0
 10
106.3803684808
 20
160.4580781581
 30
0.0
 10
106.3705750868
 20
160.4567629975
 30
0.0
  0
SPLINE
  5
47B
100
AcDbEntity
  8
0
100
AcDbSpline
 62
7
  6
BYLAYER
 70
0
 71
3
 72
10
 73
6
 74
0
 42
0.0000001
 43
0.0000001
 44
0.0000000001
 40
0.0
 40
0.0
 40
0.0
 40
0.0
 40
0.338994268
 40
0.6481870417
 40
1.0
 40
1.0
 40
1.0
 40
1.0
 10
106.5017933763
 20
160.3816852921
 30
0.0
 10
106.499997246
 20
160.3817858792
 30
0.0
 10
106.4965827317
 20
160.3823324658
 30
0.0
 10
106.4912589831
 20
160.3819544219
 30
0.0
 10
106.4877744649
 20
160.3824832878
 30
0.0
 10
106.485910526
 20
160.3825896229
 30
0.0
  0
SPLINE
  5
47C
100
AcDbEntity
  8
0
100
AcDbSpline
 62
7
  6
BYLAYER
 70
0
 71
3
 72
10
 73
6
 74
0
 42
0.0000001
 43
0.0000001
 44
0.0000000001
 40
0.0
 40
0.0
 40
0.0
 40
0.0
 40
0.3516064148
 40
0.6644021674
 40
1.0
 40
1.0
 40
1.0
 40
1.0
 10
107.2857260412
 20
160.3826727596
 30
0.0
 10
107.2836448888
 20
160.3825539401
 30
0.0
 10
107.2797322286
 20
160.3819577706
 30
0.0
 10
107.2737843676
 20
160.3823842001
 30
0.0
 10
107.2699681388
 20
160.3817784235
 30
0.0
 10
107.2679816098
 20
160.3816673349
 30
0.0
  0
SPLINE
  5
47D
100
AcDbEntity
  8
0
100
AcDbSpline
 62
7
  6
BYLAYER
 70
0
 71
3
 72
10
 73
6
 74
0
 42
0.0000001
 43
0.0000001
 44
0.0000000001
 40
0.0
 40
0.0
 40
0.0
 40
0.0
 40
0.3268063494
 40
0.6562879426
 40
1.0
 40
1.0
 40
1.0
 40
1.0
 10
107.4009643557
 20
160.4568779495
 30
0.0
 10
107.3911843698
 20
160.4581910077
 30
0.0
 10
107.3715333549
 20
160.460731105
 30
0.0
 10
107.3416300869
 20
160.464985619
 30
0.0
 10
107.3213353942
 20
160.4663938766
 30
0.0
 10
107.3110353173
 20
160.4676648492
 30
0.0
  0
SPLINE
  5
47E
100
AcDbEntity
  8
0
100
AcDbSpline
 62
7
  6
BYLAYER
 70
0
 71
3
 72
10
 73
6
 74
0
 42
0.0000001
 43
0.0000001
 44
0.0000000001
 40
0.0
 40
0.0
 40
0.0
 40
0.0
 40
0.3446528815
 40
0.677667913
 40
1.0
 40
1.0
 40
1.0
 40
1.0
 10
107.412748676
 20
160.2842237518
 30
0.0
 10
107.4653406551
 20
160.2402235672
 30
0.0
 10
107.56991519
 20
160.1550900585
 30
0.0
 10
107.7280518613
 20
160.034290406
 30
0.0
 10
107.8348499199
 20
159.9594203384
 30
0.0
 10
107.888055677
 20
159.9236184187
 30
0.0
  0
SPLINE
  5
47F
100
AcDbEntity
  8
0
100
AcDbSpline
 62
7
  6
BYLAYER
 70
0
 71
3
 72
10
 73
6
 74
0
 42
0.0000001
 43
0.0000001
 44
0.0000000001
 40
0.0
 40
0.0
 40
0.0
 40
0.0
 40
0.3223405912
 40
0.6553291009
 40
1.0
 40
1.0
 40
1.0
 40
1.0
 10
107.9342441535
 20
159.9698087842
 30
0.0
 10
107.8984390571
 20
160.0230145643
 30
0.0
 10
107.8235661371
 20
160.1298064661
 30
0.0
 10
107.702761705
 20
160.2879399036
 30
0.0
 10
107.6176227314
 20
160.3925081006
 30
0.0
 10
107.5736180081
 20
160.4451010965
 30
0.0
  0
SPLINE
  5
480
100
AcDbEntity
  8
0
100
AcDbSpline
 62
7
  6
BYLAYER
 70
0
 71
3
 72
10
 73
6
 74
0
 42
0.0000001
 43
0.0000001
 44
0.0000000001
 40
0.0
 40
0.0
 40
0.0
 40
0.0
 40
0.3436784113
 40
0.6731579911
 40
1.0
 40
1.0
 40
1.0
 40
1.0
 10
107.390174711
 20
160.5468076328
 30
0.0
 10
107.3914459918
 20
160.5365085048
 30
0.0
 10
107.3928540258
 20
160.5162146283
 30
0.0
 10
107.3971100434
 20
160.4863112299
 30
0.0
 10
107.3996508882
 20
160.4666590743
 30
0.0
 10
107.4009643557
 20
160.4568779495
 30
0.0
  0
SPLINE
  5
481
100
AcDbEntity
  8
0
100
AcDbSpline
 62
7
  6
BYLAYER
 70
0
 71
3
 72
10
 73
6
 74
0
 42
0.0000001
 43
0.0000001
 44
0.0000000001
 40
0.0
 40
0.0
 40
0.0
 40
0.0
 40
0.3267030062
 40
0.656347842
 40
1.0
 40
1.0
 40
1.0
 40
1.0
 10
107.4010373769
 20
161.4872677096
 30
0.0
 10
107.3997227774
 20
161.4774750036
 30
0.0
 10
107.3971725185
 20
161.4577910608
 30
0.0
 10
107.39293748
 20
161.427836759
 30
0.0
 10
107.3914671033
 20
161.4075121783
 30
0.0
 10
107.3901944249
 20
161.397197248
 30
0.0
  0
SPLINE
  5
482
100
AcDbEntity
  8
0
100
AcDbSpline
 62
7
  6
BYLAYER
 70
0
 71
3
 72
10
 73
6
 74
0
 42
0.0000001
 43
0.0000001
 44
0.0000000001
 40
0.0
 40
0.0
 40
0.0
 40
0.0
 40
0.3446509919
 40
0.6776667987
 40
1.0
 40
1.0
 40
1.0
 40
1.0
 10
107.5736583476
 20
161.4990302436
 30
0.0
 10
107.617650712
 20
161.5516141414
 30
0.0
 10
107.7027701327
 20
161.6561723688
 30
0.0
 10
107.8235488933
 20
161.8142854206
 30
0.0
 10
107.8984067833
 20
161.9210672687
 30
0.0
 10
107.9342031669
 20
161.9742647984
 30
0.0
  0
SPLINE
  5
483
100
AcDbEntity
  8
0
100
AcDbSpline
 62
7
  6
BYLAYER
 70
0
 71
3
 72
10
 73
6
 74
0
 42
0.0000001
 43
0.0000001
 44
0.0000000001
 40
0.0
 40
0.0
 40
0.0
 40
0.0
 40
0.3223354782
 40
0.6553284975
 40
1.0
 40
1.0
 40
1.0
 40
1.0
 10
107.8880128033
 20
162.0204532734
 30
0.0
 10
107.8348165385
 20
161.9846545804
 30
0.0
 10
107.7280429389
 20
161.9097928631
 30
0.0
 10
107.5699322644
 20
161.7890120879
 30
0.0
 10
107.4653805243
 20
161.7038860616
 30
0.0
 10
107.4127954679
 20
161.6598890787
 30
0.0
  0
SPLINE
  5
484
100
AcDbEntity
  8
0
100
AcDbSpline
 62
7
  6
BYLAYER
 70
0
 71
3
 72
10
 73
6
 74
0
 42
0.0000001
 43
0.0000001
 44
0.0000000001
 40
0.0
 40
0.0
 40
0.0
 40
0.0
 40
0.339555665
 40
0.6588159137
 40
1.0
 40
1.0
 40
1.0
 40
1.0
 10
107.2712810159
 20
161.4764478547
 30
0.0
 10
107.2757533849
 20
161.4763698848
 30
0.0
 10
107.2844320667
 20
161.476319294
 30
0.0
 10
107.2976018542
 20
161.4759068623
 30
0.0
 10
107.3063036148
 20
161.4761687262
 30
0.0
 10
107.3107974308
 20
161.4760903081
 30
0.0
  0
SPLINE
  5
485
100
AcDbEntity
  8
0
100
AcDbSpline
 62
7
  6
BYLAYER
 70
0
 71
3
 72
10
 73
6
 74
0
 42
0.0000001
 43
0.0000001
 44
0.0000000001
 40
0.0
 40
0.0
 40
0.0
 40
0.0
 40
0.3433399599
 40
0.6731828032
 40
1.0
 40
1.0
 40
1.0
 40
1.0
 10
107.3110374993
 20
161.4763750493
 30
0.0
 10
107.3213355918
 20
161.4776462845
 30
0.0
 10
107.341634825
 20
161.4791879303
 30
0.0
 10
107.3715696026
 20
161.483398648
 30
0.0
 10
107.3912483343
 20
161.4859531334
 30
0.0
 10
107.4010373769
 20
161.4872677096
 30
0.0
  0
SPLINE
  5
486
100
AcDbEntity
  8
0
100
AcDbSpline
 62
7
  6
BYLAYER
 70
0
 71
3
 72
10
 73
6
 74
0
 42
0.0000001
 43
0.0000001
 44
0.0000000001
 40
0.0
 40
0.0
 40
0.0
 40
0.0
 40
0.3354562363
 40
0.6663089792
 40
1.0
 40
1.0
 40
1.0
 40
1.0
 10
107.3910481286
 20
161.3578100237
 30
0.0
 10
107.3909714333
 20
161.3621901933
 30
0.0
 10
107.3896953999
 20
161.370835329
 30
0.0
 10
107.3897889013
 20
161.3839146
 30
0.0
 10
107.3899730314
 20
161.3925892505
 30
0.0
 10
107.389896814
 20
161.3969463723
 30
0.0
  0
SPLINE
  5
487
100
AcDbEntity
  8
0
100
AcDbSpline
 62
7
  6
BYLAYER
 70
0
 71
3
 72
10
 73
6
 74
0
 42
0.0000001
 43
0.0000001
 44
0.0000000001
 40
0.0
 40
0.0
 40
0.0
 40
0.0
 40
0.3216644285
 40
0.6777787562
 40
1.0
 40
1.0
 40
1.0
 40
1.0
 10
107.389896814
 20
161.3969463723
 30
0.0
 10
107.3821495514
 20
161.4061368572
 30
0.0
 10
107.366062381
 20
161.4257173109
 30
0.0
 10
107.3395049538
 20
161.4521232967
 30
0.0
 10
107.3200031646
 20
161.4683288516
 30
0.0
 10
107.3107974308
 20
161.4760903081
 30
0.0
  0
SPLINE
  5
488
100
AcDbEntity
  8
0
100
AcDbSpline
 62
7
  6
BYLAYER
 70
0
 71
3
 72
10
 73
6
 74
0
 42
0.0000001
 43
0.0000001
 44
0.0000000001
 40
0.0
 40
0.0
 40
0.0
 40
0.0
 40
0.3337744053
 40
0.6701307087
 40
1.0
 40
1.0
 40
1.0
 40
1.0
 10
107.2711163431
 20
161.5070794459
 30
0.0
 10
107.2339994859
 20
161.5338080202
 30
0.0
 10
107.154060361
 20
161.580600047
 30
0.0
 10
107.0225413925
 20
161.6225144489
 30
0.0
 10
106.9309968303
 20
161.6320162778
 30
0.0
 10
106.8857927364
 20
161.6320153534
 30
0.0
  0
SPLINE
  5
489
100
AcDbEntity
  8
0
100
AcDbSpline
 62
7
  6
BYLAYER
 70
0
 71
3
 72
10
 73
6
 74
0
 42
0.0000001
 43
0.0000001
 44
0.0000000001
 40
0.0
 40
0.0
 40
0.0
 40
0.0
 40
0.3309604537
 40
0.6650141565
 40
1.0
 40
1.0
 40
1.0
 40
1.0
 10
106.8858197273
 20
160.3120153537
 30
0.0
 10
106.9309047135
 20
160.3120162756
 30
0.0
 10
107.0217394624
 20
160.3214266605
 30
0.0
 10
107.1525391098
 20
160.3628266969
 30
0.0
 10
107.2319990563
 20
160.409051021
 30
0.0
 10
107.2691273796
 20
160.4355819401
 30
0.0
  0
SPLINE
  5
48A
100
AcDbEntity
  8
0
100
AcDbSpline
 62
7
  6
BYLAYER
 70
0
 71
3
 72
10
 73
6
 74
0
 42
0.0000001
 43
0.0000001
 44
0.0000000001
 40
0.0
 40
0.0
 40
0.0
 40
0.0
 40
0.3358234032
 40
0.6484930609
 40
1.0
 40
1.0
 40
1.0
 40
1.0
 10
107.2697686595
 20
160.4667200007
 30
0.0
 10
107.2743639898
 20
160.4668004747
 30
0.0
 10
107.2831735204
 20
160.4682107733
 30
0.0
 10
107.2968825819
 20
160.4680691618
 30
0.0
 10
107.3059675011
 20
160.4678865632
 30
0.0
 10
107.3107774428
 20
160.4679707059
 30
0.0
  0
SPLINE
  5
48B
100
AcDbEntity
  8
0
100
AcDbSpline
 62
7
  6
BYLAYER
 70
0
 71
3
 72
10
 73
6
 74
0
 42
0.0000001
 43
0.0000001
 44
0.0000000001
 40
0.0
 40
0.0
 40
0.0
 40
0.0
 40
0.3375819476
 40
0.6568964007
 40
1.0
 40
1.0
 40
1.0
 40
1.0
 10
107.3898687558
 20
160.5470655682
 30
0.0
 10
107.3899506471
 20
160.5517577799
 30
0.0
 10
107.389617018
 20
160.5608911041
 30
0.0
 10
107.3900963719
 20
160.5747889179
 30
0.0
 10
107.3900740604
 20
160.5839983605
 30
0.0
 10
107.3901571956
 20
160.5887673219
 30
0.0
  0
SPLINE
  5
48C
100
AcDbEntity
  8
0
100
AcDbSpline
 62
7
  6
BYLAYER
 70
0
 71
3
 72
11
 73
7
 74
0
 42
0.0000001
 43
0.0000001
 44
0.0000000001
 40
0.0
 40
0.0
 40
0.0
 40
0.0
 40
0.2509759932
 40
0.4996118116
 40
0.7475291409
 40
1.0
 40
1.0
 40
1.0
 40
1.0
 10
107.4222529714
 20
160.5887142942
 30
0.0
 10
107.4620335982
 20
160.6443890362
 30
0.0
 10
107.5251041593
 20
160.7680975852
 30
0.0
 10
107.556246288
 20
160.9727784835
 30
0.0
 10
107.5245419226
 20
161.1777525539
 30
0.0
 10
107.461039804
 20
161.3015255848
 30
0.0
 10
107.420808671
 20
161.3573787248
 30
0.0
  0
SPLINE
  5
48D
100
AcDbEntity
  8
0
100
AcDbSpline
 62
7
  6
BYLAYER
 70
0
 71
3
 72
10
 73
6
 74
0
 42
0.0000001
 43
0.0000001
 44
0.0000000001
 40
0.0
 40
0.0
 40
0.0
 40
0.0
 40
0.3364882637
 40
0.6659214149
 40
1.0
 40
1.0
 40
1.0
 40
1.0
 10
106.4977564773
 20
161.477301353
 30
0.0
 10
106.4936167427
 20
161.4772288708
 30
0.0
 10
106.485481795
 20
161.4759549054
 30
0.0
 10
106.4731561994
 20
161.4760650037
 30
0.0
 10
106.4649960696
 20
161.4762357659
 30
0.0
 10
106.4608859795
 20
161.4761638735
 30
0.0
  0
SPLINE
  5
48E
100
AcDbEntity
  8
0
100
AcDbSpline
 62
7
  6
BYLAYER
 70
0
 71
3
 72
10
 73
6
 74
0
 42
0.0000001
 43
0.0000001
 44
0.0000000001
 40
0.0
 40
0.0
 40
0.0
 40
0.0
 40
0.3222122554
 40
0.6772147359
 40
1.0
 40
1.0
 40
1.0
 40
1.0
 10
106.4608859795
 20
161.4761638735
 30
0.0
 10
106.4516625571
 20
161.4683899362
 30
0.0
 10
106.4321041016
 20
161.4522384961
 30
0.0
 10
106.4056328696
 20
161.425653629
 30
0.0
 10
106.3894128466
 20
161.4061291505
 30
0.0
 10
106.381625875
 20
161.3968886592
 30
0.0
  0
SPLINE
  5
48F
100
AcDbEntity
  8
0
100
AcDbSpline
 62
7
  6
BYLAYER
 70
0
 71
3
 72
11
 73
7
 74
0
 42
0.0000001
 43
0.0000001
 44
0.0000000001
 40
0.0
 40
0.0
 40
0.0
 40
0.0
 40
0.2509199916
 40
0.4996486227
 40
0.7477727764
 40
1.0
 40
1.0
 40
1.0
 40
1.0
 10
106.3521876186
 20
161.3593702379
 30
0.0
 10
106.3117591157
 20
161.3036760862
 30
0.0
 10
106.2475688152
 20
161.1795619609
 30
0.0
 10
106.2152216112
 20
160.9737159623
 30
0.0
 10
106.2465853408
 20
160.767364634
 30
0.0
 10
106.3103712507
 20
160.642784925
 30
0.0
 10
106.3508042831
 20
160.5866515947
 30
0.0
  0
SPLINE
  5
490
100
AcDbEntity
  8
0
100
AcDbSpline
 62
7
  6
BYLAYER
 70
0
 71
3
 72
10
 73
6
 74
0
 42
0.0000001
 43
0.0000001
 44
0.0000000001
 40
0.0
 40
0.0
 40
0.0
 40
0.0
 40
0.3280467195
 40
0.658760344
 40
1.0
 40
1.0
 40
1.0
 40
1.0
 10
106.3805643351
 20
160.5862206834
 30
0.0
 10
106.3806393375
 20
160.5819371968
 30
0.0
 10
106.381916092
 20
160.5733914559
 30
0.0
 10
106.3818300873
 20
160.5603113634
 30
0.0
 10
106.3816377069
 20
160.5515400902
 30
0.0
 10
106.3817156496
 20
160.5470843348
 30
0.0
  0
SPLINE
  5
491
100
AcDbEntity
  8
0
100
AcDbSpline
 62
7
  6
BYLAYER
 70
0
 71
3
 72
10
 73
6
 74
0
 42
0.0000001
 43
0.0000001
 44
0.0000000001
 40
0.0
 40
0.0
 40
0.0
 40
0.0
 40
0.3216364905
 40
0.6777741906
 40
1.0
 40
1.0
 40
1.0
 40
1.0
 10
106.3817156496
 20
160.5470843348
 30
0.0
 10
106.3894718355
 20
160.5378832644
 30
0.0
 10
106.4055836287
 20
160.5182837815
 30
0.0
 10
106.4321610404
 20
160.4918293758
 30
0.0
 10
106.4517281085
 20
160.4756501475
 30
0.0
 10
106.4609470177
 20
160.4678809133
 30
0.0
  0
SPLINE
  5
492
100
AcDbEntity
  8
0
100
AcDbSpline
 62
7
  6
BYLAYER
 70
0
 71
3
 72
10
 73
6
 74
0
 42
0.0000001
 43
0.0000001
 44
0.0000000001
 40
0.0
 40
0.0
 40
0.0
 40
0.0
 40
0.3459164157
 40
0.6560192299
 40
1.0
 40
1.0
 40
1.0
 40
1.0
 10
106.4609470177
 20
160.4678809133
 30
0.0
 10
106.4651846244
 20
160.467806955
 30
0.0
 10
106.4732034902
 20
160.4680524852
 30
0.0
 10
106.4855324494
 20
160.4684030695
 30
0.0
 10
106.493336753
 20
160.4661045219
 30
0.0
 10
106.4973026991
 20
160.4646784837
 30
0.0
  0
SPLINE
  5
493
100
AcDbEntity
  8
0
100
AcDbSpline
 62
7
  6
BYLAYER
 70
0
 71
3
 72
10
 73
6
 74
0
 42
0.0000001
 43
0.0000001
 44
0.0000000001
 40
0.0
 40
0.0
 40
0.0
 40
0.0
 40
0.333765173
 40
0.6702249693
 40
1.0
 40
1.0
 40
1.0
 40
1.0
 10
106.5004752635
 20
160.4369847294
 30
0.0
 10
106.5375927549
 20
160.4102525794
 30
0.0
 10
106.6175369812
 20
160.3634277764
 30
0.0
 10
106.7490722748
 20
160.3215165873
 30
0.0
 10
106.8406247273
 20
160.3120144296
 30
0.0
 10
106.8858197273
 20
160.3120153537
 30
0.0
  0
SPLINE
  5
494
100
AcDbEntity
  8
0
100
AcDbSpline
 62
7
  6
BYLAYER
 70
0
 71
3
 72
10
 73
6
 74
0
 42
0.0000001
 43
0.0000001
 44
0.0000000001
 40
0.0
 40
0.0
 40
0.0
 40
0.0
 40
0.331236427
 40
0.6652230876
 40
1.0
 40
1.0
 40
1.0
 40
1.0
 10
106.8857927364
 20
161.6320153534
 30
0.0
 10
106.8401243917
 20
161.6320144196
 30
0.0
 10
106.7481507962
 20
161.6223687748
 30
0.0
 10
106.6159320049
 20
161.5799131575
 30
0.0
 10
106.5357738345
 20
161.532720804
 30
0.0
 10
106.4984227601
 20
161.505604059
 30
0.0
  0
SPLINE
  5
495
100
AcDbEntity
  8
0
100
AcDbSpline
 62
7
  6
BYLAYER
 70
0
 71
3
 72
10
 73
6
 74
0
 42
0.0000001
 43
0.0000001
 44
0.0000000001
 40
0.0
 40
0.0
 40
0.0
 40
0.0
 40
0.3267993998
 40
0.6566348307
 40
1.0
 40
1.0
 40
1.0
 40
1.0
 10
106.3704536656
 20
161.4873471909
 30
0.0
 10
106.3717712358
 20
161.4775352983
 30
0.0
 10
106.3743415045
 20
161.4578116746
 30
0.0
 10
106.3785406698
 20
161.427802369
 30
0.0
 10
106.3800668238
 20
161.4074523623
 30
0.0
 10
106.3813408189
 20
161.3971288762
 30
0.0
  0
SPLINE
  5
496
100
AcDbEntity
  8
0
100
AcDbSpline
 62
7
  6
BYLAYER
 70
0
 71
3
 72
10
 73
6
 74
0
 42
0.0000001
 43
0.0000001
 44
0.0000000001
 40
0.0
 40
0.0
 40
0.0
 40
0.0
 40
0.3380183642
 40
0.6510395098
 40
1.0
 40
1.0
 40
1.0
 40
1.0
 10
106.3803533511
 20
161.3600016753
 30
0.0
 10
106.3804260709
 20
161.3641636049
 30
0.0
 10
106.3818943117
 20
161.3721039208
 30
0.0
 10
106.3817187774
 20
161.3844460041
 30
0.0
 10
106.3815508923
 20
161.3925920006
 30
0.0
 10
106.381625875
 20
161.3968886592
 30
0.0
  0
SPLINE
  5
497
100
AcDbEntity
  8
0
100
AcDbSpline
 62
7
  6
BYLAYER
 70
0
 71
3
 72
10
 73
6
 74
0
 42
0.0000001
 43
0.0000001
 44
0.0000000001
 40
0.0
 40
0.0
 40
0.0
 40
0.0
 40
0.3223344528
 40
0.6553246694
 40
1.0
 40
1.0
 40
1.0
 40
1.0
 10
105.8373683104
 20
161.9742219231
 30
0.0
 10
105.8731608355
 20
161.9210348236
 30
0.0
 10
105.9480074683
 20
161.8142784969
 30
0.0
 10
106.068768903
 20
161.656195383
 30
0.0
 10
106.1538780328
 20
161.551659063
 30
0.0
 10
106.1978673845
 20
161.499081747
 30
0.0
  0
SPLINE
  5
498
100
AcDbEntity
  8
0
100
AcDbSpline
 62
7
  6
BYLAYER
 70
0
 71
3
 72
10
 73
6
 74
0
 42
0.0000001
 43
0.0000001
 44
0.0000000001
 40
0.0
 40
0.0
 40
0.0
 40
0.0
 40
0.3446569308
 40
0.6776736291
 40
1.0
 40
1.0
 40
1.0
 40
1.0
 10
106.3587115838
 20
161.6599341551
 30
0.0
 10
106.3061353549
 20
161.7039189115
 30
0.0
 10
106.2015927273
 20
161.7890224313
 30
0.0
 10
106.0435064429
 20
161.9097790939
 30
0.0
 10
105.9367439207
 20
161.9846228997
 30
0.0
 10
105.8835567865
 20
162.0204122882
 30
0.0
  0
SPLINE
  5
499
100
AcDbEntity
  8
0
100
AcDbSpline
 62
7
  6
BYLAYER
 70
0
 71
3
 72
10
 73
6
 74
0
 42
0.0000001
 43
0.0000001
 44
0.0000000001
 40
0.0
 40
0.0
 40
0.0
 40
0.0
 40
0.3235883999
 40
0.6793231464
 40
1.0
 40
1.0
 40
1.0
 40
1.0
 10
107.390174711
 20
160.5468076328
 30
0.0
 10
107.382382476
 20
160.5375647204
 30
0.0
 10
107.3657877148
 20
160.5183486197
 30
0.0
 10
107.3393715083
 20
160.4918638219
 30
0.0
 10
107.3201947381
 20
160.4753873598
 30
0.0
 10
107.3110353173
 20
160.4676648492
 30
0.0
  0
SPLINE
  5
49A
100
AcDbEntity
  8
0
100
AcDbSpline
 62
7
  6
BYLAYER
 70
0
 71
3
 72
10
 73
6
 74
0
 42
0.0000001
 43
0.0000001
 44
0.0000000001
 40
0.0
 40
0.0
 40
0.0
 40
0.0
 40
0.3334622176
 40
0.6660281004
 40
1.0
 40
1.0
 40
1.0
 40
1.0
 10
107.0433458802
 20
160.0865767071
 30
0.0
 10
107.0650251564
 20
160.0726995135
 30
0.0
 10
107.1092757757
 20
160.0463636105
 30
0.0
 10
107.1794163349
 20
160.0138729193
 30
0.0
 10
107.2277217251
 20
159.9959907944
 30
0.0
 10
107.2522417873
 20
159.9880308306
 30
0.0
  0
SPLINE
  5
49B
100
AcDbEntity
  8
0
100
AcDbSpline
 62
7
  6
BYLAYER
 70
0
 71
3
 72
10
 73
6
 74
0
 42
0.0000001
 43
0.0000001
 44
0.0000000001
 40
0.0
 40
0.0
 40
0.0
 40
0.0
 40
0.3377056801
 40
0.6695763653
 40
1.0
 40
1.0
 40
1.0
 40
1.0
 10
107.9266603587
 20
160.8337070089
 30
0.0
 10
107.91333254
 20
160.8561523471
 30
0.0
 10
107.884840751
 20
160.899429842
 30
0.0
 10
107.8375927513
 20
160.9607619769
 30
0.0
 10
107.8018719185
 20
160.9975543926
 30
0.0
 10
107.783672638
 20
161.0154747583
 30
0.0
  0
SPLINE
  5
49C
100
AcDbEntity
  8
0
100
AcDbSpline
 62
7
  6
BYLAYER
 70
0
 71
3
 72
10
 73
6
 74
0
 42
0.0000001
 43
0.0000001
 44
0.0000000001
 40
0.0
 40
0.0
 40
0.0
 40
0.0
 40
0.3584109174
 40
0.6904282462
 40
1.0
 40
1.0
 40
1.0
 40
1.0
 10
108.0585440576
 20
160.036828343
 30
0.0
 10
107.9676625146
 20
159.9993916594
 30
0.0
 10
107.7841812082
 20
159.9454789855
 30
0.0
 10
107.5081587919
 20
159.9296245442
 30
0.0
 10
107.3329901851
 20
159.961818485
 30
0.0
 10
107.252241874
 20
159.9880318618
 30
0.0
  0
SPLINE
  5
49D
100
AcDbEntity
  8
0
100
AcDbSpline
 62
7
  6
BYLAYER
 70
0
 71
3
 72
21
 73
17
 74
0
 42
0.0000001
 43
0.0000001
 44
0.0000000001
 40
0.0
 40
0.0
 40
0.0
 40
0.0
 40
0.0705477352
 40
0.1430667928
 40
0.2127737763
 40
0.2834381636
 40
0.3569286341
 40
0.4276934255
 40
0.4988323849
 40
0.5704829436
 40
0.6417186326
 40
0.7154658805
 40
0.7864628781
 40
0.8566781612
 40
0.9290566241
 40
1.0
 40
1.0
 40
1.0
 40
1.0
 10
107.0433458802
 20
160.0865767071
 30
0.0
 10
106.9430422056
 20
160.0696999888
 30
0.0
 10
106.7324797493
 20
160.0711950648
 30
0.0
 10
106.4366017841
 20
160.1718232327
 30
0.0
 10
106.1935081146
 20
160.3702786618
 30
0.0
 10
106.0349905649
 20
160.641258565
 30
0.0
 10
105.9683919057
 20
160.9500198543
 30
0.0
 10
106.0154943143
 20
161.2642499392
 30
0.0
 10
106.1692547744
 20
161.5376835508
 30
0.0
 10
106.4004526108
 20
161.7503777957
 30
0.0
 10
106.6963745447
 20
161.8711808307
 30
0.0
 10
107.0141239392
 20
161.8763020401
 30
0.0
 10
107.3151337178
 20
161.78222224
 30
0.0
 10
107.5648050749
 20
161.5901501831
 30
0.0
 10
107.7288599039
 20
161.3227201532
 30
0.0
 10
107.777535111
 20
161.1175744466
 30
0.0
 10
107.783672638
 20
161.0154747583
 30
0.0
  0
SPLINE
  5
49E
100
AcDbEntity
  8
0
100
AcDbSpline
 62
7
  6
BYLAYER
 70
0
 71
3
 72
51
 73
47
 74
0
 42
0.0000001
 43
0.0000001
 44
0.0000000001
 40
0.0
 40
0.0
 40
0.0
 40
0.0
 40
0.0226764776
 40
0.0456366605
 40
0.067852124
 40
0.0907441978
 40
0.1149425296
 40
0.138025955
 40
0.1618936817
 40
0.1845575263
 40
0.2068016549
 40
0.229640019
 40
0.2520644094
 40
0.2750126166
 40
0.2981164414
 40
0.3207107643
 40
0.3442023498
 40
0.366152485
 40
0.3880996753
 40
0.4108508757
 40
0.4333367833
 40
0.4554783498
 40
0.4782266737
 40
0.5007987027
 40
0.5234083462
 40
0.5464999625
 40
0.5689307983
 40
0.5911643226
 40
0.6138189552
 40
0.6359584382
 40
0.6580399429
 40
0.6812760706
 40
0.7038275917
 40
0.7270241853
 40
0.7497096312
 40
0.7719639323
 40
0.7949498377
 40
0.8173595102
 40
0.8399924148
 40
0.863098382
 40
0.885306681
 40
0.9090481717
 40
0.9320360393
 40
0.9545844959
 40
0.9772974243
 40
1.0
 40
1.0
 40
1.0
 40
1.0
 10
107.2759319946
 20
161.7821433058
 30
0.0
 10
107.1761587317
 20
161.8290416085
 30
0.0
 10
106.9561511785
 20
161.8858547088
 30
0.0
 10
106.6202977679
 20
161.854368567
 30
0.0
 10
106.320158909
 20
161.6959682694
 30
0.0
 10
106.0950862543
 20
161.4363330587
 30
0.0
 10
105.9711767899
 20
161.1083038542
 30
0.0
 10
105.993444892
 20
160.7539462137
 30
0.0
 10
106.1373652343
 20
160.4395444408
 30
0.0
 10
106.3822958222
 20
160.199449048
 30
0.0
 10
106.6959272887
 20
160.0763248267
 30
0.0
 10
107.0304879814
 20
160.0646268404
 30
0.0
 10
107.3517828506
 20
160.1767056926
 30
0.0
 10
107.6047817969
 20
160.404620952
 30
0.0
 10
107.7670934797
 20
160.7045676912
 30
0.0
 10
107.8035265685
 20
161.0479626955
 30
0.0
 10
107.7089546698
 20
161.3727018205
 30
0.0
 10
107.5142405072
 20
161.6446648211
 30
0.0
 10
107.2333150546
 20
161.8218704189
 30
0.0
 10
106.9067923538
 20
161.8875634941
 30
0.0
 10
106.5748565229
 20
161.8399196148
 30
0.0
 10
106.2872614046
 20
161.6668338298
 30
0.0
 10
106.0782782394
 20
161.4059495248
 30
0.0
 10
105.9700892708
 20
161.0851318522
 30
0.0
 10
105.9974710835
 20
160.7461491564
 30
0.0
 10
106.1380448652
 20
160.4388818085
 30
0.0
 10
106.3792108839
 20
160.2021711834
 30
0.0
 10
106.6899174306
 20
160.078081551
 30
0.0
 10
107.021985763
 20
160.0631650064
 30
0.0
 10
107.3377752525
 20
160.1703883694
 30
0.0
 10
107.5912436944
 20
160.3888951433
 30
0.0
 10
107.7599687618
 20
160.6811325264
 30
0.0
 10
107.8047281986
 20
161.0224720562
 30
0.0
 10
107.7194356106
 20
161.3514465653
 30
0.0
 10
107.5293394161
 20
161.6319880076
 30
0.0
 10
107.245575779
 20
161.816798959
 30
0.0
 10
106.9176879161
 20
161.8877048999
 30
0.0
 10
106.5819812095
 20
161.8430440554
 30
0.0
 10
106.2899815128
 20
161.6694110346
 30
0.0
 10
106.0782099572
 20
161.4073394468
 30
0.0
 10
105.968988329
 20
161.0811014701
 30
0.0
 10
105.999437775
 20
160.7383845269
 30
0.0
 10
106.1454176929
 20
160.4273816718
 30
0.0
 10
106.3929016412
 20
160.1934367337
 30
0.0
 10
106.7083620314
 20
160.0730211407
 30
0.0
 10
106.9344739691
 20
160.0684360146
 30
0.0
 10
107.0433168067
 20
160.0867495003
 30
0.0
  0
SPLINE
  5
49F
100
AcDbEntity
  8
0
100
AcDbSpline
 62
7
  6
BYLAYER
 70
0
 71
3
 72
10
 73
6
 74
0
 42
0.0000001
 43
0.0000001
 44
0.0000000001
 40
0.0
 40
0.0
 40
0.0
 40
0.0
 40
0.310501105
 40
0.6446735178
 40
1.0
 40
1.0
 40
1.0
 40
1.0
 10
107.9266551106
 20
160.8337086829
 30
0.0
 10
107.9701238516
 20
160.7605031108
 30
0.0
 10
108.0406240323
 20
160.5960820356
 30
0.0
 10
108.086523198
 20
160.3234934283
 30
0.0
 10
108.0749539825
 20
160.1328660945
 30
0.0
 10
108.0585440576
 20
160.036828343
 30
0.0
  0
SPLINE
  5
4A0
100
AcDbEntity
  8
0
100
AcDbSpline
 62
7
  6
BYLAYER
 70
0
 71
3
 72
17
 73
13
 74
0
 42
0.0000001
 43
0.0000001
 44
0.0000000001
 40
0.0
 40
0.0
 40
0.0
 40
0.0
 40
0.1007000439
 40
0.2007833844
 40
0.3014905147
 40
0.4012802239
 40
0.5012577227
 40
0.6013848438
 40
0.701313665
 40
0.8007860995
 40
0.9003692772
 40
1.0
 40
1.0
 40
1.0
 40
1.0
 10
105.3860006574
 20
160.9720274269
 30
0.0
 10
105.3859617293
 20
161.1295317702
 30
0.0
 10
105.4359850228
 20
161.4459088248
 30
0.0
 10
105.6550747863
 20
161.871953292
 30
0.0
 10
105.9942490106
 20
162.2088436454
 30
0.0
 10
106.4208131518
 20
162.4240739907
 30
0.0
 10
106.8920893867
 20
162.4962252724
 30
0.0
 10
107.3631563119
 20
162.4204693781
 30
0.0
 10
107.7862214387
 20
162.2017278003
 30
0.0
 10
108.1216004136
 20
161.8649338658
 30
0.0
 10
108.3361784028
 20
161.4415324751
 30
0.0
 10
108.3852862098
 20
161.1278561729
 30
0.0
 10
108.3856684793
 20
160.9720248127
 30
0.0
  0
SPLINE
  5
4A1
100
AcDbEntity
  8
0
100
AcDbSpline
 62
7
  6
BYLAYER
 70
0
 71
3
 72
17
 73
13
 74
0
 42
0.0000001
 43
0.0000001
 44
0.0000000001
 40
0.0
 40
0.0
 40
0.0
 40
0.0
 40
0.1013640629
 40
0.2023232995
 40
0.3025434892
 40
0.4031387072
 40
0.5031921671
 40
0.602953284
 40
0.7029987061
 40
0.8023200546
 40
0.9019004883
 40
1.0
 40
1.0
 40
1.0
 40
1.0
 10
108.3856684793
 20
160.9720248127
 30
0.0
 10
108.386057396
 20
160.8134837179
 30
0.0
 10
108.3343804451
 20
160.4947106904
 30
0.0
 10
108.1134177238
 20
160.0678362753
 30
0.0
 10
107.7718285886
 20
159.7305613737
 30
0.0
 10
107.3432432548
 20
159.5179630145
 30
0.0
 10
106.8708916594
 20
159.4469220391
 30
0.0
 10
106.4008285476
 20
159.5269531183
 30
0.0
 10
105.9790490508
 20
159.7465163279
 30
0.0
 10
105.6457108262
 20
160.0854617489
 30
0.0
 10
105.4346256265
 20
160.5073694116
 30
0.0
 10
105.3857134395
 20
160.8185484236
 30
0.0
 10
105.3858633644
 20
160.9719839008
 30
0.0
  0
SPLINE
  5
4A2
100
AcDbEntity
  8
0
100
AcDbSpline
 62
7
  6
BYLAYER
 70
0
 71
3
 72
39
 73
35
 74
0
 42
0.0000001
 43
0.0000001
 44
0.0000000001
 40
0.0
 40
0.0
 40
0.0
 40
0.0
 40
0.0322813906
 40
0.0640954699
 40
0.0950966392
 40
0.1279606016
 40
0.1598726249
 40
0.1908631661
 40
0.2229503252
 40
0.2542482312
 40
0.2860382792
 40
0.3188133091
 40
0.350742009
 40
0.3822367189
 40
0.4147477507
 40
0.4456690348
 40
0.4773929835
 40
0.5099549952
 40
0.5415847767
 40
0.5739085481
 40
0.6057611364
 40
0.6374889893
 40
0.6697609279
 40
0.7011940855
 40
0.7321183496
 40
0.7647365021
 40
0.7979713455
 40
0.8305552144
 40
0.8627595653
 40
0.8935991363
 40
0.9240369308
 40
0.9527313678
 40
0.9779963404
 40
1.0
 40
1.0
 40
1.0
 40
1.0
 10
107.2760920509
 20
161.7824915639
 30
0.0
 10
107.1761155658
 20
161.8294848176
 30
0.0
 10
106.9583851269
 20
161.8850507493
 30
0.0
 10
106.6274708746
 20
161.855405302
 30
0.0
 10
106.3286744064
 20
161.7027775585
 30
0.0
 10
106.1065576388
 20
161.4524699611
 30
0.0
 10
105.9804110357
 20
161.1419402602
 30
0.0
 10
105.9828598575
 20
160.808902121
 30
0.0
 10
106.1005121092
 20
160.5014583498
 30
0.0
 10
106.3160504375
 20
160.2473991709
 30
0.0
 10
106.6159524824
 20
160.0952928448
 30
0.0
 10
106.9505504078
 20
160.0570027068
 30
0.0
 10
107.278247322
 20
160.1377095526
 30
0.0
 10
107.547447863
 20
160.3386757559
 30
0.0
 10
107.7309811115
 20
160.6145213106
 30
0.0
 10
107.8062510897
 20
160.9394538011
 30
0.0
 10
107.752070486
 20
161.26815825
 30
0.0
 10
107.5910380495
 20
161.5619385973
 30
0.0
 10
107.3304677856
 20
161.7785237722
 30
0.0
 10
107.0106676281
 20
161.8785313311
 30
0.0
 10
106.675835738
 20
161.868108447
 30
0.0
 10
106.3679245884
 20
161.7320679722
 30
0.0
 10
106.1345168862
 20
161.4941398758
 30
0.0
 10
105.9927767726
 20
161.1952426284
 30
0.0
 10
105.9741050153
 20
160.8627587798
 30
0.0
 10
106.0767415708
 20
160.5409022321
 30
0.0
 10
106.2883056761
 20
160.2676355245
 30
0.0
 10
106.590890617
 20
160.1034259734
 30
0.0
 10
106.9210507171
 20
160.056488161
 30
0.0
 10
107.2415914952
 20
160.1230091525
 30
0.0
 10
107.5028941709
 20
160.2985486393
 30
0.0
 10
107.6825222916
 20
160.5302752527
 30
0.0
 10
107.7763334662
 20
160.7767047637
 30
0.0
 10
107.7882265459
 20
160.9403478634
 30
0.0
 10
107.7837082619
 20
161.0155109367
 30
0.0
  0
SPLINE
  5
4A3
100
AcDbEntity
  8
0
100
AcDbSpline
 62
7
  6
BYLAYER
 70
0
 71
3
 72
17
 73
13
 74
0
 42
0.0000001
 43
0.0000001
 44
0.0000000001
 40
0.0
 40
0.0
 40
0.0
 40
0.0
 40
0.0994425719
 40
0.1987834208
 40
0.2987906069
 40
0.398154554
 40
0.4972811909
 40
0.596991962
 40
0.6972888269
 40
0.7982054709
 40
0.8993558182
 40
1.0
 40
1.0
 40
1.0
 40
1.0
 10
108.3857377065
 20
160.9720371075
 30
0.0
 10
108.3855486205
 20
160.8164878782
 30
0.0
 10
108.3369130332
 20
160.5032972625
 30
0.0
 10
108.1218741648
 20
160.0800833203
 30
0.0
 10
107.7876574921
 20
159.7424800163
 30
0.0
 10
107.3656574953
 20
159.5253812985
 30
0.0
 10
106.8980962933
 20
159.4474961359
 30
0.0
 10
106.4276280952
 20
159.5178338062
 30
0.0
 10
105.9994187201
 20
159.7312629201
 30
0.0
 10
105.6564076666
 20
160.0686176664
 30
0.0
 10
105.4368400371
 20
160.4967844653
 30
0.0
 10
105.3857365024
 20
160.8145582153
 30
0.0
 10
105.385817607
 20
160.9719871122
 30
0.0
  0
SPLINE
  5
4A4
100
AcDbEntity
  8
0
100
AcDbSpline
 62
7
  6
BYLAYER
 70
0
 71
3
 72
117
 73
113
 74
0
 42
0.0000001
 43
0.0000001
 44
0.0000000001
 40
0.0
 40
0.0
 40
0.0
 40
0.0
 40
0.0108554807
 40
0.0216442217
 40
0.0324225216
 40
0.0432755332
 40
0.0542205242
 40
0.0651962488
 40
0.0760842364
 40
0.0869090068
 40
0.0977125293
 40
0.1085695391
 40
0.1195122662
 40
0.1304750158
 40
0.1413784364
 40
0.1522142129
 40
0.1630338881
 40
0.1738884578
 40
0.1848276999
 40
0.1957830679
 40
0.2067001222
 40
0.2175475401
 40
0.2283836917
 40
0.2392390759
 40
0.2501861353
 40
0.2611245873
 40
0.2720456014
 40
0.282883263
 40
0.2937275989
 40
0.3045784453
 40
0.3155309201
 40
0.3264758594
 40
0.337426277
 40
0.3482911055
 40
0.359145668
 40
0.3699873535
 40
0.3809200237
 40
0.3918544226
 40
0.4028189492
 40
0.4136958849
 40
0.4245544946
 40
0.435384116
 40
0.4463022347
 40
0.4572303857
 40
0.4682106478
 40
0.4790973173
 40
0.4899541722
 40
0.5007631544
 40
0.5116548401
 40
0.5225714985
 40
0.5335629373
 40
0.5444588074
 40
0.5553102173
 40
0.5660966739
 40
0.5769604289
 40
0.5878637965
 40
0.598861043
 40
0.6097582767
 40
0.6205998667
 40
0.6313625351
 40
0.6421992606
 40
0.6530867094
 40
0.6640874158
 40
0.6749977891
 40
0.6858554663
 40
0.6966254858
 40
0.7074590113
 40
0.7183386691
 40
0.729329866
 40
0.740240357
 40
0.7511095319
 40
0.7618904133
 40
0.7727331368
 40
0.7836227361
 40
0.7946105315
 40
0.8054857039
 40
0.8163051385
 40
0.8270997977
 40
0.8379318364
 40
0.8487880866
 40
0.8596239638
 40
0.87047723
 40
0.8813227509
 40
0.8921414174
 40
0.9030695747
 40
0.9136979077
 40
0.9231722219
 40
0.9314512693
 40
0.938761793
 40
0.9452516755
 40
0.9510368446
 40
0.9562141975
 40
0.9608664355
 40
0.96506163
 40
0.9688551714
 40
0.9722935102
 40
0.9754161022
 40
0.9782566657
 40
0.980844735
 40
0.983207586
 40
0.9853691252
 40
0.9873496761
 40
0.9891666115
 40
0.990834656
 40
0.9923656923
 40
0.9937680178
 40
0.995048233
 40
0.9962287734
 40
0.9973205627
 40
0.9983312591
 40
0.9992335618
 40
1.0
 40
1.0
 40
1.0
 40
1.0
 10
107.2760965429
 20
161.7824915609
 30
0.0
 10
107.3260362768
 20
161.7583743316
 30
0.0
 10
107.4216346606
 20
161.7013789074
 30
0.0
 10
107.5463269126
 20
161.5909180015
 30
0.0
 10
107.6483330554
 20
161.4592252117
 30
0.0
 10
107.7250726192
 20
161.3105207949
 30
0.0
 10
107.7736691072
 20
161.1492512191
 30
0.0
 10
107.7907286828
 20
160.9815016643
 30
0.0
 10
107.7768958703
 20
160.8141550972
 30
0.0
 10
107.7329367902
 20
160.6529478676
 30
0.0
 10
107.6596169355
 20
160.5030003217
 30
0.0
 10
107.5600703465
 20
160.3683200001
 30
0.0
 10
107.4367849546
 20
160.2536295952
 30
0.0
 10
107.2938070394
 20
160.164280552
 30
0.0
 10
107.1375126972
 20
160.1026818162
 30
0.0
 10
106.9732116501
 20
160.0710402781
 30
0.0
 10
106.8061806748
 20
160.0706980002
 30
0.0
 10
106.6413287774
 20
160.1005629199
 30
0.0
 10
106.484122298
 20
160.1607112293
 30
0.0
 10
106.3408555503
 20
160.2495951601
 30
0.0
 10
106.2164964026
 20
160.3626969741
 30
0.0
 10
106.1156258745
 20
160.4964683337
 30
0.0
 10
106.0416197875
 20
160.6463648827
 30
0.0
 10
105.9956885865
 20
160.8076256795
 30
0.0
 10
105.9805798862
 20
160.9752278251
 30
0.0
 10
105.9972027018
 20
161.1429621167
 30
0.0
 10
106.0438370114
 20
161.304355134
 30
0.0
 10
106.11959181
 20
161.4538017407
 30
0.0
 10
106.2214565303
 20
161.5862991809
 30
0.0
 10
106.3459779422
 20
161.6986759059
 30
0.0
 10
106.4898748823
 20
161.7859984935
 30
0.0
 10
106.6479379137
 20
161.8451182842
 30
0.0
 10
106.813707843
 20
161.8744125544
 30
0.0
 10
106.9815858585
 20
161.8719764191
 30
0.0
 10
107.1455248009
 20
161.8387847242
 30
0.0
 10
107.3011309912
 20
161.7763943817
 30
0.0
 10
107.4425930391
 20
161.6855704531
 30
0.0
 10
107.565233214
 20
161.5697831289
 30
0.0
 10
107.664541693
 20
161.4337378319
 30
0.0
 10
107.7361475005
 20
161.2817099588
 30
0.0
 10
107.778521247
 20
161.1198850486
 30
0.0
 10
107.7908931335
 20
160.9527999158
 30
0.0
 10
107.7714872651
 20
160.7859956536
 30
0.0
 10
107.7216046973
 20
160.6249103633
 30
0.0
 10
107.6430513594
 20
160.475785252
 30
0.0
 10
107.5378808325
 20
160.3445701397
 30
0.0
 10
107.4113020267
 20
160.2353070039
 30
0.0
 10
107.2668796873
 20
160.1508621297
 30
0.0
 10
107.1088499376
 20
160.0949995931
 30
0.0
 10
106.9424181455
 20
160.0687186117
 30
0.0
 10
106.7738827803
 20
160.0736145839
 30
0.0
 10
106.6097003841
 20
160.1102859659
 30
0.0
 10
106.4559019665
 20
160.1756735997
 30
0.0
 10
106.3167505215
 20
160.2680350096
 30
0.0
 10
106.1971746499
 20
160.3849969085
 30
0.0
 10
106.1001615773
 20
160.5225422732
 30
0.0
 10
106.0302755614
 20
160.6759562268
 30
0.0
 10
105.9907195562
 20
160.839440812
 30
0.0
 10
105.9814249948
 20
161.0061438346
 30
0.0
 10
106.0029097767
 20
161.1714558712
 30
0.0
 10
106.0548306305
 20
161.330082292
 30
0.0
 10
106.1351040736
 20
161.4777993296
 30
0.0
 10
106.2418597071
 20
161.6082809905
 30
0.0
 10
106.3710788634
 20
161.7162044711
 30
0.0
 10
106.5166347753
 20
161.7984054792
 30
0.0
 10
106.6745642097
 20
161.8521037715
 30
0.0
 10
106.8397677318
 20
161.8756724483
 30
0.0
 10
107.0076602453
 20
161.8690224766
 30
0.0
 10
107.1717782775
 20
161.8308508157
 30
0.0
 10
107.3257426755
 20
161.7627342884
 30
0.0
 10
107.4639604679
 20
161.6684860535
 30
0.0
 10
107.5819497224
 20
161.5503419152
 30
0.0
 10
107.676220556
 20
161.4124680816
 30
0.0
 10
107.7444760897
 20
161.2588277886
 30
0.0
 10
107.7825427644
 20
161.0948406799
 30
0.0
 10
107.78953593
 20
160.9270966614
 30
0.0
 10
107.766256216
 20
160.761799047
 30
0.0
 10
107.7125452416
 20
160.6039555652
 30
0.0
 10
107.6308214895
 20
160.4584832174
 30
0.0
 10
107.5239784099
 20
160.3299775104
 30
0.0
 10
107.3947980771
 20
160.2237519542
 30
0.0
 10
107.2484798087
 20
160.1429982058
 30
0.0
 10
107.0899866537
 20
160.0900959778
 30
0.0
 10
106.9239907894
 20
160.0678506156
 30
0.0
 10
106.7578857392
 20
160.0762753195
 30
0.0
 10
106.6027328934
 20
160.1129285093
 30
0.0
 10
106.4690058922
 20
160.1706331219
 30
0.0
 10
106.3600166527
 20
160.2386195013
 30
0.0
 10
106.272701256
 20
160.3104806157
 30
0.0
 10
106.2032625913
 20
160.3828123929
 30
0.0
 10
106.148651663
 20
160.4534812091
 30
0.0
 10
106.1059612875
 20
160.5209906282
 30
0.0
 10
106.0727845331
 20
160.5845786503
 30
0.0
 10
106.0472249769
 20
160.6439434453
 30
0.0
 10
106.0277772858
 20
160.6990294729
 30
0.0
 10
106.0132416603
 20
160.7499232157
 30
0.0
 10
106.0026524638
 20
160.7967950956
 30
0.0
 10
105.9952286248
 20
160.8398640706
 30
0.0
 10
105.9903319606
 20
160.8793802561
 30
0.0
 10
105.9874075
 20
160.9156083534
 30
0.0
 10
105.9860181609
 20
160.9488191463
 30
0.0
 10
105.9858180369
 20
160.9792675575
 30
0.0
 10
105.986532336
 20
161.0071849999
 30
0.0
 10
105.9879410426
 20
161.0327753398
 30
0.0
 10
105.9898649112
 20
161.0562066836
 30
0.0
 10
105.9921560389
 20
161.0776125821
 30
0.0
 10
105.9946963192
 20
161.0971857538
 30
0.0
 10
105.9974116121
 20
161.1151313891
 30
0.0
 10
106.0002129614
 20
161.1316702035
 30
0.0
 10
106.0031249303
 20
161.1467404085
 30
0.0
 10
106.0056843844
 20
161.1601950699
 30
0.0
 10
106.0079406812
 20
161.168422648
 30
0.0
 10
106.0088076479
 20
161.1722410252
 30
0.0
  0
SPLINE
  5
4A5
100
AcDbEntity
  8
0
100
AcDbSpline
 62
7
  6
BYLAYER
 70
0
 71
3
 72
22
 73
18
 74
0
 42
0.0000001
 43
0.0000001
 44
0.0000000001
 40
0.0
 40
0.0
 40
0.0
 40
0.0
 40
0.0351919481
 40
0.0750989424
 40
0.1173214629
 40
0.1628880874
 40
0.2122060721
 40
0.2657903842
 40
0.3236592
 40
0.386435678
 40
0.4544799324
 40
0.5283274742
 40
0.6083506271
 40
0.6950215221
 40
0.788780962
 40
0.8902140887
 40
1.0
 40
1.0
 40
1.0
 40
1.0
 10
105.4234702787
 20
161.3057694163
 30
0.0
 10
105.420905244
 20
161.3027570427
 30
0.0
 10
105.4175602835
 20
161.2947209874
 30
0.0
 10
105.4145629279
 20
161.2819333519
 30
0.0
 10
105.4126278366
 20
161.267672123
 30
0.0
 10
105.4111554266
 20
161.252336162
 30
0.0
 10
105.4096768277
 20
161.2357063726
 30
0.0
 10
105.407385301
 20
161.2177729411
 30
0.0
 10
105.4042420776
 20
161.1984363333
 30
0.0
 10
105.4004388246
 20
161.1775666038
 30
0.0
 10
105.3967495814
 20
161.1548507961
 30
0.0
 10
105.3936113264
 20
161.1300953504
 30
0.0
 10
105.3909650137
 20
161.1031786787
 30
0.0
 10
105.3888957356
 20
161.0739675843
 30
0.0
 10
105.38734335
 20
161.0423125549
 30
0.0
 10
105.3866236863
 20
161.0080331151
 30
0.0
 10
105.3858482064
 20
160.984292975
 30
0.0
 10
105.3858876644
 20
160.971950253
 30
0.0
  0
SPLINE
  5
4A6
100
AcDbEntity
  8
0
100
AcDbSpline
 62
7
  6
BYLAYER
 70
0
 71
3
 72
13
 73
9
 74
0
 42
0.0000001
 43
0.0000001
 44
0.0000000001
 40
0.0
 40
0.0
 40
0.0
 40
0.0
 40
0.1732653116
 40
0.3520446029
 40
0.5226499461
 40
0.696066242
 40
0.8771435378
 40
1.0
 40
1.0
 40
1.0
 40
1.0
 10
107.4792360284
 20
160.295558802
 30
0.0
 10
107.5550564437
 20
160.3635243669
 30
0.0
 10
107.6853287573
 20
160.5297240945
 30
0.0
 10
107.7915494303
 20
160.8240643906
 30
0.0
 10
107.7878447099
 20
161.1381543568
 30
0.0
 10
107.6747983431
 20
161.4312904956
 30
0.0
 10
107.4936691657
 20
161.6526552443
 30
0.0
 10
107.3415055494
 20
161.7510236771
 30
0.0
 10
107.2760819504
 20
161.782455431
 30
0.0
  0
SPLINE
  5
4A7
100
AcDbEntity
  8
0
100
AcDbSpline
 62
7
  6
BYLAYER
 70
0
 71
3
 72
51
 73
47
 74
0
 42
0.0000001
 43
0.0000001
 44
0.0000000001
 40
0.0
 40
0.0
 40
0.0
 40
0.0
 40
0.0226538398
 40
0.0456786632
 40
0.0678134486
 40
0.0907386203
 40
0.1150902783
 40
0.1381315603
 40
0.1617350165
 40
0.184262578
 40
0.2064431866
 40
0.2295673087
 40
0.2518848847
 40
0.2744648547
 40
0.2976087758
 40
0.3200040172
 40
0.3432310303
 40
0.3656797359
 40
0.387723649
 40
0.4107256546
 40
0.4332854642
 40
0.4551969594
 40
0.4778982584
 40
0.5005210357
 40
0.5231615329
 40
0.5463273027
 40
0.5685559363
 40
0.5908324765
 40
0.613751731
 40
0.635947495
 40
0.6581868014
 40
0.6812033882
 40
0.7037509642
 40
0.7271491627
 40
0.7497073983
 40
0.7718447114
 40
0.7949902391
 40
0.8173495735
 40
0.839861037
 40
0.8630691207
 40
0.8852008482
 40
0.9088255306
 40
0.9319614219
 40
0.9545935755
 40
0.9773457438
 40
1.0
 40
1.0
 40
1.0
 40
1.0
 10
106.009175003
 20
161.1720731046
 30
0.0
 10
106.0346863699
 20
161.2792146033
 30
0.0
 10
106.1274699027
 20
161.4868448725
 30
0.0
 10
106.3614250393
 20
161.7296747601
 30
0.0
 10
106.672418503
 20
161.865574578
 30
0.0
 10
107.0162806681
 20
161.8798344469
 30
0.0
 10
107.3506999928
 20
161.7715441868
 30
0.0
 10
107.6127494911
 20
161.5331387879
 30
0.0
 10
107.7678547782
 20
161.226792781
 30
0.0
 10
107.8039814927
 20
160.8881404384
 30
0.0
 10
107.7063607862
 20
160.5652501995
 30
0.0
 10
107.5073249186
 20
160.2951063473
 30
0.0
 10
107.2206749395
 20
160.1136735049
 30
0.0
 10
106.8874422157
 20
160.0563732236
 30
0.0
 10
106.5538342242
 20
160.1133257395
 30
0.0
 10
106.2624908245
 20
160.294466771
 30
0.0
 10
106.0639709005
 20
160.5683317888
 30
0.0
 10
105.968404697
 20
160.8909173424
 30
0.0
 10
106.002879462
 20
161.2255604552
 30
0.0
 10
106.1550596156
 20
161.5244100872
 30
0.0
 10
106.3992961173
 20
161.7549204576
 30
0.0
 10
106.7124847439
 20
161.8723844717
 30
0.0
 10
107.0456047714
 20
161.8746381098
 30
0.0
 10
107.3646664229
 20
161.7608065181
 30
0.0
 10
107.6142690052
 20
161.5286023477
 30
0.0
 10
107.7675611912
 20
161.2279549759
 30
0.0
 10
107.8038596133
 20
160.8925938685
 30
0.0
 10
107.7088391826
 20
160.5711906854
 30
0.0
 10
107.5131184272
 20
160.30006312
 30
0.0
 10
107.2305010812
 20
160.1185223254
 30
0.0
 10
106.9014472695
 20
160.05696142
 30
0.0
 10
106.5683053272
 20
160.1074150954
 30
0.0
 10
106.2733797686
 20
160.2847875974
 30
0.0
 10
106.0691770676
 20
160.5570989112
 30
0.0
 10
105.9688213112
 20
160.8804484808
 30
0.0
 10
106.0008446526
 20
161.2170548237
 30
0.0
 10
106.1497202066
 20
161.5177836621
 30
0.0
 10
106.3939554379
 20
161.752243559
 30
0.0
 10
106.7112063687
 20
161.8725107912
 30
0.0
 10
107.0477507876
 20
161.8750661487
 30
0.0
 10
107.370555369
 20
161.7575920534
 30
0.0
 10
107.6199349723
 20
161.5210005886
 30
0.0
 10
107.7730678539
 20
161.2126912544
 30
0.0
 10
107.8019670293
 20
160.8719500243
 30
0.0
 10
107.6991217905
 20
160.549904478
 30
0.0
 10
107.5616897691
 20
160.3703839783
 30
0.0
 10
107.479677606
 20
160.2968681187
 30
0.0
  0
SPLINE
  5
4A8
100
AcDbEntity
  8
0
100
AcDbSpline
 62
7
  6
BYLAYER
 70
0
 71
3
 72
17
 73
13
 74
0
 42
0.0000001
 43
0.0000001
 44
0.0000000001
 40
0.0
 40
0.0
 40
0.0
 40
0.0
 40
0.0901569792
 40
0.1811877122
 40
0.2759581322
 40
0.3717338468
 40
0.4681872777
 40
0.5683905923
 40
0.6733277575
 40
0.7789163867
 40
0.888756213
 40
1.0
 40
1.0
 40
1.0
 40
1.0
 10
107.8775046579
 20
160.9720495857
 30
0.0
 10
107.8893528064
 20
161.0810394357
 30
0.0
 10
107.8758777475
 20
161.3056961393
 30
0.0
 10
107.7481105448
 20
161.6219234122
 30
0.0
 10
107.5218188096
 20
161.8870015888
 30
0.0
 10
107.2182657381
 20
162.0707847275
 30
0.0
 10
106.8665503045
 20
162.153550713
 30
0.0
 10
106.4949994012
 20
162.1237983656
 30
0.0
 10
106.1402797884
 20
161.9759202431
 30
0.0
 10
105.840030141
 20
161.7178319128
 30
0.0
 10
105.6297194547
 20
161.3733190925
 30
0.0
 10
105.5662220909
 20
161.1068010895
 30
0.0
 10
105.5552924043
 20
160.9719695885
 30
0.0
  0
SPLINE
  5
4A9
100
AcDbEntity
  8
0
100
AcDbSpline
 62
7
  6
BYLAYER
 70
0
 71
3
 72
10
 73
6
 74
0
 42
0.0000001
 43
0.0000001
 44
0.0000000001
 40
0.0
 40
0.0
 40
0.0
 40
0.0
 40
0.3326833109
 40
0.6751140034
 40
1.0
 40
1.0
 40
1.0
 40
1.0
 10
107.8775046579
 20
160.9720495857
 30
0.0
 10
107.8678523436
 20
160.8832589797
 30
0.0
 10
107.8231208111
 20
160.7047948246
 30
0.0
 10
107.6857049543
 20
160.469983029
 30
0.0
 10
107.5523156761
 20
160.345979865
 30
0.0
 10
107.4804496745
 20
160.2965564166
 30
0.0
  0
SPLINE
  5
4AA
100
AcDbEntity
  8
0
100
AcDbSpline
 62
7
  6
BYLAYER
 70
0
 71
3
 72
12
 73
8
 74
0
 42
0.0000001
 43
0.0000001
 44
0.0000000001
 40
0.0
 40
0.0
 40
0.0
 40
0.0
 40
0.2066635157
 40
0.407916191
 40
0.609544873
 40
0.8096798835
 40
1.0
 40
1.0
 40
1.0
 40
1.0
 10
106.8858722265
 20
159.472073266
 30
0.0
 10
106.7333146289
 20
159.4830445528
 30
0.0
 10
106.4333574448
 20
159.5516600707
 30
0.0
 10
106.0397380054
 20
159.7859746595
 30
0.0
 10
105.7403242326
 20
160.1272628267
 30
0.0
 10
105.566982333
 20
160.5378291346
 30
0.0
 10
105.5439117028
 20
160.8315742545
 30
0.0
 10
105.5552924038
 20
160.9719695885
 30
0.0
  0
SPLINE
  5
4AB
100
AcDbEntity
  8
0
100
AcDbSpline
 62
7
  6
BYLAYER
 70
0
 71
3
 72
14
 73
10
 74
0
 42
0.0000001
 43
0.0000001
 44
0.0000000001
 40
0.0
 40
0.0
 40
0.0
 40
0.0
 40
0.1297715573
 40
0.2709835922
 40
0.4089699731
 40
0.5509482258
 40
0.6965741189
 40
0.8422648303
 40
1.0
 40
1.0
 40
1.0
 40
1.0
 10
106.2926611484
 20
160.2952402732
 30
0.0
 10
106.3604799837
 20
160.2233775213
 30
0.0
 10
106.5282008964
 20
160.0959686355
 30
0.0
 10
106.8304372392
 20
159.9985149003
 30
0.0
 10
107.1567759255
 20
160.0065647336
 30
0.0
 10
107.4665886781
 20
160.1198565059
 30
0.0
 10
107.7280525053
 20
160.3307939474
 30
0.0
 10
107.9158222794
 20
160.6230157836
 30
0.0
 10
107.9728011994
 20
160.8523178947
 30
0.0
 10
107.9821066394
 20
160.9720602134
 30
0.0
  0
SPLINE
  5
4AC
100
AcDbEntity
  8
0
100
AcDbSpline
 62
7
  6
BYLAYER
 70
0
 71
3
 72
17
 73
13
 74
0
 42
0.0000001
 43
0.0000001
 44
0.0000000001
 40
0.0
 40
0.0
 40
0.0
 40
0.0
 40
0.0913850493
 40
0.1834456742
 40
0.2766815586
 40
0.3709448463
 40
0.4673397558
 40
0.5701944162
 40
0.6768899891
 40
0.783472471
 40
0.8924076154
 40
1.0
 40
1.0
 40
1.0
 40
1.0
 10
107.9821066394
 20
160.9720602134
 30
0.0
 10
107.9912167196
 20
161.089288644
 30
0.0
 10
107.9710252053
 20
161.3292427827
 30
0.0
 10
107.8297502551
 20
161.6621788418
 30
0.0
 10
107.5900716765
 20
161.9382644791
 30
0.0
 10
107.2732562692
 20
162.1314487192
 30
0.0
 10
106.900473416
 20
162.2221259952
 30
0.0
 10
106.5011190112
 20
162.1919928989
 30
0.0
 10
106.1196663262
 20
162.0308536344
 30
0.0
 10
105.8033480619
 20
161.7520320097
 30
0.0
 10
105.5895737976
 20
161.387455977
 30
0.0
 10
105.5291384707
 20
161.1101318524
 30
0.0
 10
105.5204675719
 20
160.9719683907
 30
0.0
  0
SPLINE
  5
4AD
100
AcDbEntity
  8
0
100
AcDbSpline
 62
7
  6
BYLAYER
 70
0
 71
3
 72
12
 73
8
 74
0
 42
0.0000001
 43
0.0000001
 44
0.0000000001
 40
0.0
 40
0.0
 40
0.0
 40
0.0
 40
0.1978409211
 40
0.3970680044
 40
0.5950686252
 40
0.7932664019
 40
1.0
 40
1.0
 40
1.0
 40
1.0
 10
105.5204675737
 20
160.9719683907
 30
0.0
 10
105.5111938887
 20
160.8242000383
 30
0.0
 10
105.5414646707
 20
160.5223521667
 30
0.0
 10
105.7277088201
 20
160.1097843501
 30
0.0
 10
106.0325981615
 20
159.774754204
 30
0.0
 10
106.4293728461
 20
159.5459910214
 30
0.0
 10
106.7314122349
 20
159.4809371947
 30
0.0
 10
106.8858722265
 20
159.472073266
 30
0.0
  0
SPLINE
  5
4AE
100
AcDbEntity
  8
0
100
AcDbSpline
 62
7
  6
BYLAYER
 70
0
 71
3
 72
16
 73
12
 74
0
 42
0.0000001
 43
0.0000001
 44
0.0000000001
 40
0.0
 40
0.0
 40
0.0
 40
0.0
 40
0.1121745457
 40
0.2239422632
 40
0.334684686
 40
0.4467141794
 40
0.5579552636
 40
0.6687097586
 40
0.780435094
 40
0.8911514442
 40
1.0
 40
1.0
 40
1.0
 40
1.0
 10
108.3857474741
 20
160.972059808
 30
0.0
 10
108.3860164602
 20
161.1349499099
 30
0.0
 10
108.3313584119
 20
161.4625597062
 30
0.0
 10
108.0988907452
 20
161.898663575
 30
0.0
 10
107.7390813117
 20
162.2378923438
 30
0.0
 10
107.2903836163
 20
162.4435964727
 30
0.0
 10
106.7995234045
 20
162.4965832775
 30
0.0
 10
106.3184020118
 20
162.3885668062
 30
0.0
 10
105.8963312918
 20
162.1348178784
 30
0.0
 10
105.580096537
 20
161.761390111
 30
0.0
 10
105.4589518131
 20
161.4597726351
 30
0.0
 10
105.4234782007
 20
161.3057441392
 30
0.0
  0
SPLINE
  5
4AF
100
AcDbEntity
  8
0
100
AcDbSpline
 62
7
  6
BYLAYER
 70
0
 71
3
 72
12
 73
8
 74
0
 42
0.0000001
 43
0.0000001
 44
0.0000000001
 40
0.0
 40
0.0
 40
0.0
 40
0.0
 40
0.2027053018
 40
0.4015726152
 40
0.6017324712
 40
0.8023921306
 40
1.0
 40
1.0
 40
1.0
 40
1.0
 10
91.886460042
 20
131.4718157103
 30
0.0
 10
92.0450000683
 20
131.4715913272
 30
0.0
 10
92.3614526843
 20
131.5223165289
 30
0.0
 10
92.7862983598
 20
131.7411235245
 30
0.0
 10
93.1230381787
 20
132.0789613704
 30
0.0
 10
93.3371067117
 20
132.5036614639
 30
0.0
 10
93.3860610929
 20
132.8171646578
 30
0.0
 10
93.3863199531
 20
132.9717179716
 30
0.0
  0
SPLINE
  5
4B0
100
AcDbEntity
  8
0
100
AcDbSpline
 62
7
  6
BYLAYER
 70
0
 71
3
 72
12
 73
8
 74
0
 42
0.0000001
 43
0.0000001
 44
0.0000000001
 40
0.0
 40
0.0
 40
0.0
 40
0.0
 40
0.2027053018
 40
0.4015726152
 40
0.6017324712
 40
0.8023921306
 40
1.0
 40
1.0
 40
1.0
 40
1.0
 10
106.8858875046
 20
159.4721224193
 30
0.0
 10
107.0444275309
 20
159.4718980361
 30
0.0
 10
107.3608801469
 20
159.5226232378
 30
0.0
 10
107.7857258224
 20
159.7414302335
 30
0.0
 10
108.1224656413
 20
160.0792680794
 30
0.0
 10
108.3365341743
 20
160.5039681728
 30
0.0
 10
108.3854885555
 20
160.8174713667
 30
0.0
 10
108.3857474157
 20
160.9720246805
 30
0.0
  0
ENDSEC
  0
SECTION
  2
OBJECTS
  0
DICTIONARY
  5
C
100
AcDbDictionary
280
0
281
1
  3
ACAD_GROUP
350
D
  3
ACAD_MLINESTYLE
350
17
  3
ACAD_LAYOUT
350
1A
  3
ACAD_PLOTSETTINGS
350
19
  3
ACAD_PLOTSTYLENAME
350
E
  0
DICTIONARY
  5
D
102
{ACAD_REACTORS
330
C
102
}
100
AcDbDictionary
280
0
281
1
  0
ACDBDICTIONARYWDFLT
  5
E
102
{ACAD_REACTORS
330
C
102
}
100
AcDbDictionary
281
1
  3
Normal
350
F
100
AcDbDictionaryWithDefault
340
F
  0
DICTIONARY
  5
17
102
{ACAD_REACTORS
330
C
102
}
100
AcDbDictionary
280
0
281
1
  3
Standard
350
18
  0
DICTIONARY
  5
19
102
{ACAD_REACTORS
330
C
102
}
100
AcDbDictionary
281
1
  0
DICTIONARY
  5
1A
102
{ACAD_REACTORS
330
C
102
}
100
AcDbDictionary
281
1
  3
Model
350
4B1
  3
Layout1
350
4B2
  0
ACDBPLACEHOLDER
  5
F
102
{ACAD_REACTORS
330
E
102
}
  0
MLINESTYLE
  5
18
102
{ACAD_REACTORS
330
17
102
}
100
AcDbMlineStyle
  2
STANDARD
 70
0
  3

 62
256
 51
90.0
 52
90.0
 71
2
 49
0.5
 62
256
  6
BYLAYER
 49
-0.5
 62
256
  6
BYLAYER
  0
LAYOUT
  5
4B1
102
{ACAD_REACTORS
330
1A
102
}
100
AcDbPlotSettings
  1

  2
none_device
  4

  6

 40
0.0
 41
0.0
 42
0.0
 43
0.0
 44
210.0
 45
297.0
 46
0.0
 47
0.0
 48
0.0
 49
0.0
140
0.0
141
0.0
142
1.0
143
1.0
 70
1024
 72
1
 73
0
 74
0
  7

 75
0
147
1.0
148
0.0
149
0.0
100
AcDbLayout
  1
Model
 70
0
 71
0
 10
0.0
 20
0.0
 11
210.0
 21
297.0
 12
0.0
 22
0.0
 32
0.0
 14
0.0
 24
0.0
 34
0.0
 15
0.0
 25
0.0
 35
0.0
146
0.0
 13
0.0
 23
0.0
 33
0.0
 16
1.0
 26
0.0
 36
0.0
 17
0.0
 27
1.0
 37
0.0
 76
0
330
210
345
0
346
0
  0
LAYOUT
  5
4B2
102
{ACAD_REACTORS
330
1A
102
}
100
AcDbPlotSettings
  1

  2
none_device
  4

  6

 40
0.0
 41
0.0
 42
0.0
 43
0.0
 44
210.0
 45
297.0
 46
0.0
 47
0.0
 48
0.0
 49
0.0
140
0.0
141
0.0
142
1.0
143
1.0
 70
0
 72
1
 73
0
 74
0
  7

 75
0
147
1.0
148
0.0
149
0.0
100
AcDbLayout
  1
Layout1
 70
0
 71
1
 10
0.0
 20
0.0
 11
210.0
 21
297.0
 12
0.0
 22
0.0
 32
0.0
 14
0.0
 24
0.0
 34
0.0
 15
0.0
 25
0.0
 35
0.0
146
0.0
 13
0.0
 23
0.0
 33
0.0
 16
1.0
 26
0.0
 36
0.0
 17
0.0
 27
1.0
 37
0.0
 76
0
330
211
345
0
346
0
  0
ENDSEC
  0
EOF
