999
DXF file: C:\Users\sesa63760\OneDrive - Schneider Electric\Documents\7-Dev\_Creo\CAD\MCADUE0000239_3D-CAD\drw0001_2.dxf
999
Pro/ENGINEER 2019471 by Parametric Technology Corporation
  0
SECTION
  2
HEADER
  9
$ACADVER
  1
AC1024
  9
$DWGCODEPAGE
  3
ANSI_1252
  9
$EXTMAX
 10
401.956344742
 20
568.4811161352
 30
0.0
  9
$EXTMIN
 10
0.0
 20
0.0
 30
0.0
  9
$LIMMIN
 10
0.0
 20
0.0
  9
$LIMMAX
 10
401.956344742
 20
568.4811161352
  9
$VIEWCTR
 10
200.978172371
 20
284.2405580676
  9
$VIEWSIZE
 40
568.4811161352
  9
$CLAYER
  8
0
  9
$LTSCALE
 40
37.0565468296
  9
$CELTYPE
  6
BYLAYER
  9
$DIMSCALE
 40
1.0
  9
$DIMASZ
 40
4.7851945803
  9
$DIMEXO
 40
1.0
  9
$DIMDLI
 40
25.6027050822
  9
$DIMEXE
 40
1.0
  9
$DIMCEN
 40
6.0637985721
  9
$DIMLFAC
 40
1.0
  9
$DIMBLK
  1
_FILLED
  9
$DIMALT
 70
0
  9
$DIMALTF
 40
0.0393700787
  9
$DIMTXT
 40
6.6992724124
  9
$DIMTOL
 70
1
  9
$DIMLIM
 70
0
  9
$DIMTFAC
 40
1.0
  9
$DIMTP
 40
0.01
  9
$DIMTM
 40
0.01
  9
$DIMGAP
 40
0.625
  9
$DIMDSEP
 70
46
  9
$AUNITS
 70
0
  9
$PDMODE
 70
3
  9
$PDSIZE
 40
0.3125
  9
$HANDSEED
  5
3C2
  9
$TILEMODE
 70
1
  9
$MEASUREMENT
 70
1
  9
$INSUNITS
 70
4
  0
ENDSEC
  0
SECTION
  2
CLASSES
  0
CLASS
  1
ACDBDICTIONARYWDFLT
  2
AcDbDictionaryWithDefault
  3
AutoCAD 2000
 90
0
 91
1
280
0
281
0
  0
CLASS
  1
ACDBPLACEHOLDER
  2
AcDbPlaceHolder
  3
AutoCAD 2000
 90
0
 91
1
280
0
281
0
  0
CLASS
  1
LAYOUT
  2
AcDbLayout
  3
AutoCAD 2000
 90
0
 91
0
280
0
281
0
  0
ENDSEC
  0
SECTION
  2
TABLES
  0
TABLE
  2
VPORT
  5
8
100
AcDbSymbolTable
 70
2
  0
VPORT
  5
1F4
100
AcDbSymbolTableRecord
100
AcDbViewportTableRecord
  2
*ACTIVE
 70
0
 10
0.0
 20
0.0
 11
1.0
 21
1.0
 12
200.978172371
 22
284.2405580676
 13
0.0
 23
0.0
 14
1.0
 24
1.0
 15
0.0
 25
0.0
 16
0.0
 26
0.0
 36
1.0
 17
0.0
 27
0.0
 37
0.0
 40
568.4811161352
 41
0.7070707071
 42
50.0
 43
0.0
 44
0.0
 50
0.0
 51
0.0
 71
0
 72
100
 73
1
 74
1
 75
0
 76
0
 77
0
 78
0
  0
ENDTAB
  0
TABLE
  2
LTYPE
  5
5
100
AcDbSymbolTable
 70
6
  0
LTYPE
  5
14
100
AcDbSymbolTableRecord
100
AcDbLinetypeTableRecord
  2
BYBLOCK
 70
0
  3

 72
65
 73
0
 40
0.0
  0
LTYPE
  5
15
100
AcDbSymbolTableRecord
100
AcDbLinetypeTableRecord
  2
BYLAYER
 70
0
  3

 72
65
 73
0
 40
0.0
  0
LTYPE
  5
16
100
AcDbSymbolTableRecord
100
AcDbLinetypeTableRecord
  2
CONTINUOUS
 70
64
  3
Solid line
 72
65
 73
0
 40
0.0
  0
LTYPE
  5
1F5
100
AcDbSymbolTableRecord
100
AcDbLinetypeTableRecord
  2
CENTER
 70
64
  3
____ _ ____ _ ____ _ ____ _ ____ _ ____ _ ____
 72
65
 73
4
 40
0.6
 49
0.375
 74
0
 49
-0.075
 74
0
 49
0.075
 74
0
 49
-0.075
 74
0
  0
LTYPE
  5
1F6
100
AcDbSymbolTableRecord
100
AcDbLinetypeTableRecord
  2
HIDDEN
 70
64
  3
- - - - - - - - - - - - - - - - - - - -
 72
65
 73
2
 40
0.2
 49
0.1
 74
0
 49
-0.1
 74
0
  0
LTYPE
  5
1F7
100
AcDbSymbolTableRecord
100
AcDbLinetypeTableRecord
  2
PHANTOM
 70
64
  3
_____ _ _ _____ _ _ _____ _ _ _____
 72
65
 73
6
 40
0.8
 49
0.45
 74
0
 49
-0.05
 74
0
 49
0.1
 74
0
 49
-0.05
 74
0
 49
0.1
 74
0
 49
-0.05
 74
0
  0
LTYPE
  5
1F8
100
AcDbSymbolTableRecord
100
AcDbLinetypeTableRecord
  2
DOT
 70
64
  3
. . . . . . . . . . . . . . . . . . . .
 72
65
 73
2
 40
0.2
 49
0.1
 74
0
 49
-0.1
 74
0
  0
LTYPE
  5
1F9
100
AcDbSymbolTableRecord
100
AcDbLinetypeTableRecord
  2
DASHED
 70
64
  3
- - - - - - - - - - - - - - - - - - - -
 72
65
 73
2
 40
0.2
 49
0.1
 74
0
 49
-0.1
 74
0
  0
ENDTAB
  0
TABLE
  2
LAYER
  5
2
100
AcDbSymbolTable
 70
36
  0
LAYER
  5
10
100
AcDbSymbolTableRecord
100
AcDbLayerTableRecord
  2
0
 70
0
 62
7
  6
CONTINUOUS
370
-3
390
F
  0
LAYER
  5
1FA
100
AcDbSymbolTableRecord
100
AcDbLayerTableRecord
  2
DEFAULT_1
 70
0
 62
7
  6
CENTER
370
-3
390
F
  0
LAYER
  5
1FB
100
AcDbSymbolTableRecord
100
AcDbLayerTableRecord
  2
DEFAULT_2
 70
0
 62
8
  6
HIDDEN
370
-3
390
F
  0
LAYER
  5
1FC
100
AcDbSymbolTableRecord
100
AcDbLayerTableRecord
  2
DEFAULT_3
 70
0
 62
7
  6
PHANTOM
370
-3
390
F
  0
LAYER
  5
1FD
100
AcDbSymbolTableRecord
100
AcDbLayerTableRecord
  2
00_COMPONENTS
 70
0
 62
7
  6
CONTINUOUS
370
-3
390
F
  0
LAYER
  5
1FE
100
AcDbSymbolTableRecord
100
AcDbLayerTableRecord
  2
01_1_DEFAULT_DATUMS
 70
0
 62
7
  6
CONTINUOUS
370
-3
390
F
  0
LAYER
  5
1FF
100
AcDbSymbolTableRecord
100
AcDbLayerTableRecord
  2
01_PLANES
 70
0
 62
7
  6
CONTINUOUS
370
-3
390
F
  0
LAYER
  5
200
100
AcDbSymbolTableRecord
100
AcDbLayerTableRecord
  2
02_COORD_SYS
 70
0
 62
7
  6
CONTINUOUS
370
-3
390
F
  0
LAYER
  5
201
100
AcDbSymbolTableRecord
100
AcDbLayerTableRecord
  2
03_AXES
 70
0
 62
7
  6
CONTINUOUS
370
-3
390
F
  0
LAYER
  5
202
100
AcDbSymbolTableRecord
100
AcDbLayerTableRecord
  2
04_POINTS
 70
0
 62
7
  6
CONTINUOUS
370
-3
390
F
  0
LAYER
  5
203
100
AcDbSymbolTableRecord
100
AcDbLayerTableRecord
  2
05_CURVES
 70
0
 62
7
  6
CONTINUOUS
370
-3
390
F
  0
LAYER
  5
204
100
AcDbSymbolTableRecord
100
AcDbLayerTableRecord
  2
06_SURFS
 70
0
 62
7
  6
CONTINUOUS
370
-3
390
F
  0
LAYER
  5
205
100
AcDbSymbolTableRecord
100
AcDbLayerTableRecord
  2
07_COSMETICS
 70
0
 62
7
  6
CONTINUOUS
370
-3
390
F
  0
LAYER
  5
206
100
AcDbSymbolTableRecord
100
AcDbLayerTableRecord
  2
10_NOTES
 70
0
 62
7
  6
CONTINUOUS
370
-3
390
F
  0
LAYER
  5
207
100
AcDbSymbolTableRecord
100
AcDbLayerTableRecord
  2
11_NOTES_PUB
 70
0
 62
7
  6
CONTINUOUS
370
-3
390
F
  0
LAYER
  5
208
100
AcDbSymbolTableRecord
100
AcDbLayerTableRecord
  2
13_REF_GTOL
 70
0
 62
7
  6
CONTINUOUS
370
-3
390
F
  0
LAYER
  5
209
100
AcDbSymbolTableRecord
100
AcDbLayerTableRecord
  2
16_MISC
 70
0
 62
7
  6
CONTINUOUS
370
-3
390
F
  0
LAYER
  5
20A
100
AcDbSymbolTableRecord
100
AcDbLayerTableRecord
  2
17_NO_PRINT
 70
0
 62
7
  6
CONTINUOUS
370
-3
390
F
  0
LAYER
  5
20B
100
AcDbSymbolTableRecord
100
AcDbLayerTableRecord
  2
18_DATUM_CAMS_JOINTS
 70
0
 62
7
  6
CONTINUOUS
370
-3
390
F
  0
LAYER
  5
20C
100
AcDbSymbolTableRecord
100
AcDbLayerTableRecord
  2
19_DATUM_FUNCTIONAL
 70
0
 62
7
  6
CONTINUOUS
370
-3
390
F
  0
LAYER
  5
20D
100
AcDbSymbolTableRecord
100
AcDbLayerTableRecord
  2
20_DATUM_KINEMATIC_SCHEME
 70
0
 62
7
  6
CONTINUOUS
370
-3
390
F
  0
ENDTAB
  0
TABLE
  2
STYLE
  5
3
100
AcDbSymbolTable
 70
1
  0
STYLE
  5
11
100
AcDbSymbolTableRecord
100
AcDbTextStyleTableRecord
  2
STANDARD
 70
0
 40
0.0
 41
0.8
 50
0.0
 71
0
 42
0.2
  3
txt
  4

  0
STYLE
  5
20E
100
AcDbSymbolTableRecord
100
AcDbTextStyleTableRecord
  2
TEXTSTYLE_1
 70
0
 40
0.0
 41
0.8
 50
0.0
 71
0
 42
0.2
  3
gdt
  4

  0
ENDTAB
  0
TABLE
  2
VIEW
  5
6
100
AcDbSymbolTable
 70
0
  0
ENDTAB
  0
TABLE
  2
UCS
  5
7
100
AcDbSymbolTable
 70
0
  0
ENDTAB
  0
TABLE
  2
APPID
  5
9
100
AcDbSymbolTable
 70
1
  0
APPID
  5
20F
100
AcDbSymbolTableRecord
100
AcDbRegAppTableRecord
  2
ACAD
 70
0
  0
ENDTAB
  0
TABLE
  2
BLOCK_RECORD
  5
1
100
AcDbSymbolTable
 70
0
  0
BLOCK_RECORD
  5
210
100
AcDbSymbolTableRecord
100
AcDbBlockTableRecord
  2
*Model_Space
  0
BLOCK_RECORD
  5
211
100
AcDbSymbolTableRecord
100
AcDbBlockTableRecord
  2
*Paper_Space
  0
BLOCK_RECORD
  5
212
100
AcDbSymbolTableRecord
100
AcDbBlockTableRecord
  2
_FILLED
  0
ENDTAB
  0
TABLE
  2
DIMSTYLE
  5
A
100
AcDbSymbolTable
 70
1
100
AcDbDimStyleTable
 71
0
  0
DIMSTYLE
105
213
100
AcDbSymbolTableRecord
100
AcDbDimStyleTableRecord
  2
STANDARD
 70
0
  3

  4

 40
1.0
 41
4.7851945803
 42
1.0
 43
0.38
 44
1.0
 45
0.0
 46
0.0
 47
0.01
 48
0.01
140
6.6992724124
141
0.09
142
0.0
143
25.4
144
1.0
145
0.0
146
1.0
147
0.625
 71
1
 72
0
 73
0
 74
0
 75
0
 76
0
 77
1
 78
8
 79
2
170
0
171
1
172
0
173
0
174
0
175
0
176
0
177
0
178
0
270
2
179
2
271
2
272
2
273
2
274
2
275
0
280
0
281
0
282
0
283
1
284
8
285
0
286
0
287
3
288
0
340
11
278
46
341
212
342
212
343
212
344
212
  0
ENDTAB
  0
ENDSEC
  0
SECTION
  2
BLOCKS
  0
BLOCK
  5
20
100
AcDbEntity
  8
0
100
AcDbBlockBegin
  2
*Model_Space
 70
0
 10
0.0
 20
0.0
 30
0.0
  3
*Model_Space
  1

  0
ENDBLK
  5
21
100
AcDbEntity
  8
0
100
AcDbBlockEnd
  0
BLOCK
  5
1C
100
AcDbEntity
  8
0
100
AcDbBlockBegin
  2
*Paper_Space
 70
0
 10
0.0
 20
0.0
 30
0.0
  3
*Paper_Space
  1

  0
ENDBLK
  5
1D
100
AcDbEntity
  8
0
100
AcDbBlockEnd
  0
BLOCK
  5
214
100
AcDbEntity
  8
0
100
AcDbBlockBegin
  2
_FILLED
 70
64
 10
0.0
 20
0.0
  3
_FILLED
  1

  0
SOLID
  5
215
100
AcDbEntity
  8
0
  6
BYBLOCK
 62
0
100
AcDbTrace
 10
0.0
 20
0.0
 11
-1.0
 21
0.25
 12
-1.0
 22
-0.25
 13
-1.0
 23
-0.25
  0
ENDBLK
  5
216
100
AcDbEntity
  8
0
  6
BYBLOCK
 62
0
100
AcDbBlockEnd
  0
ENDSEC
  0
SECTION
  2
ENTITIES
  0
LINE
  5
217
100
AcDbEntity
  8
0
100
AcDbLine
 62
7
  6
CONTINUOUS
 10
61.2614336495
 20
37.9219349197
 11
346.2614336495
 21
37.9219349197
  0
LINE
  5
218
100
AcDbEntity
  8
0
100
AcDbLine
 62
7
  6
CONTINUOUS
 10
334.2614336538
 20
64.4219349197
 11
73.2614336537
 21
64.4219349197
  0
LINE
  5
219
100
AcDbEntity
  8
0
100
AcDbLine
 62
7
  6
CONTINUOUS
 10
82.0114336495
 20
79.1219349197
 11
127.5114336495
 21
79.1219349197
  0
LINE
  5
21A
100
AcDbEntity
  8
0
100
AcDbLine
 62
7
  6
CONTINUOUS
 10
285.7078655918
 20
79.4619349197
 11
301.8266163445
 21
79.4619349197
  0
LINE
  5
21B
100
AcDbEntity
  8
0
100
AcDbLine
 62
7
  6
CONTINUOUS
 10
121.9114336495
 20
83.4719349197
 11
115.5114336495
 21
83.4719349197
  0
LINE
  5
21C
100
AcDbEntity
  8
0
100
AcDbLine
 62
7
  6
CONTINUOUS
 10
111.9114336495
 20
83.4719349197
 11
107.6114336495
 21
83.4719349197
  0
LINE
  5
21D
100
AcDbEntity
  8
0
100
AcDbLine
 62
7
  6
CONTINUOUS
 10
101.9114336495
 20
83.4719349197
 11
97.6114336495
 21
83.4719349197
  0
LINE
  5
21E
100
AcDbEntity
  8
0
100
AcDbLine
 62
7
  6
CONTINUOUS
 10
94.0114336495
 20
83.4719349197
 11
87.6114336495
 21
83.4719349197
  0
LINE
  5
21F
100
AcDbEntity
  8
0
100
AcDbLine
 62
7
  6
CONTINUOUS
 10
91.9114336495
 20
87.2419349197
 11
94.0114336495
 21
87.2419349197
  0
LINE
  5
220
100
AcDbEntity
  8
0
100
AcDbLine
 62
7
  6
CONTINUOUS
 10
115.5114336495
 20
87.2419349197
 11
117.6114336495
 21
87.2419349197
  0
LINE
  5
221
100
AcDbEntity
  8
0
100
AcDbLine
 62
7
  6
CONTINUOUS
 10
114.0114336495
 20
87.3219349197
 11
111.9114336495
 21
87.3219349197
  0
LINE
  5
222
100
AcDbEntity
  8
0
100
AcDbLine
 62
7
  6
CONTINUOUS
 10
97.6114336495
 20
87.3219349197
 11
95.5114336495
 21
87.3219349197
  0
LINE
  5
223
100
AcDbEntity
  8
0
100
AcDbLine
 62
7
  6
CONTINUOUS
 10
87.6114336495
 20
89.1719349197
 11
91.9114336495
 21
89.1719349197
  0
LINE
  5
224
100
AcDbEntity
  8
0
100
AcDbLine
 62
7
  6
CONTINUOUS
 10
95.5114336495
 20
89.1719349197
 11
101.9114336495
 21
89.1719349197
  0
LINE
  5
225
100
AcDbEntity
  8
0
100
AcDbLine
 62
7
  6
CONTINUOUS
 10
107.6114336495
 20
89.1719349197
 11
114.0114336495
 21
89.1719349197
  0
LINE
  5
226
100
AcDbEntity
  8
0
100
AcDbLine
 62
7
  6
CONTINUOUS
 10
117.6114336495
 20
89.1719349197
 11
121.9114336495
 21
89.1719349197
  0
LINE
  5
227
100
AcDbEntity
  8
0
100
AcDbLine
 62
7
  6
CONTINUOUS
 10
127.5114336495
 20
97.6219349197
 11
82.0114336495
 21
97.6219349197
  0
LINE
  5
228
100
AcDbEntity
  8
0
100
AcDbLine
 62
7
  6
CONTINUOUS
 10
84.7614336495
 20
124.2219349197
 11
130.2614336495
 21
124.2219349197
  0
LINE
  5
229
100
AcDbEntity
  8
0
100
AcDbLine
 62
7
  6
CONTINUOUS
 10
124.6614336495
 20
132.6719349197
 11
120.3614336495
 21
132.6719349197
  0
LINE
  5
22A
100
AcDbEntity
  8
0
100
AcDbLine
 62
7
  6
CONTINUOUS
 10
116.7614336495
 20
132.6719349197
 11
110.3614336495
 21
132.6719349197
  0
LINE
  5
22B
100
AcDbEntity
  8
0
100
AcDbLine
 62
7
  6
CONTINUOUS
 10
104.6614336495
 20
132.6719349197
 11
98.2614336495
 21
132.6719349197
  0
LINE
  5
22C
100
AcDbEntity
  8
0
100
AcDbLine
 62
7
  6
CONTINUOUS
 10
94.6614336495
 20
132.6719349197
 11
90.3614336495
 21
132.6719349197
  0
LINE
  5
22D
100
AcDbEntity
  8
0
100
AcDbLine
 62
7
  6
CONTINUOUS
 10
61.2614336495
 20
37.9219349197
 11
61.2614336495
 21
497.9219349197
  0
LINE
  5
22E
100
AcDbEntity
  8
0
100
AcDbLine
 62
7
  6
CONTINUOUS
 10
73.2614336537
 20
64.4219349197
 11
73.2614336537
 21
457.4219349197
  0
LINE
  5
22F
100
AcDbEntity
  8
0
100
AcDbLine
 62
7
  6
CONTINUOUS
 10
98.2614336495
 20
134.5219349197
 11
100.3614336495
 21
134.5219349197
  0
LINE
  5
230
100
AcDbEntity
  8
0
100
AcDbLine
 62
7
  6
CONTINUOUS
 10
114.6614336495
 20
134.5219349197
 11
116.7614336495
 21
134.5219349197
  0
LINE
  5
231
100
AcDbEntity
  8
0
100
AcDbLine
 62
7
  6
CONTINUOUS
 10
120.3614336495
 20
134.6019349197
 11
118.2614336495
 21
134.6019349197
  0
LINE
  5
232
100
AcDbEntity
  8
0
100
AcDbLine
 62
7
  6
CONTINUOUS
 10
96.7614336495
 20
134.6019349197
 11
94.6614336495
 21
134.6019349197
  0
LINE
  5
233
100
AcDbEntity
  8
0
100
AcDbLine
 62
7
  6
CONTINUOUS
 10
90.3614336495
 20
138.3719349197
 11
96.7614336495
 21
138.3719349197
  0
LINE
  5
234
100
AcDbEntity
  8
0
100
AcDbLine
 62
7
  6
CONTINUOUS
 10
100.3614336495
 20
138.3719349197
 11
104.6614336495
 21
138.3719349197
  0
LINE
  5
235
100
AcDbEntity
  8
0
100
AcDbLine
 62
7
  6
CONTINUOUS
 10
110.3614336495
 20
138.3719349197
 11
114.6614336495
 21
138.3719349197
  0
LINE
  5
236
100
AcDbEntity
  8
0
100
AcDbLine
 62
7
  6
CONTINUOUS
 10
118.2614336495
 20
138.3719349197
 11
124.6614336495
 21
138.3719349197
  0
LINE
  5
237
100
AcDbEntity
  8
0
100
AcDbLine
 62
7
  6
CONTINUOUS
 10
130.2614336495
 20
142.7219349197
 11
84.7614336495
 21
142.7219349197
  0
LINE
  5
238
100
AcDbEntity
  8
0
100
AcDbLine
 62
7
  6
CONTINUOUS
 10
82.0114336495
 20
97.6219349197
 11
82.0114336495
 21
79.1219349197
  0
LINE
  5
239
100
AcDbEntity
  8
0
100
AcDbLine
 62
7
  6
CONTINUOUS
 10
83.7614336495
 20
238.1219349197
 11
83.7614336495
 21
268.1219349197
  0
LINE
  5
23A
100
AcDbEntity
  8
0
100
AcDbLine
 62
7
  6
CONTINUOUS
 10
84.7614336495
 20
142.7219349197
 11
84.7614336495
 21
124.2219349197
  0
LINE
  5
23B
100
AcDbEntity
  8
0
100
AcDbLine
 62
7
  6
CONTINUOUS
 10
87.6114336495
 20
83.4719349197
 11
87.6114336495
 21
89.1719349197
  0
LINE
  5
23C
100
AcDbEntity
  8
0
100
AcDbLine
 62
7
  6
CONTINUOUS
 10
90.3614336495
 20
132.6719349197
 11
90.3614336495
 21
138.3719349197
  0
LINE
  5
23D
100
AcDbEntity
  8
0
100
AcDbLine
 62
7
  6
CONTINUOUS
 10
91.9114336495
 20
89.1719349197
 11
91.9114336495
 21
87.2419349197
  0
LINE
  5
23E
100
AcDbEntity
  8
0
100
AcDbLine
 62
7
  6
CONTINUOUS
 10
94.0114336495
 20
87.2419349197
 11
94.0114336495
 21
83.4719349197
  0
LINE
  5
23F
100
AcDbEntity
  8
0
100
AcDbLine
 62
7
  6
CONTINUOUS
 10
94.6614336495
 20
134.6019349197
 11
94.6614336495
 21
132.6719349197
  0
LINE
  5
240
100
AcDbEntity
  8
0
100
AcDbLine
 62
7
  6
CONTINUOUS
 10
95.5114336495
 20
87.3219349197
 11
95.5114336495
 21
89.1719349197
  0
LINE
  5
241
100
AcDbEntity
  8
0
100
AcDbLine
 62
7
  6
CONTINUOUS
 10
96.7614336495
 20
138.3719349197
 11
96.7614336495
 21
134.6019349197
  0
LINE
  5
242
100
AcDbEntity
  8
0
100
AcDbLine
 62
7
  6
CONTINUOUS
 10
97.6114336495
 20
83.4719349197
 11
97.6114336495
 21
87.3219349197
  0
LINE
  5
243
100
AcDbEntity
  8
0
100
AcDbLine
 62
7
  6
CONTINUOUS
 10
98.2614336495
 20
132.6719349197
 11
98.2614336495
 21
134.5219349197
  0
LINE
  5
244
100
AcDbEntity
  8
0
100
AcDbLine
 62
7
  6
CONTINUOUS
 10
100.3614336495
 20
134.5219349197
 11
100.3614336495
 21
138.3719349197
  0
LINE
  5
245
100
AcDbEntity
  8
0
100
AcDbLine
 62
7
  6
CONTINUOUS
 10
101.9114336495
 20
89.1719349197
 11
101.9114336495
 21
83.4719349197
  0
LINE
  5
246
100
AcDbEntity
  8
0
100
AcDbLine
 62
7
  6
CONTINUOUS
 10
104.6614336495
 20
138.3719349197
 11
104.6614336495
 21
132.6719349197
  0
LINE
  5
247
100
AcDbEntity
  8
0
100
AcDbLine
 62
7
  6
CONTINUOUS
 10
107.6114336495
 20
83.4719349197
 11
107.6114336495
 21
89.1719349197
  0
LINE
  5
248
100
AcDbEntity
  8
0
100
AcDbLine
 62
7
  6
CONTINUOUS
 10
110.3614336495
 20
132.6719349197
 11
110.3614336495
 21
138.3719349197
  0
LINE
  5
249
100
AcDbEntity
  8
0
100
AcDbLine
 62
7
  6
CONTINUOUS
 10
111.9114336495
 20
87.3219349197
 11
111.9114336495
 21
83.4719349197
  0
LINE
  5
24A
100
AcDbEntity
  8
0
100
AcDbLine
 62
7
  6
CONTINUOUS
 10
114.0114336495
 20
89.1719349197
 11
114.0114336495
 21
87.3219349197
  0
LINE
  5
24B
100
AcDbEntity
  8
0
100
AcDbLine
 62
7
  6
CONTINUOUS
 10
114.6614336495
 20
138.3719349197
 11
114.6614336495
 21
134.5219349197
  0
LINE
  5
24C
100
AcDbEntity
  8
0
100
AcDbLine
 62
7
  6
CONTINUOUS
 10
115.5114336495
 20
83.4719349197
 11
115.5114336495
 21
87.2419349197
  0
LINE
  5
24D
100
AcDbEntity
  8
0
100
AcDbLine
 62
7
  6
CONTINUOUS
 10
116.7614336495
 20
134.5219349197
 11
116.7614336495
 21
132.6719349197
  0
LINE
  5
24E
100
AcDbEntity
  8
0
100
AcDbLine
 62
7
  6
CONTINUOUS
 10
117.6114336495
 20
87.2419349197
 11
117.6114336495
 21
89.1719349197
  0
LINE
  5
24F
100
AcDbEntity
  8
0
100
AcDbLine
 62
7
  6
CONTINUOUS
 10
118.2614336495
 20
134.6019349197
 11
118.2614336495
 21
138.3719349197
  0
LINE
  5
250
100
AcDbEntity
  8
0
100
AcDbLine
 62
7
  6
CONTINUOUS
 10
120.3614336495
 20
132.6719349197
 11
120.3614336495
 21
134.6019349197
  0
LINE
  5
251
100
AcDbEntity
  8
0
100
AcDbLine
 62
7
  6
CONTINUOUS
 10
121.9114336495
 20
89.1719349197
 11
121.9114336495
 21
83.4719349197
  0
LINE
  5
252
100
AcDbEntity
  8
0
100
AcDbLine
 62
7
  6
CONTINUOUS
 10
124.6614336495
 20
138.3719349197
 11
124.6614336495
 21
132.6719349197
  0
LINE
  5
253
100
AcDbEntity
  8
0
100
AcDbLine
 62
7
  6
CONTINUOUS
 10
124.7614336495
 20
377.8219349197
 11
124.7614336495
 21
457.4219349197
  0
LINE
  5
254
100
AcDbEntity
  8
0
100
AcDbLine
 62
7
  6
CONTINUOUS
 10
127.5114336495
 20
79.1219349197
 11
127.5114336495
 21
97.6219349197
  0
LINE
  5
255
100
AcDbEntity
  8
0
100
AcDbLine
 62
7
  6
CONTINUOUS
 10
130.2614336495
 20
124.2219349197
 11
130.2614336495
 21
142.7219349197
  0
LINE
  5
256
100
AcDbEntity
  8
0
100
AcDbLine
 62
7
  6
CONTINUOUS
 10
158.4114336495
 20
373.7719349197
 11
158.4114336495
 21
382.0719349197
  0
LINE
  5
257
100
AcDbEntity
  8
0
100
AcDbLine
 62
7
  6
CONTINUOUS
 10
158.4114336495
 20
384.0719349197
 11
158.4114336495
 21
392.3719349197
  0
LINE
  5
258
100
AcDbEntity
  8
0
100
AcDbLine
 62
7
  6
CONTINUOUS
 10
158.4114336495
 20
394.3719349197
 11
158.4114336495
 21
402.6719349197
  0
LINE
  5
259
100
AcDbEntity
  8
0
100
AcDbLine
 62
7
  6
CONTINUOUS
 10
158.4114336495
 20
404.6719349197
 11
158.4114336495
 21
412.9719349197
  0
LINE
  5
25A
100
AcDbEntity
  8
0
100
AcDbLine
 62
7
  6
CONTINUOUS
 10
158.4114336495
 20
414.9719349197
 11
158.4114336495
 21
423.2719349197
  0
LINE
  5
25B
100
AcDbEntity
  8
0
100
AcDbLine
 62
7
  6
CONTINUOUS
 10
158.4114336495
 20
425.2719349197
 11
158.4114336495
 21
433.5719349197
  0
LINE
  5
25C
100
AcDbEntity
  8
0
100
AcDbLine
 62
7
  6
CONTINUOUS
 10
158.4114336495
 20
435.5719349197
 11
158.4114336495
 21
443.8719349197
  0
LINE
  5
25D
100
AcDbEntity
  8
0
100
AcDbLine
 62
7
  6
CONTINUOUS
 10
158.4114336495
 20
445.8719349197
 11
158.4114336495
 21
454.1719349197
  0
LINE
  5
25E
100
AcDbEntity
  8
0
100
AcDbLine
 62
7
  6
CONTINUOUS
 10
158.4114336495
 20
456.1719349197
 11
158.4114336495
 21
457.4219349197
  0
LINE
  5
25F
100
AcDbEntity
  8
0
100
AcDbLine
 62
7
  6
CONTINUOUS
 10
166.7114336495
 20
454.1719349197
 11
166.7114336495
 21
445.8719349197
  0
LINE
  5
260
100
AcDbEntity
  8
0
100
AcDbLine
 62
7
  6
CONTINUOUS
 10
166.7114336495
 20
443.8719349197
 11
166.7114336495
 21
435.5719349197
  0
LINE
  5
261
100
AcDbEntity
  8
0
100
AcDbLine
 62
7
  6
CONTINUOUS
 10
166.7114336495
 20
433.5719349197
 11
166.7114336495
 21
425.2719349197
  0
LINE
  5
262
100
AcDbEntity
  8
0
100
AcDbLine
 62
7
  6
CONTINUOUS
 10
166.7114336495
 20
423.2719349197
 11
166.7114336495
 21
414.9719349197
  0
LINE
  5
263
100
AcDbEntity
  8
0
100
AcDbLine
 62
7
  6
CONTINUOUS
 10
166.7114336495
 20
412.9719349197
 11
166.7114336495
 21
404.6719349197
  0
LINE
  5
264
100
AcDbEntity
  8
0
100
AcDbLine
 62
7
  6
CONTINUOUS
 10
166.7114336495
 20
402.6719349197
 11
166.7114336495
 21
394.3719349197
  0
LINE
  5
265
100
AcDbEntity
  8
0
100
AcDbLine
 62
7
  6
CONTINUOUS
 10
166.7114336495
 20
392.3719349197
 11
166.7114336495
 21
384.0719349197
  0
LINE
  5
266
100
AcDbEntity
  8
0
100
AcDbLine
 62
7
  6
CONTINUOUS
 10
166.7114336495
 20
382.0719349197
 11
166.7114336495
 21
373.7719349197
  0
LINE
  5
267
100
AcDbEntity
  8
0
100
AcDbLine
 62
7
  6
CONTINUOUS
 10
166.7114336495
 20
456.1719349197
 11
166.7114336495
 21
457.4219349197
  0
LINE
  5
268
100
AcDbEntity
  8
0
100
AcDbLine
 62
7
  6
CONTINUOUS
 10
302.7614336495
 20
238.1219349197
 11
83.7614336495
 21
238.1219349197
  0
LINE
  5
269
100
AcDbEntity
  8
0
100
AcDbLine
 62
7
  6
CONTINUOUS
 10
302.7614336495
 20
241.9219349197
 11
83.7614336495
 21
241.9219349197
  0
LINE
  5
26A
100
AcDbEntity
  8
0
100
AcDbLine
 62
7
  6
CONTINUOUS
 10
83.7614336495
 20
242.7219349197
 11
302.7614336495
 21
242.7219349197
  0
LINE
  5
26B
100
AcDbEntity
  8
0
100
AcDbLine
 62
7
  6
CONTINUOUS
 10
168.7114336495
 20
373.7719349197
 11
168.7114336495
 21
382.0719349197
  0
LINE
  5
26C
100
AcDbEntity
  8
0
100
AcDbLine
 62
7
  6
CONTINUOUS
 10
168.7114336495
 20
384.0719349197
 11
168.7114336495
 21
392.3719349197
  0
LINE
  5
26D
100
AcDbEntity
  8
0
100
AcDbLine
 62
7
  6
CONTINUOUS
 10
168.7114336495
 20
394.3719349197
 11
168.7114336495
 21
402.6719349197
  0
LINE
  5
26E
100
AcDbEntity
  8
0
100
AcDbLine
 62
7
  6
CONTINUOUS
 10
168.7114336495
 20
404.6719349197
 11
168.7114336495
 21
412.9719349197
  0
LINE
  5
26F
100
AcDbEntity
  8
0
100
AcDbLine
 62
7
  6
CONTINUOUS
 10
168.7114336495
 20
414.9719349197
 11
168.7114336495
 21
423.2719349197
  0
LINE
  5
270
100
AcDbEntity
  8
0
100
AcDbLine
 62
7
  6
CONTINUOUS
 10
168.7114336495
 20
425.2719349197
 11
168.7114336495
 21
433.5719349197
  0
LINE
  5
271
100
AcDbEntity
  8
0
100
AcDbLine
 62
7
  6
CONTINUOUS
 10
168.7114336495
 20
435.5719349197
 11
168.7114336495
 21
443.8719349197
  0
LINE
  5
272
100
AcDbEntity
  8
0
100
AcDbLine
 62
7
  6
CONTINUOUS
 10
168.7114336495
 20
445.8719349197
 11
168.7114336495
 21
454.1719349197
  0
LINE
  5
273
100
AcDbEntity
  8
0
100
AcDbLine
 62
7
  6
CONTINUOUS
 10
168.7114336495
 20
456.1719349197
 11
168.7114336495
 21
457.4219349197
  0
LINE
  5
274
100
AcDbEntity
  8
0
100
AcDbLine
 62
7
  6
CONTINUOUS
 10
177.0114336495
 20
454.1719349197
 11
177.0114336495
 21
445.8719349197
  0
LINE
  5
275
100
AcDbEntity
  8
0
100
AcDbLine
 62
7
  6
CONTINUOUS
 10
177.0114336495
 20
443.8719349197
 11
177.0114336495
 21
435.5719349197
  0
LINE
  5
276
100
AcDbEntity
  8
0
100
AcDbLine
 62
7
  6
CONTINUOUS
 10
177.0114336495
 20
433.5719349197
 11
177.0114336495
 21
425.2719349197
  0
LINE
  5
277
100
AcDbEntity
  8
0
100
AcDbLine
 62
7
  6
CONTINUOUS
 10
177.0114336495
 20
423.2719349197
 11
177.0114336495
 21
414.9719349197
  0
LINE
  5
278
100
AcDbEntity
  8
0
100
AcDbLine
 62
7
  6
CONTINUOUS
 10
177.0114336495
 20
412.9719349197
 11
177.0114336495
 21
404.6719349197
  0
LINE
  5
279
100
AcDbEntity
  8
0
100
AcDbLine
 62
7
  6
CONTINUOUS
 10
177.0114336495
 20
402.6719349197
 11
177.0114336495
 21
394.3719349197
  0
LINE
  5
27A
100
AcDbEntity
  8
0
100
AcDbLine
 62
7
  6
CONTINUOUS
 10
177.0114336495
 20
392.3719349197
 11
177.0114336495
 21
384.0719349197
  0
LINE
  5
27B
100
AcDbEntity
  8
0
100
AcDbLine
 62
7
  6
CONTINUOUS
 10
177.0114336495
 20
382.0719349197
 11
177.0114336495
 21
373.7719349197
  0
LINE
  5
27C
100
AcDbEntity
  8
0
100
AcDbLine
 62
7
  6
CONTINUOUS
 10
177.0114336495
 20
456.1719349197
 11
177.0114336495
 21
457.4219349197
  0
LINE
  5
27D
100
AcDbEntity
  8
0
100
AcDbLine
 62
7
  6
CONTINUOUS
 10
179.0114336495
 20
373.7719349197
 11
179.0114336495
 21
382.0719349197
  0
LINE
  5
27E
100
AcDbEntity
  8
0
100
AcDbLine
 62
7
  6
CONTINUOUS
 10
179.0114336495
 20
384.0719349197
 11
179.0114336495
 21
392.3719349197
  0
LINE
  5
27F
100
AcDbEntity
  8
0
100
AcDbLine
 62
7
  6
CONTINUOUS
 10
179.0114336495
 20
394.3719349197
 11
179.0114336495
 21
402.6719349197
  0
LINE
  5
280
100
AcDbEntity
  8
0
100
AcDbLine
 62
7
  6
CONTINUOUS
 10
179.0114336495
 20
404.6719349197
 11
179.0114336495
 21
412.9719349197
  0
LINE
  5
281
100
AcDbEntity
  8
0
100
AcDbLine
 62
7
  6
CONTINUOUS
 10
179.0114336495
 20
414.9719349197
 11
179.0114336495
 21
423.2719349197
  0
LINE
  5
282
100
AcDbEntity
  8
0
100
AcDbLine
 62
7
  6
CONTINUOUS
 10
179.0114336495
 20
425.2719349197
 11
179.0114336495
 21
433.5719349197
  0
LINE
  5
283
100
AcDbEntity
  8
0
100
AcDbLine
 62
7
  6
CONTINUOUS
 10
179.0114336495
 20
435.5719349197
 11
179.0114336495
 21
443.8719349197
  0
LINE
  5
284
100
AcDbEntity
  8
0
100
AcDbLine
 62
7
  6
CONTINUOUS
 10
179.0114336495
 20
445.8719349197
 11
179.0114336495
 21
454.1719349197
  0
LINE
  5
285
100
AcDbEntity
  8
0
100
AcDbLine
 62
7
  6
CONTINUOUS
 10
179.0114336495
 20
456.1719349197
 11
179.0114336495
 21
457.4219349197
  0
LINE
  5
286
100
AcDbEntity
  8
0
100
AcDbLine
 62
7
  6
CONTINUOUS
 10
187.3114336495
 20
454.1719349197
 11
187.3114336495
 21
445.8719349197
  0
LINE
  5
287
100
AcDbEntity
  8
0
100
AcDbLine
 62
7
  6
CONTINUOUS
 10
187.3114336495
 20
443.8719349197
 11
187.3114336495
 21
435.5719349197
  0
LINE
  5
288
100
AcDbEntity
  8
0
100
AcDbLine
 62
7
  6
CONTINUOUS
 10
187.3114336495
 20
433.5719349197
 11
187.3114336495
 21
425.2719349197
  0
LINE
  5
289
100
AcDbEntity
  8
0
100
AcDbLine
 62
7
  6
CONTINUOUS
 10
187.3114336495
 20
423.2719349197
 11
187.3114336495
 21
414.9719349197
  0
LINE
  5
28A
100
AcDbEntity
  8
0
100
AcDbLine
 62
7
  6
CONTINUOUS
 10
187.3114336495
 20
412.9719349197
 11
187.3114336495
 21
404.6719349197
  0
LINE
  5
28B
100
AcDbEntity
  8
0
100
AcDbLine
 62
7
  6
CONTINUOUS
 10
187.3114336495
 20
402.6719349197
 11
187.3114336495
 21
394.3719349197
  0
LINE
  5
28C
100
AcDbEntity
  8
0
100
AcDbLine
 62
7
  6
CONTINUOUS
 10
187.3114336495
 20
392.3719349197
 11
187.3114336495
 21
384.0719349197
  0
LINE
  5
28D
100
AcDbEntity
  8
0
100
AcDbLine
 62
7
  6
CONTINUOUS
 10
187.3114336495
 20
382.0719349197
 11
187.3114336495
 21
373.7719349197
  0
LINE
  5
28E
100
AcDbEntity
  8
0
100
AcDbLine
 62
7
  6
CONTINUOUS
 10
187.3114336495
 20
456.1719349197
 11
187.3114336495
 21
457.4219349197
  0
LINE
  5
28F
100
AcDbEntity
  8
0
100
AcDbLine
 62
7
  6
CONTINUOUS
 10
280.4853153473
 20
261.691364447
 11
262.1514336495
 21
261.691364447
  0
LINE
  5
290
100
AcDbEntity
  8
0
100
AcDbLine
 62
7
  6
CONTINUOUS
 10
258.5914336495
 20
261.691364447
 11
229.6514336495
 21
261.691364447
  0
LINE
  5
291
100
AcDbEntity
  8
0
100
AcDbLine
 62
7
  6
CONTINUOUS
 10
226.0914336495
 20
261.691364447
 11
212.0544854302
 21
261.691364447
  0
LINE
  5
292
100
AcDbEntity
  8
0
100
AcDbLine
 62
7
  6
CONTINUOUS
 10
189.3114336495
 20
373.7719349197
 11
189.3114336495
 21
382.0719349197
  0
LINE
  5
293
100
AcDbEntity
  8
0
100
AcDbLine
 62
7
  6
CONTINUOUS
 10
189.3114336495
 20
384.0719349197
 11
189.3114336495
 21
392.3719349197
  0
LINE
  5
294
100
AcDbEntity
  8
0
100
AcDbLine
 62
7
  6
CONTINUOUS
 10
189.3114336495
 20
394.3719349197
 11
189.3114336495
 21
402.6719349197
  0
LINE
  5
295
100
AcDbEntity
  8
0
100
AcDbLine
 62
7
  6
CONTINUOUS
 10
189.3114336495
 20
404.6719349197
 11
189.3114336495
 21
412.9719349197
  0
LINE
  5
296
100
AcDbEntity
  8
0
100
AcDbLine
 62
7
  6
CONTINUOUS
 10
189.3114336495
 20
414.9719349197
 11
189.3114336495
 21
423.2719349197
  0
LINE
  5
297
100
AcDbEntity
  8
0
100
AcDbLine
 62
7
  6
CONTINUOUS
 10
189.3114336495
 20
425.2719349197
 11
189.3114336495
 21
433.5719349197
  0
LINE
  5
298
100
AcDbEntity
  8
0
100
AcDbLine
 62
7
  6
CONTINUOUS
 10
189.3114336495
 20
435.5719349197
 11
189.3114336495
 21
443.8719349197
  0
LINE
  5
299
100
AcDbEntity
  8
0
100
AcDbLine
 62
7
  6
CONTINUOUS
 10
189.3114336495
 20
445.8719349197
 11
189.3114336495
 21
454.1719349197
  0
LINE
  5
29A
100
AcDbEntity
  8
0
100
AcDbLine
 62
7
  6
CONTINUOUS
 10
189.3114336495
 20
456.1719349197
 11
189.3114336495
 21
457.4219349197
  0
LINE
  5
29B
100
AcDbEntity
  8
0
100
AcDbLine
 62
7
  6
CONTINUOUS
 10
194.7614336453
 20
505.6219349197
 11
194.7614336453
 21
497.9219349197
  0
LINE
  5
29C
100
AcDbEntity
  8
0
100
AcDbLine
 62
7
  6
CONTINUOUS
 10
197.6114336495
 20
454.1719349197
 11
197.6114336495
 21
445.8719349197
  0
LINE
  5
29D
100
AcDbEntity
  8
0
100
AcDbLine
 62
7
  6
CONTINUOUS
 10
197.6114336495
 20
443.8719349197
 11
197.6114336495
 21
435.5719349197
  0
LINE
  5
29E
100
AcDbEntity
  8
0
100
AcDbLine
 62
7
  6
CONTINUOUS
 10
197.6114336495
 20
433.5719349197
 11
197.6114336495
 21
425.2719349197
  0
LINE
  5
29F
100
AcDbEntity
  8
0
100
AcDbLine
 62
7
  6
CONTINUOUS
 10
197.6114336495
 20
423.2719349197
 11
197.6114336495
 21
414.9719349197
  0
LINE
  5
2A0
100
AcDbEntity
  8
0
100
AcDbLine
 62
7
  6
CONTINUOUS
 10
197.6114336495
 20
412.9719349197
 11
197.6114336495
 21
404.6719349197
  0
LINE
  5
2A1
100
AcDbEntity
  8
0
100
AcDbLine
 62
7
  6
CONTINUOUS
 10
197.6114336495
 20
402.6719349197
 11
197.6114336495
 21
394.3719349197
  0
LINE
  5
2A2
100
AcDbEntity
  8
0
100
AcDbLine
 62
7
  6
CONTINUOUS
 10
197.6114336495
 20
392.3719349197
 11
197.6114336495
 21
384.0719349197
  0
LINE
  5
2A3
100
AcDbEntity
  8
0
100
AcDbLine
 62
7
  6
CONTINUOUS
 10
197.6114336495
 20
382.0719349197
 11
197.6114336495
 21
373.7719349197
  0
LINE
  5
2A4
100
AcDbEntity
  8
0
100
AcDbLine
 62
7
  6
CONTINUOUS
 10
197.6114336495
 20
456.1719349197
 11
197.6114336495
 21
457.4219349197
  0
LINE
  5
2A5
100
AcDbEntity
  8
0
100
AcDbLine
 62
7
  6
CONTINUOUS
 10
199.6114336495
 20
373.7719349197
 11
199.6114336495
 21
382.0719349197
  0
LINE
  5
2A6
100
AcDbEntity
  8
0
100
AcDbLine
 62
7
  6
CONTINUOUS
 10
199.6114336495
 20
384.0719349197
 11
199.6114336495
 21
392.3719349197
  0
LINE
  5
2A7
100
AcDbEntity
  8
0
100
AcDbLine
 62
7
  6
CONTINUOUS
 10
199.6114336495
 20
394.3719349197
 11
199.6114336495
 21
402.6719349197
  0
LINE
  5
2A8
100
AcDbEntity
  8
0
100
AcDbLine
 62
7
  6
CONTINUOUS
 10
199.6114336495
 20
404.6719349197
 11
199.6114336495
 21
412.9719349197
  0
LINE
  5
2A9
100
AcDbEntity
  8
0
100
AcDbLine
 62
7
  6
CONTINUOUS
 10
199.6114336495
 20
414.9719349197
 11
199.6114336495
 21
423.2719349197
  0
LINE
  5
2AA
100
AcDbEntity
  8
0
100
AcDbLine
 62
7
  6
CONTINUOUS
 10
199.6114336495
 20
425.2719349197
 11
199.6114336495
 21
433.5719349197
  0
LINE
  5
2AB
100
AcDbEntity
  8
0
100
AcDbLine
 62
7
  6
CONTINUOUS
 10
199.6114336495
 20
435.5719349197
 11
199.6114336495
 21
443.8719349197
  0
LINE
  5
2AC
100
AcDbEntity
  8
0
100
AcDbLine
 62
7
  6
CONTINUOUS
 10
199.6114336495
 20
445.8719349197
 11
199.6114336495
 21
454.1719349197
  0
LINE
  5
2AD
100
AcDbEntity
  8
0
100
AcDbLine
 62
7
  6
CONTINUOUS
 10
199.6114336495
 20
456.1719349197
 11
199.6114336495
 21
457.4219349197
  0
LINE
  5
2AE
100
AcDbEntity
  8
0
100
AcDbLine
 62
7
  6
CONTINUOUS
 10
200.7614556333
 20
504.866346916
 11
200.7614556333
 21
525.4717572446
  0
LINE
  5
2AF
100
AcDbEntity
  8
0
100
AcDbLine
 62
7
  6
CONTINUOUS
 10
302.7614336495
 20
268.1219349197
 11
83.7614336495
 21
268.1219349197
  0
LINE
  5
2B0
100
AcDbEntity
  8
0
100
AcDbLine
 62
7
  6
CONTINUOUS
 10
206.7614116573
 20
504.866346916
 11
206.7614116573
 21
525.4717572446
  0
LINE
  5
2B1
100
AcDbEntity
  8
0
100
AcDbLine
 62
7
  6
CONTINUOUS
 10
207.9114336495
 20
454.1719349197
 11
207.9114336495
 21
445.8719349197
  0
LINE
  5
2B2
100
AcDbEntity
  8
0
100
AcDbLine
 62
7
  6
CONTINUOUS
 10
207.9114336495
 20
443.8719349197
 11
207.9114336495
 21
435.5719349197
  0
LINE
  5
2B3
100
AcDbEntity
  8
0
100
AcDbLine
 62
7
  6
CONTINUOUS
 10
207.9114336495
 20
433.5719349197
 11
207.9114336495
 21
425.2719349197
  0
LINE
  5
2B4
100
AcDbEntity
  8
0
100
AcDbLine
 62
7
  6
CONTINUOUS
 10
207.9114336495
 20
423.2719349197
 11
207.9114336495
 21
414.9719349197
  0
LINE
  5
2B5
100
AcDbEntity
  8
0
100
AcDbLine
 62
7
  6
CONTINUOUS
 10
207.9114336495
 20
412.9719349197
 11
207.9114336495
 21
404.6719349197
  0
LINE
  5
2B6
100
AcDbEntity
  8
0
100
AcDbLine
 62
7
  6
CONTINUOUS
 10
207.9114336495
 20
402.6719349197
 11
207.9114336495
 21
394.3719349197
  0
LINE
  5
2B7
100
AcDbEntity
  8
0
100
AcDbLine
 62
7
  6
CONTINUOUS
 10
207.9114336495
 20
392.3719349197
 11
207.9114336495
 21
384.0719349197
  0
LINE
  5
2B8
100
AcDbEntity
  8
0
100
AcDbLine
 62
7
  6
CONTINUOUS
 10
207.9114336495
 20
382.0719349197
 11
207.9114336495
 21
373.7719349197
  0
LINE
  5
2B9
100
AcDbEntity
  8
0
100
AcDbLine
 62
7
  6
CONTINUOUS
 10
207.9114336495
 20
456.1719349197
 11
207.9114336495
 21
457.4219349197
  0
LINE
  5
2BA
100
AcDbEntity
  8
0
100
AcDbLine
 62
7
  6
CONTINUOUS
 10
209.9114336495
 20
373.7719349197
 11
209.9114336495
 21
382.0719349197
  0
LINE
  5
2BB
100
AcDbEntity
  8
0
100
AcDbLine
 62
7
  6
CONTINUOUS
 10
209.9114336495
 20
384.0719349197
 11
209.9114336495
 21
392.3719349197
  0
LINE
  5
2BC
100
AcDbEntity
  8
0
100
AcDbLine
 62
7
  6
CONTINUOUS
 10
209.9114336495
 20
394.3719349197
 11
209.9114336495
 21
402.6719349197
  0
LINE
  5
2BD
100
AcDbEntity
  8
0
100
AcDbLine
 62
7
  6
CONTINUOUS
 10
209.9114336495
 20
404.6719349197
 11
209.9114336495
 21
412.9719349197
  0
LINE
  5
2BE
100
AcDbEntity
  8
0
100
AcDbLine
 62
7
  6
CONTINUOUS
 10
209.9114336495
 20
414.9719349197
 11
209.9114336495
 21
423.2719349197
  0
LINE
  5
2BF
100
AcDbEntity
  8
0
100
AcDbLine
 62
7
  6
CONTINUOUS
 10
209.9114336495
 20
425.2719349197
 11
209.9114336495
 21
433.5719349197
  0
LINE
  5
2C0
100
AcDbEntity
  8
0
100
AcDbLine
 62
7
  6
CONTINUOUS
 10
209.9114336495
 20
435.5719349197
 11
209.9114336495
 21
443.8719349197
  0
LINE
  5
2C1
100
AcDbEntity
  8
0
100
AcDbLine
 62
7
  6
CONTINUOUS
 10
209.9114336495
 20
445.8719349197
 11
209.9114336495
 21
454.1719349197
  0
LINE
  5
2C2
100
AcDbEntity
  8
0
100
AcDbLine
 62
7
  6
CONTINUOUS
 10
209.9114336495
 20
456.1719349197
 11
209.9114336495
 21
457.4219349197
  0
LINE
  5
2C3
100
AcDbEntity
  8
0
100
AcDbLine
 62
7
  6
CONTINUOUS
 10
212.7614336453
 20
505.6219349197
 11
212.7614336453
 21
497.9219349197
  0
LINE
  5
2C4
100
AcDbEntity
  8
0
100
AcDbLine
 62
7
  6
CONTINUOUS
 10
218.2114336495
 20
454.1719349197
 11
218.2114336495
 21
445.8719349197
  0
LINE
  5
2C5
100
AcDbEntity
  8
0
100
AcDbLine
 62
7
  6
CONTINUOUS
 10
218.2114336495
 20
443.8719349197
 11
218.2114336495
 21
435.5719349197
  0
LINE
  5
2C6
100
AcDbEntity
  8
0
100
AcDbLine
 62
7
  6
CONTINUOUS
 10
218.2114336495
 20
433.5719349197
 11
218.2114336495
 21
425.2719349197
  0
LINE
  5
2C7
100
AcDbEntity
  8
0
100
AcDbLine
 62
7
  6
CONTINUOUS
 10
218.2114336495
 20
423.2719349197
 11
218.2114336495
 21
414.9719349197
  0
LINE
  5
2C8
100
AcDbEntity
  8
0
100
AcDbLine
 62
7
  6
CONTINUOUS
 10
218.2114336495
 20
412.9719349197
 11
218.2114336495
 21
404.6719349197
  0
LINE
  5
2C9
100
AcDbEntity
  8
0
100
AcDbLine
 62
7
  6
CONTINUOUS
 10
218.2114336495
 20
402.6719349197
 11
218.2114336495
 21
394.3719349197
  0
LINE
  5
2CA
100
AcDbEntity
  8
0
100
AcDbLine
 62
7
  6
CONTINUOUS
 10
218.2114336495
 20
392.3719349197
 11
218.2114336495
 21
384.0719349197
  0
LINE
  5
2CB
100
AcDbEntity
  8
0
100
AcDbLine
 62
7
  6
CONTINUOUS
 10
218.2114336495
 20
382.0719349197
 11
218.2114336495
 21
373.7719349197
  0
LINE
  5
2CC
100
AcDbEntity
  8
0
100
AcDbLine
 62
7
  6
CONTINUOUS
 10
218.2114336495
 20
456.1719349197
 11
218.2114336495
 21
457.4219349197
  0
LINE
  5
2CD
100
AcDbEntity
  8
0
100
AcDbLine
 62
7
  6
CONTINUOUS
 10
220.2114336495
 20
373.7719349197
 11
220.2114336495
 21
382.0719349197
  0
LINE
  5
2CE
100
AcDbEntity
  8
0
100
AcDbLine
 62
7
  6
CONTINUOUS
 10
220.2114336495
 20
384.0719349197
 11
220.2114336495
 21
392.3719349197
  0
LINE
  5
2CF
100
AcDbEntity
  8
0
100
AcDbLine
 62
7
  6
CONTINUOUS
 10
220.2114336495
 20
394.3719349197
 11
220.2114336495
 21
402.6719349197
  0
LINE
  5
2D0
100
AcDbEntity
  8
0
100
AcDbLine
 62
7
  6
CONTINUOUS
 10
220.2114336495
 20
404.6719349197
 11
220.2114336495
 21
412.9719349197
  0
LINE
  5
2D1
100
AcDbEntity
  8
0
100
AcDbLine
 62
7
  6
CONTINUOUS
 10
220.2114336495
 20
414.9719349197
 11
220.2114336495
 21
423.2719349197
  0
LINE
  5
2D2
100
AcDbEntity
  8
0
100
AcDbLine
 62
7
  6
CONTINUOUS
 10
220.2114336495
 20
425.2719349197
 11
220.2114336495
 21
433.5719349197
  0
LINE
  5
2D3
100
AcDbEntity
  8
0
100
AcDbLine
 62
7
  6
CONTINUOUS
 10
220.2114336495
 20
435.5719349197
 11
220.2114336495
 21
443.8719349197
  0
LINE
  5
2D4
100
AcDbEntity
  8
0
100
AcDbLine
 62
7
  6
CONTINUOUS
 10
220.2114336495
 20
445.8719349197
 11
220.2114336495
 21
454.1719349197
  0
LINE
  5
2D5
100
AcDbEntity
  8
0
100
AcDbLine
 62
7
  6
CONTINUOUS
 10
220.2114336495
 20
456.1719349197
 11
220.2114336495
 21
457.4219349197
  0
LINE
  5
2D6
100
AcDbEntity
  8
0
100
AcDbLine
 62
7
  6
CONTINUOUS
 10
236.9496855723
 20
246.7674160281
 11
229.6514336495
 21
261.691364447
  0
LINE
  5
2D7
100
AcDbEntity
  8
0
100
AcDbLine
 62
7
  6
CONTINUOUS
 10
228.5114336495
 20
454.1719349197
 11
228.5114336495
 21
445.8719349197
  0
LINE
  5
2D8
100
AcDbEntity
  8
0
100
AcDbLine
 62
7
  6
CONTINUOUS
 10
228.5114336495
 20
443.8719349197
 11
228.5114336495
 21
435.5719349197
  0
LINE
  5
2D9
100
AcDbEntity
  8
0
100
AcDbLine
 62
7
  6
CONTINUOUS
 10
228.5114336495
 20
433.5719349197
 11
228.5114336495
 21
425.2719349197
  0
LINE
  5
2DA
100
AcDbEntity
  8
0
100
AcDbLine
 62
7
  6
CONTINUOUS
 10
228.5114336495
 20
423.2719349197
 11
228.5114336495
 21
414.9719349197
  0
LINE
  5
2DB
100
AcDbEntity
  8
0
100
AcDbLine
 62
7
  6
CONTINUOUS
 10
228.5114336495
 20
412.9719349197
 11
228.5114336495
 21
404.6719349197
  0
LINE
  5
2DC
100
AcDbEntity
  8
0
100
AcDbLine
 62
7
  6
CONTINUOUS
 10
228.5114336495
 20
402.6719349197
 11
228.5114336495
 21
394.3719349197
  0
LINE
  5
2DD
100
AcDbEntity
  8
0
100
AcDbLine
 62
7
  6
CONTINUOUS
 10
228.5114336495
 20
392.3719349197
 11
228.5114336495
 21
384.0719349197
  0
LINE
  5
2DE
100
AcDbEntity
  8
0
100
AcDbLine
 62
7
  6
CONTINUOUS
 10
228.5114336495
 20
382.0719349197
 11
228.5114336495
 21
373.7719349197
  0
LINE
  5
2DF
100
AcDbEntity
  8
0
100
AcDbLine
 62
7
  6
CONTINUOUS
 10
228.5114336495
 20
456.1719349197
 11
228.5114336495
 21
457.4219349197
  0
LINE
  5
2E0
100
AcDbEntity
  8
0
100
AcDbLine
 62
7
  6
CONTINUOUS
 10
230.5114336495
 20
373.7719349197
 11
230.5114336495
 21
382.0719349197
  0
LINE
  5
2E1
100
AcDbEntity
  8
0
100
AcDbLine
 62
7
  6
CONTINUOUS
 10
230.5114336495
 20
384.0719349197
 11
230.5114336495
 21
392.3719349197
  0
LINE
  5
2E2
100
AcDbEntity
  8
0
100
AcDbLine
 62
7
  6
CONTINUOUS
 10
230.5114336495
 20
394.3719349197
 11
230.5114336495
 21
402.6719349197
  0
LINE
  5
2E3
100
AcDbEntity
  8
0
100
AcDbLine
 62
7
  6
CONTINUOUS
 10
230.5114336495
 20
404.6719349197
 11
230.5114336495
 21
412.9719349197
  0
LINE
  5
2E4
100
AcDbEntity
  8
0
100
AcDbLine
 62
7
  6
CONTINUOUS
 10
230.5114336495
 20
414.9719349197
 11
230.5114336495
 21
423.2719349197
  0
LINE
  5
2E5
100
AcDbEntity
  8
0
100
AcDbLine
 62
7
  6
CONTINUOUS
 10
230.5114336495
 20
425.2719349197
 11
230.5114336495
 21
433.5719349197
  0
LINE
  5
2E6
100
AcDbEntity
  8
0
100
AcDbLine
 62
7
  6
CONTINUOUS
 10
230.5114336495
 20
435.5719349197
 11
230.5114336495
 21
443.8719349197
  0
LINE
  5
2E7
100
AcDbEntity
  8
0
100
AcDbLine
 62
7
  6
CONTINUOUS
 10
230.5114336495
 20
445.8719349197
 11
230.5114336495
 21
454.1719349197
  0
LINE
  5
2E8
100
AcDbEntity
  8
0
100
AcDbLine
 62
7
  6
CONTINUOUS
 10
230.5114336495
 20
456.1719349197
 11
230.5114336495
 21
457.4219349197
  0
LINE
  5
2E9
100
AcDbEntity
  8
0
100
AcDbLine
 62
7
  6
CONTINUOUS
 10
238.8114336495
 20
454.1719349197
 11
238.8114336495
 21
445.8719349197
  0
LINE
  5
2EA
100
AcDbEntity
  8
0
100
AcDbLine
 62
7
  6
CONTINUOUS
 10
238.8114336495
 20
443.8719349197
 11
238.8114336495
 21
435.5719349197
  0
LINE
  5
2EB
100
AcDbEntity
  8
0
100
AcDbLine
 62
7
  6
CONTINUOUS
 10
238.8114336495
 20
433.5719349197
 11
238.8114336495
 21
425.2719349197
  0
LINE
  5
2EC
100
AcDbEntity
  8
0
100
AcDbLine
 62
7
  6
CONTINUOUS
 10
238.8114336495
 20
423.2719349197
 11
238.8114336495
 21
414.9719349197
  0
LINE
  5
2ED
100
AcDbEntity
  8
0
100
AcDbLine
 62
7
  6
CONTINUOUS
 10
238.8114336495
 20
412.9719349197
 11
238.8114336495
 21
404.6719349197
  0
LINE
  5
2EE
100
AcDbEntity
  8
0
100
AcDbLine
 62
7
  6
CONTINUOUS
 10
238.8114336495
 20
402.6719349197
 11
238.8114336495
 21
394.3719349197
  0
LINE
  5
2EF
100
AcDbEntity
  8
0
100
AcDbLine
 62
7
  6
CONTINUOUS
 10
238.8114336495
 20
392.3719349197
 11
238.8114336495
 21
384.0719349197
  0
LINE
  5
2F0
100
AcDbEntity
  8
0
100
AcDbLine
 62
7
  6
CONTINUOUS
 10
238.8114336495
 20
382.0719349197
 11
238.8114336495
 21
373.7719349197
  0
LINE
  5
2F1
100
AcDbEntity
  8
0
100
AcDbLine
 62
7
  6
CONTINUOUS
 10
238.8114336495
 20
456.1719349197
 11
238.8114336495
 21
457.4219349197
  0
LINE
  5
2F2
100
AcDbEntity
  8
0
100
AcDbLine
 62
7
  6
CONTINUOUS
 10
240.8114336495
 20
373.7719349197
 11
240.8114336495
 21
382.0719349197
  0
LINE
  5
2F3
100
AcDbEntity
  8
0
100
AcDbLine
 62
7
  6
CONTINUOUS
 10
240.8114336495
 20
384.0719349197
 11
240.8114336495
 21
392.3719349197
  0
LINE
  5
2F4
100
AcDbEntity
  8
0
100
AcDbLine
 62
7
  6
CONTINUOUS
 10
240.8114336495
 20
394.3719349197
 11
240.8114336495
 21
402.6719349197
  0
LINE
  5
2F5
100
AcDbEntity
  8
0
100
AcDbLine
 62
7
  6
CONTINUOUS
 10
240.8114336495
 20
404.6719349197
 11
240.8114336495
 21
412.9719349197
  0
LINE
  5
2F6
100
AcDbEntity
  8
0
100
AcDbLine
 62
7
  6
CONTINUOUS
 10
240.8114336495
 20
414.9719349197
 11
240.8114336495
 21
423.2719349197
  0
LINE
  5
2F7
100
AcDbEntity
  8
0
100
AcDbLine
 62
7
  6
CONTINUOUS
 10
240.8114336495
 20
425.2719349197
 11
240.8114336495
 21
433.5719349197
  0
LINE
  5
2F8
100
AcDbEntity
  8
0
100
AcDbLine
 62
7
  6
CONTINUOUS
 10
240.8114336495
 20
435.5719349197
 11
240.8114336495
 21
443.8719349197
  0
LINE
  5
2F9
100
AcDbEntity
  8
0
100
AcDbLine
 62
7
  6
CONTINUOUS
 10
240.8114336495
 20
445.8719349197
 11
240.8114336495
 21
454.1719349197
  0
LINE
  5
2FA
100
AcDbEntity
  8
0
100
AcDbLine
 62
7
  6
CONTINUOUS
 10
240.8114336495
 20
456.1719349197
 11
240.8114336495
 21
457.4219349197
  0
LINE
  5
2FB
100
AcDbEntity
  8
0
100
AcDbLine
 62
7
  6
CONTINUOUS
 10
226.0914336495
 20
261.691364447
 11
221.8970789015
 21
253.1182621027
  0
LINE
  5
2FC
100
AcDbEntity
  8
0
100
AcDbLine
 62
7
  6
CONTINUOUS
 10
249.1114336495
 20
454.1719349197
 11
249.1114336495
 21
445.8719349197
  0
LINE
  5
2FD
100
AcDbEntity
  8
0
100
AcDbLine
 62
7
  6
CONTINUOUS
 10
249.1114336495
 20
443.8719349197
 11
249.1114336495
 21
435.5719349197
  0
LINE
  5
2FE
100
AcDbEntity
  8
0
100
AcDbLine
 62
7
  6
CONTINUOUS
 10
249.1114336495
 20
433.5719349197
 11
249.1114336495
 21
425.2719349197
  0
LINE
  5
2FF
100
AcDbEntity
  8
0
100
AcDbLine
 62
7
  6
CONTINUOUS
 10
249.1114336495
 20
423.2719349197
 11
249.1114336495
 21
414.9719349197
  0
LINE
  5
300
100
AcDbEntity
  8
0
100
AcDbLine
 62
7
  6
CONTINUOUS
 10
249.1114336495
 20
412.9719349197
 11
249.1114336495
 21
404.6719349197
  0
LINE
  5
301
100
AcDbEntity
  8
0
100
AcDbLine
 62
7
  6
CONTINUOUS
 10
249.1114336495
 20
402.6719349197
 11
249.1114336495
 21
394.3719349197
  0
LINE
  5
302
100
AcDbEntity
  8
0
100
AcDbLine
 62
7
  6
CONTINUOUS
 10
249.1114336495
 20
392.3719349197
 11
249.1114336495
 21
384.0719349197
  0
LINE
  5
303
100
AcDbEntity
  8
0
100
AcDbLine
 62
7
  6
CONTINUOUS
 10
249.1114336495
 20
382.0719349197
 11
249.1114336495
 21
373.7719349197
  0
LINE
  5
304
100
AcDbEntity
  8
0
100
AcDbLine
 62
7
  6
CONTINUOUS
 10
249.1114336495
 20
456.1719349197
 11
249.1114336495
 21
457.4219349197
  0
LINE
  5
305
100
AcDbEntity
  8
0
100
AcDbLine
 62
7
  6
CONTINUOUS
 10
258.5914336495
 20
261.691364447
 11
250.8308261751
 21
245.8289765162
  0
LINE
  5
306
100
AcDbEntity
  8
0
100
AcDbLine
 62
7
  6
CONTINUOUS
 10
267.3964415135
 20
250.966025332
 11
262.1514336495
 21
261.691364447
  0
LINE
  5
307
100
AcDbEntity
  8
0
100
AcDbLine
 62
7
  6
CONTINUOUS
 10
282.7614336495
 20
377.8219349197
 11
282.7614336495
 21
457.4219349197
  0
LINE
  5
308
100
AcDbEntity
  8
0
100
AcDbLine
 62
7
  6
CONTINUOUS
 10
249.1114336495
 20
373.7719349197
 11
240.8114336495
 21
373.7719349197
  0
LINE
  5
309
100
AcDbEntity
  8
0
100
AcDbLine
 62
7
  6
CONTINUOUS
 10
238.8114336495
 20
373.7719349197
 11
230.5114336495
 21
373.7719349197
  0
LINE
  5
30A
100
AcDbEntity
  8
0
100
AcDbLine
 62
7
  6
CONTINUOUS
 10
228.5114336495
 20
373.7719349197
 11
220.2114336495
 21
373.7719349197
  0
LINE
  5
30B
100
AcDbEntity
  8
0
100
AcDbLine
 62
7
  6
CONTINUOUS
 10
218.2114336495
 20
373.7719349197
 11
209.9114336495
 21
373.7719349197
  0
LINE
  5
30C
100
AcDbEntity
  8
0
100
AcDbLine
 62
7
  6
CONTINUOUS
 10
207.9114336495
 20
373.7719349197
 11
199.6114336495
 21
373.7719349197
  0
LINE
  5
30D
100
AcDbEntity
  8
0
100
AcDbLine
 62
7
  6
CONTINUOUS
 10
197.6114336495
 20
373.7719349197
 11
189.3114336495
 21
373.7719349197
  0
LINE
  5
30E
100
AcDbEntity
  8
0
100
AcDbLine
 62
7
  6
CONTINUOUS
 10
187.3114336495
 20
373.7719349197
 11
179.0114336495
 21
373.7719349197
  0
LINE
  5
30F
100
AcDbEntity
  8
0
100
AcDbLine
 62
7
  6
CONTINUOUS
 10
177.0114336495
 20
373.7719349197
 11
168.7114336495
 21
373.7719349197
  0
LINE
  5
310
100
AcDbEntity
  8
0
100
AcDbLine
 62
7
  6
CONTINUOUS
 10
166.7114336495
 20
373.7719349197
 11
158.4114336495
 21
373.7719349197
  0
LINE
  5
311
100
AcDbEntity
  8
0
100
AcDbLine
 62
7
  6
CONTINUOUS
 10
282.7614336495
 20
377.8219349197
 11
257.7814336495
 21
377.8219349197
  0
LINE
  5
312
100
AcDbEntity
  8
0
100
AcDbLine
 62
7
  6
CONTINUOUS
 10
149.7414336495
 20
377.8219349197
 11
124.7614336495
 21
377.8219349197
  0
LINE
  5
313
100
AcDbEntity
  8
0
100
AcDbLine
 62
7
  6
CONTINUOUS
 10
302.7614336495
 20
81.5361759346
 11
302.7614336495
 21
88.3231864491
  0
LINE
  5
314
100
AcDbEntity
  8
0
100
AcDbLine
 62
7
  6
CONTINUOUS
 10
302.7614336495
 20
238.1219349197
 11
302.7614336495
 21
268.1219349197
  0
LINE
  5
315
100
AcDbEntity
  8
0
100
AcDbLine
 62
7
  6
CONTINUOUS
 10
158.4114336495
 20
382.0719349197
 11
166.7114336495
 21
382.0719349197
  0
LINE
  5
316
100
AcDbEntity
  8
0
100
AcDbLine
 62
7
  6
CONTINUOUS
 10
168.7114336495
 20
382.0719349197
 11
177.0114336495
 21
382.0719349197
  0
LINE
  5
317
100
AcDbEntity
  8
0
100
AcDbLine
 62
7
  6
CONTINUOUS
 10
179.0114336495
 20
382.0719349197
 11
187.3114336495
 21
382.0719349197
  0
LINE
  5
318
100
AcDbEntity
  8
0
100
AcDbLine
 62
7
  6
CONTINUOUS
 10
189.3114336495
 20
382.0719349197
 11
197.6114336495
 21
382.0719349197
  0
LINE
  5
319
100
AcDbEntity
  8
0
100
AcDbLine
 62
7
  6
CONTINUOUS
 10
199.6114336495
 20
382.0719349197
 11
207.9114336495
 21
382.0719349197
  0
LINE
  5
31A
100
AcDbEntity
  8
0
100
AcDbLine
 62
7
  6
CONTINUOUS
 10
209.9114336495
 20
382.0719349197
 11
218.2114336495
 21
382.0719349197
  0
LINE
  5
31B
100
AcDbEntity
  8
0
100
AcDbLine
 62
7
  6
CONTINUOUS
 10
220.2114336495
 20
382.0719349197
 11
228.5114336495
 21
382.0719349197
  0
LINE
  5
31C
100
AcDbEntity
  8
0
100
AcDbLine
 62
7
  6
CONTINUOUS
 10
230.5114336495
 20
382.0719349197
 11
238.8114336495
 21
382.0719349197
  0
LINE
  5
31D
100
AcDbEntity
  8
0
100
AcDbLine
 62
7
  6
CONTINUOUS
 10
240.8114336495
 20
382.0719349197
 11
249.1114336495
 21
382.0719349197
  0
LINE
  5
31E
100
AcDbEntity
  8
0
100
AcDbLine
 62
7
  6
CONTINUOUS
 10
249.1114336495
 20
384.0719349197
 11
240.8114336495
 21
384.0719349197
  0
LINE
  5
31F
100
AcDbEntity
  8
0
100
AcDbLine
 62
7
  6
CONTINUOUS
 10
238.8114336495
 20
384.0719349197
 11
230.5114336495
 21
384.0719349197
  0
LINE
  5
320
100
AcDbEntity
  8
0
100
AcDbLine
 62
7
  6
CONTINUOUS
 10
228.5114336495
 20
384.0719349197
 11
220.2114336495
 21
384.0719349197
  0
LINE
  5
321
100
AcDbEntity
  8
0
100
AcDbLine
 62
7
  6
CONTINUOUS
 10
218.2114336495
 20
384.0719349197
 11
209.9114336495
 21
384.0719349197
  0
LINE
  5
322
100
AcDbEntity
  8
0
100
AcDbLine
 62
7
  6
CONTINUOUS
 10
207.9114336495
 20
384.0719349197
 11
199.6114336495
 21
384.0719349197
  0
LINE
  5
323
100
AcDbEntity
  8
0
100
AcDbLine
 62
7
  6
CONTINUOUS
 10
197.6114336495
 20
384.0719349197
 11
189.3114336495
 21
384.0719349197
  0
LINE
  5
324
100
AcDbEntity
  8
0
100
AcDbLine
 62
7
  6
CONTINUOUS
 10
187.3114336495
 20
384.0719349197
 11
179.0114336495
 21
384.0719349197
  0
LINE
  5
325
100
AcDbEntity
  8
0
100
AcDbLine
 62
7
  6
CONTINUOUS
 10
177.0114336495
 20
384.0719349197
 11
168.7114336495
 21
384.0719349197
  0
LINE
  5
326
100
AcDbEntity
  8
0
100
AcDbLine
 62
7
  6
CONTINUOUS
 10
166.7114336495
 20
384.0719349197
 11
158.4114336495
 21
384.0719349197
  0
LINE
  5
327
100
AcDbEntity
  8
0
100
AcDbLine
 62
7
  6
CONTINUOUS
 10
158.4114336495
 20
392.3719349197
 11
166.7114336495
 21
392.3719349197
  0
LINE
  5
328
100
AcDbEntity
  8
0
100
AcDbLine
 62
7
  6
CONTINUOUS
 10
168.7114336495
 20
392.3719349197
 11
177.0114336495
 21
392.3719349197
  0
LINE
  5
329
100
AcDbEntity
  8
0
100
AcDbLine
 62
7
  6
CONTINUOUS
 10
179.0114336495
 20
392.3719349197
 11
187.3114336495
 21
392.3719349197
  0
LINE
  5
32A
100
AcDbEntity
  8
0
100
AcDbLine
 62
7
  6
CONTINUOUS
 10
189.3114336495
 20
392.3719349197
 11
197.6114336495
 21
392.3719349197
  0
LINE
  5
32B
100
AcDbEntity
  8
0
100
AcDbLine
 62
7
  6
CONTINUOUS
 10
199.6114336495
 20
392.3719349197
 11
207.9114336495
 21
392.3719349197
  0
LINE
  5
32C
100
AcDbEntity
  8
0
100
AcDbLine
 62
7
  6
CONTINUOUS
 10
209.9114336495
 20
392.3719349197
 11
218.2114336495
 21
392.3719349197
  0
LINE
  5
32D
100
AcDbEntity
  8
0
100
AcDbLine
 62
7
  6
CONTINUOUS
 10
220.2114336495
 20
392.3719349197
 11
228.5114336495
 21
392.3719349197
  0
LINE
  5
32E
100
AcDbEntity
  8
0
100
AcDbLine
 62
7
  6
CONTINUOUS
 10
230.5114336495
 20
392.3719349197
 11
238.8114336495
 21
392.3719349197
  0
LINE
  5
32F
100
AcDbEntity
  8
0
100
AcDbLine
 62
7
  6
CONTINUOUS
 10
240.8114336495
 20
392.3719349197
 11
249.1114336495
 21
392.3719349197
  0
LINE
  5
330
100
AcDbEntity
  8
0
100
AcDbLine
 62
7
  6
CONTINUOUS
 10
249.1114336495
 20
394.3719349197
 11
240.8114336495
 21
394.3719349197
  0
LINE
  5
331
100
AcDbEntity
  8
0
100
AcDbLine
 62
7
  6
CONTINUOUS
 10
238.8114336495
 20
394.3719349197
 11
230.5114336495
 21
394.3719349197
  0
LINE
  5
332
100
AcDbEntity
  8
0
100
AcDbLine
 62
7
  6
CONTINUOUS
 10
228.5114336495
 20
394.3719349197
 11
220.2114336495
 21
394.3719349197
  0
LINE
  5
333
100
AcDbEntity
  8
0
100
AcDbLine
 62
7
  6
CONTINUOUS
 10
218.2114336495
 20
394.3719349197
 11
209.9114336495
 21
394.3719349197
  0
LINE
  5
334
100
AcDbEntity
  8
0
100
AcDbLine
 62
7
  6
CONTINUOUS
 10
207.9114336495
 20
394.3719349197
 11
199.6114336495
 21
394.3719349197
  0
LINE
  5
335
100
AcDbEntity
  8
0
100
AcDbLine
 62
7
  6
CONTINUOUS
 10
197.6114336495
 20
394.3719349197
 11
189.3114336495
 21
394.3719349197
  0
LINE
  5
336
100
AcDbEntity
  8
0
100
AcDbLine
 62
7
  6
CONTINUOUS
 10
187.3114336495
 20
394.3719349197
 11
179.0114336495
 21
394.3719349197
  0
LINE
  5
337
100
AcDbEntity
  8
0
100
AcDbLine
 62
7
  6
CONTINUOUS
 10
177.0114336495
 20
394.3719349197
 11
168.7114336495
 21
394.3719349197
  0
LINE
  5
338
100
AcDbEntity
  8
0
100
AcDbLine
 62
7
  6
CONTINUOUS
 10
166.7114336495
 20
394.3719349197
 11
158.4114336495
 21
394.3719349197
  0
LINE
  5
339
100
AcDbEntity
  8
0
100
AcDbLine
 62
7
  6
CONTINUOUS
 10
334.2614336538
 20
457.4219349197
 11
334.2614336538
 21
64.4219349197
  0
LINE
  5
33A
100
AcDbEntity
  8
0
100
AcDbLine
 62
7
  6
CONTINUOUS
 10
158.4114336495
 20
402.6719349197
 11
166.7114336495
 21
402.6719349197
  0
LINE
  5
33B
100
AcDbEntity
  8
0
100
AcDbLine
 62
7
  6
CONTINUOUS
 10
168.7114336495
 20
402.6719349197
 11
177.0114336495
 21
402.6719349197
  0
LINE
  5
33C
100
AcDbEntity
  8
0
100
AcDbLine
 62
7
  6
CONTINUOUS
 10
179.0114336495
 20
402.6719349197
 11
187.3114336495
 21
402.6719349197
  0
LINE
  5
33D
100
AcDbEntity
  8
0
100
AcDbLine
 62
7
  6
CONTINUOUS
 10
189.3114336495
 20
402.6719349197
 11
197.6114336495
 21
402.6719349197
  0
LINE
  5
33E
100
AcDbEntity
  8
0
100
AcDbLine
 62
7
  6
CONTINUOUS
 10
199.6114336495
 20
402.6719349197
 11
207.9114336495
 21
402.6719349197
  0
LINE
  5
33F
100
AcDbEntity
  8
0
100
AcDbLine
 62
7
  6
CONTINUOUS
 10
209.9114336495
 20
402.6719349197
 11
218.2114336495
 21
402.6719349197
  0
LINE
  5
340
100
AcDbEntity
  8
0
100
AcDbLine
 62
7
  6
CONTINUOUS
 10
220.2114336495
 20
402.6719349197
 11
228.5114336495
 21
402.6719349197
  0
LINE
  5
341
100
AcDbEntity
  8
0
100
AcDbLine
 62
7
  6
CONTINUOUS
 10
230.5114336495
 20
402.6719349197
 11
238.8114336495
 21
402.6719349197
  0
LINE
  5
342
100
AcDbEntity
  8
0
100
AcDbLine
 62
7
  6
CONTINUOUS
 10
240.8114336495
 20
402.6719349197
 11
249.1114336495
 21
402.6719349197
  0
LINE
  5
343
100
AcDbEntity
  8
0
100
AcDbLine
 62
7
  6
CONTINUOUS
 10
249.1114336495
 20
404.6719349197
 11
240.8114336495
 21
404.6719349197
  0
LINE
  5
344
100
AcDbEntity
  8
0
100
AcDbLine
 62
7
  6
CONTINUOUS
 10
238.8114336495
 20
404.6719349197
 11
230.5114336495
 21
404.6719349197
  0
LINE
  5
345
100
AcDbEntity
  8
0
100
AcDbLine
 62
7
  6
CONTINUOUS
 10
228.5114336495
 20
404.6719349197
 11
220.2114336495
 21
404.6719349197
  0
LINE
  5
346
100
AcDbEntity
  8
0
100
AcDbLine
 62
7
  6
CONTINUOUS
 10
218.2114336495
 20
404.6719349197
 11
209.9114336495
 21
404.6719349197
  0
LINE
  5
347
100
AcDbEntity
  8
0
100
AcDbLine
 62
7
  6
CONTINUOUS
 10
207.9114336495
 20
404.6719349197
 11
199.6114336495
 21
404.6719349197
  0
LINE
  5
348
100
AcDbEntity
  8
0
100
AcDbLine
 62
7
  6
CONTINUOUS
 10
197.6114336495
 20
404.6719349197
 11
189.3114336495
 21
404.6719349197
  0
LINE
  5
349
100
AcDbEntity
  8
0
100
AcDbLine
 62
7
  6
CONTINUOUS
 10
187.3114336495
 20
404.6719349197
 11
179.0114336495
 21
404.6719349197
  0
LINE
  5
34A
100
AcDbEntity
  8
0
100
AcDbLine
 62
7
  6
CONTINUOUS
 10
177.0114336495
 20
404.6719349197
 11
168.7114336495
 21
404.6719349197
  0
LINE
  5
34B
100
AcDbEntity
  8
0
100
AcDbLine
 62
7
  6
CONTINUOUS
 10
166.7114336495
 20
404.6719349197
 11
158.4114336495
 21
404.6719349197
  0
LINE
  5
34C
100
AcDbEntity
  8
0
100
AcDbLine
 62
7
  6
CONTINUOUS
 10
158.4114336495
 20
412.9719349197
 11
166.7114336495
 21
412.9719349197
  0
LINE
  5
34D
100
AcDbEntity
  8
0
100
AcDbLine
 62
7
  6
CONTINUOUS
 10
168.7114336495
 20
412.9719349197
 11
177.0114336495
 21
412.9719349197
  0
LINE
  5
34E
100
AcDbEntity
  8
0
100
AcDbLine
 62
7
  6
CONTINUOUS
 10
179.0114336495
 20
412.9719349197
 11
187.3114336495
 21
412.9719349197
  0
LINE
  5
34F
100
AcDbEntity
  8
0
100
AcDbLine
 62
7
  6
CONTINUOUS
 10
189.3114336495
 20
412.9719349197
 11
197.6114336495
 21
412.9719349197
  0
LINE
  5
350
100
AcDbEntity
  8
0
100
AcDbLine
 62
7
  6
CONTINUOUS
 10
199.6114336495
 20
412.9719349197
 11
207.9114336495
 21
412.9719349197
  0
LINE
  5
351
100
AcDbEntity
  8
0
100
AcDbLine
 62
7
  6
CONTINUOUS
 10
209.9114336495
 20
412.9719349197
 11
218.2114336495
 21
412.9719349197
  0
LINE
  5
352
100
AcDbEntity
  8
0
100
AcDbLine
 62
7
  6
CONTINUOUS
 10
220.2114336495
 20
412.9719349197
 11
228.5114336495
 21
412.9719349197
  0
LINE
  5
353
100
AcDbEntity
  8
0
100
AcDbLine
 62
7
  6
CONTINUOUS
 10
230.5114336495
 20
412.9719349197
 11
238.8114336495
 21
412.9719349197
  0
LINE
  5
354
100
AcDbEntity
  8
0
100
AcDbLine
 62
7
  6
CONTINUOUS
 10
240.8114336495
 20
412.9719349197
 11
249.1114336495
 21
412.9719349197
  0
LINE
  5
355
100
AcDbEntity
  8
0
100
AcDbLine
 62
7
  6
CONTINUOUS
 10
249.1114336495
 20
414.9719349197
 11
240.8114336495
 21
414.9719349197
  0
LINE
  5
356
100
AcDbEntity
  8
0
100
AcDbLine
 62
7
  6
CONTINUOUS
 10
238.8114336495
 20
414.9719349197
 11
230.5114336495
 21
414.9719349197
  0
LINE
  5
357
100
AcDbEntity
  8
0
100
AcDbLine
 62
7
  6
CONTINUOUS
 10
228.5114336495
 20
414.9719349197
 11
220.2114336495
 21
414.9719349197
  0
LINE
  5
358
100
AcDbEntity
  8
0
100
AcDbLine
 62
7
  6
CONTINUOUS
 10
218.2114336495
 20
414.9719349197
 11
209.9114336495
 21
414.9719349197
  0
LINE
  5
359
100
AcDbEntity
  8
0
100
AcDbLine
 62
7
  6
CONTINUOUS
 10
207.9114336495
 20
414.9719349197
 11
199.6114336495
 21
414.9719349197
  0
LINE
  5
35A
100
AcDbEntity
  8
0
100
AcDbLine
 62
7
  6
CONTINUOUS
 10
197.6114336495
 20
414.9719349197
 11
189.3114336495
 21
414.9719349197
  0
LINE
  5
35B
100
AcDbEntity
  8
0
100
AcDbLine
 62
7
  6
CONTINUOUS
 10
187.3114336495
 20
414.9719349197
 11
179.0114336495
 21
414.9719349197
  0
LINE
  5
35C
100
AcDbEntity
  8
0
100
AcDbLine
 62
7
  6
CONTINUOUS
 10
177.0114336495
 20
414.9719349197
 11
168.7114336495
 21
414.9719349197
  0
LINE
  5
35D
100
AcDbEntity
  8
0
100
AcDbLine
 62
7
  6
CONTINUOUS
 10
166.7114336495
 20
414.9719349197
 11
158.4114336495
 21
414.9719349197
  0
LINE
  5
35E
100
AcDbEntity
  8
0
100
AcDbLine
 62
7
  6
CONTINUOUS
 10
346.2614336495
 20
37.9219349197
 11
346.2614336495
 21
497.9219349197
  0
LINE
  5
35F
100
AcDbEntity
  8
0
100
AcDbLine
 62
7
  6
CONTINUOUS
 10
158.4114336495
 20
423.2719349197
 11
166.7114336495
 21
423.2719349197
  0
LINE
  5
360
100
AcDbEntity
  8
0
100
AcDbLine
 62
7
  6
CONTINUOUS
 10
168.7114336495
 20
423.2719349197
 11
177.0114336495
 21
423.2719349197
  0
LINE
  5
361
100
AcDbEntity
  8
0
100
AcDbLine
 62
7
  6
CONTINUOUS
 10
179.0114336495
 20
423.2719349197
 11
187.3114336495
 21
423.2719349197
  0
LINE
  5
362
100
AcDbEntity
  8
0
100
AcDbLine
 62
7
  6
CONTINUOUS
 10
189.3114336495
 20
423.2719349197
 11
197.6114336495
 21
423.2719349197
  0
LINE
  5
363
100
AcDbEntity
  8
0
100
AcDbLine
 62
7
  6
CONTINUOUS
 10
199.6114336495
 20
423.2719349197
 11
207.9114336495
 21
423.2719349197
  0
LINE
  5
364
100
AcDbEntity
  8
0
100
AcDbLine
 62
7
  6
CONTINUOUS
 10
209.9114336495
 20
423.2719349197
 11
218.2114336495
 21
423.2719349197
  0
LINE
  5
365
100
AcDbEntity
  8
0
100
AcDbLine
 62
7
  6
CONTINUOUS
 10
220.2114336495
 20
423.2719349197
 11
228.5114336495
 21
423.2719349197
  0
LINE
  5
366
100
AcDbEntity
  8
0
100
AcDbLine
 62
7
  6
CONTINUOUS
 10
230.5114336495
 20
423.2719349197
 11
238.8114336495
 21
423.2719349197
  0
LINE
  5
367
100
AcDbEntity
  8
0
100
AcDbLine
 62
7
  6
CONTINUOUS
 10
240.8114336495
 20
423.2719349197
 11
249.1114336495
 21
423.2719349197
  0
LINE
  5
368
100
AcDbEntity
  8
0
100
AcDbLine
 62
7
  6
CONTINUOUS
 10
249.1114336495
 20
425.2719349197
 11
240.8114336495
 21
425.2719349197
  0
LINE
  5
369
100
AcDbEntity
  8
0
100
AcDbLine
 62
7
  6
CONTINUOUS
 10
238.8114336495
 20
425.2719349197
 11
230.5114336495
 21
425.2719349197
  0
LINE
  5
36A
100
AcDbEntity
  8
0
100
AcDbLine
 62
7
  6
CONTINUOUS
 10
228.5114336495
 20
425.2719349197
 11
220.2114336495
 21
425.2719349197
  0
LINE
  5
36B
100
AcDbEntity
  8
0
100
AcDbLine
 62
7
  6
CONTINUOUS
 10
218.2114336495
 20
425.2719349197
 11
209.9114336495
 21
425.2719349197
  0
LINE
  5
36C
100
AcDbEntity
  8
0
100
AcDbLine
 62
7
  6
CONTINUOUS
 10
207.9114336495
 20
425.2719349197
 11
199.6114336495
 21
425.2719349197
  0
LINE
  5
36D
100
AcDbEntity
  8
0
100
AcDbLine
 62
7
  6
CONTINUOUS
 10
197.6114336495
 20
425.2719349197
 11
189.3114336495
 21
425.2719349197
  0
LINE
  5
36E
100
AcDbEntity
  8
0
100
AcDbLine
 62
7
  6
CONTINUOUS
 10
187.3114336495
 20
425.2719349197
 11
179.0114336495
 21
425.2719349197
  0
LINE
  5
36F
100
AcDbEntity
  8
0
100
AcDbLine
 62
7
  6
CONTINUOUS
 10
177.0114336495
 20
425.2719349197
 11
168.7114336495
 21
425.2719349197
  0
LINE
  5
370
100
AcDbEntity
  8
0
100
AcDbLine
 62
7
  6
CONTINUOUS
 10
166.7114336495
 20
425.2719349197
 11
158.4114336495
 21
425.2719349197
  0
LINE
  5
371
100
AcDbEntity
  8
0
100
AcDbLine
 62
7
  6
CONTINUOUS
 10
158.4114336495
 20
433.5719349197
 11
166.7114336495
 21
433.5719349197
  0
LINE
  5
372
100
AcDbEntity
  8
0
100
AcDbLine
 62
7
  6
CONTINUOUS
 10
168.7114336495
 20
433.5719349197
 11
177.0114336495
 21
433.5719349197
  0
LINE
  5
373
100
AcDbEntity
  8
0
100
AcDbLine
 62
7
  6
CONTINUOUS
 10
179.0114336495
 20
433.5719349197
 11
187.3114336495
 21
433.5719349197
  0
LINE
  5
374
100
AcDbEntity
  8
0
100
AcDbLine
 62
7
  6
CONTINUOUS
 10
189.3114336495
 20
433.5719349197
 11
197.6114336495
 21
433.5719349197
  0
LINE
  5
375
100
AcDbEntity
  8
0
100
AcDbLine
 62
7
  6
CONTINUOUS
 10
199.6114336495
 20
433.5719349197
 11
207.9114336495
 21
433.5719349197
  0
LINE
  5
376
100
AcDbEntity
  8
0
100
AcDbLine
 62
7
  6
CONTINUOUS
 10
209.9114336495
 20
433.5719349197
 11
218.2114336495
 21
433.5719349197
  0
LINE
  5
377
100
AcDbEntity
  8
0
100
AcDbLine
 62
7
  6
CONTINUOUS
 10
220.2114336495
 20
433.5719349197
 11
228.5114336495
 21
433.5719349197
  0
LINE
  5
378
100
AcDbEntity
  8
0
100
AcDbLine
 62
7
  6
CONTINUOUS
 10
230.5114336495
 20
433.5719349197
 11
238.8114336495
 21
433.5719349197
  0
LINE
  5
379
100
AcDbEntity
  8
0
100
AcDbLine
 62
7
  6
CONTINUOUS
 10
240.8114336495
 20
433.5719349197
 11
249.1114336495
 21
433.5719349197
  0
LINE
  5
37A
100
AcDbEntity
  8
0
100
AcDbLine
 62
7
  6
CONTINUOUS
 10
249.1114336495
 20
435.5719349197
 11
240.8114336495
 21
435.5719349197
  0
LINE
  5
37B
100
AcDbEntity
  8
0
100
AcDbLine
 62
7
  6
CONTINUOUS
 10
238.8114336495
 20
435.5719349197
 11
230.5114336495
 21
435.5719349197
  0
LINE
  5
37C
100
AcDbEntity
  8
0
100
AcDbLine
 62
7
  6
CONTINUOUS
 10
228.5114336495
 20
435.5719349197
 11
220.2114336495
 21
435.5719349197
  0
LINE
  5
37D
100
AcDbEntity
  8
0
100
AcDbLine
 62
7
  6
CONTINUOUS
 10
218.2114336495
 20
435.5719349197
 11
209.9114336495
 21
435.5719349197
  0
LINE
  5
37E
100
AcDbEntity
  8
0
100
AcDbLine
 62
7
  6
CONTINUOUS
 10
207.9114336495
 20
435.5719349197
 11
199.6114336495
 21
435.5719349197
  0
LINE
  5
37F
100
AcDbEntity
  8
0
100
AcDbLine
 62
7
  6
CONTINUOUS
 10
197.6114336495
 20
435.5719349197
 11
189.3114336495
 21
435.5719349197
  0
LINE
  5
380
100
AcDbEntity
  8
0
100
AcDbLine
 62
7
  6
CONTINUOUS
 10
187.3114336495
 20
435.5719349197
 11
179.0114336495
 21
435.5719349197
  0
LINE
  5
381
100
AcDbEntity
  8
0
100
AcDbLine
 62
7
  6
CONTINUOUS
 10
177.0114336495
 20
435.5719349197
 11
168.7114336495
 21
435.5719349197
  0
LINE
  5
382
100
AcDbEntity
  8
0
100
AcDbLine
 62
7
  6
CONTINUOUS
 10
166.7114336495
 20
435.5719349197
 11
158.4114336495
 21
435.5719349197
  0
LINE
  5
383
100
AcDbEntity
  8
0
100
AcDbLine
 62
7
  6
CONTINUOUS
 10
158.4114336495
 20
443.8719349197
 11
166.7114336495
 21
443.8719349197
  0
LINE
  5
384
100
AcDbEntity
  8
0
100
AcDbLine
 62
7
  6
CONTINUOUS
 10
168.7114336495
 20
443.8719349197
 11
177.0114336495
 21
443.8719349197
  0
LINE
  5
385
100
AcDbEntity
  8
0
100
AcDbLine
 62
7
  6
CONTINUOUS
 10
179.0114336495
 20
443.8719349197
 11
187.3114336495
 21
443.8719349197
  0
LINE
  5
386
100
AcDbEntity
  8
0
100
AcDbLine
 62
7
  6
CONTINUOUS
 10
189.3114336495
 20
443.8719349197
 11
197.6114336495
 21
443.8719349197
  0
LINE
  5
387
100
AcDbEntity
  8
0
100
AcDbLine
 62
7
  6
CONTINUOUS
 10
199.6114336495
 20
443.8719349197
 11
207.9114336495
 21
443.8719349197
  0
LINE
  5
388
100
AcDbEntity
  8
0
100
AcDbLine
 62
7
  6
CONTINUOUS
 10
209.9114336495
 20
443.8719349197
 11
218.2114336495
 21
443.8719349197
  0
LINE
  5
389
100
AcDbEntity
  8
0
100
AcDbLine
 62
7
  6
CONTINUOUS
 10
220.2114336495
 20
443.8719349197
 11
228.5114336495
 21
443.8719349197
  0
LINE
  5
38A
100
AcDbEntity
  8
0
100
AcDbLine
 62
7
  6
CONTINUOUS
 10
230.5114336495
 20
443.8719349197
 11
238.8114336495
 21
443.8719349197
  0
LINE
  5
38B
100
AcDbEntity
  8
0
100
AcDbLine
 62
7
  6
CONTINUOUS
 10
240.8114336495
 20
443.8719349197
 11
249.1114336495
 21
443.8719349197
  0
LINE
  5
38C
100
AcDbEntity
  8
0
100
AcDbLine
 62
7
  6
CONTINUOUS
 10
249.1114336495
 20
445.8719349197
 11
240.8114336495
 21
445.8719349197
  0
LINE
  5
38D
100
AcDbEntity
  8
0
100
AcDbLine
 62
7
  6
CONTINUOUS
 10
238.8114336495
 20
445.8719349197
 11
230.5114336495
 21
445.8719349197
  0
LINE
  5
38E
100
AcDbEntity
  8
0
100
AcDbLine
 62
7
  6
CONTINUOUS
 10
228.5114336495
 20
445.8719349197
 11
220.2114336495
 21
445.8719349197
  0
LINE
  5
38F
100
AcDbEntity
  8
0
100
AcDbLine
 62
7
  6
CONTINUOUS
 10
218.2114336495
 20
445.8719349197
 11
209.9114336495
 21
445.8719349197
  0
LINE
  5
390
100
AcDbEntity
  8
0
100
AcDbLine
 62
7
  6
CONTINUOUS
 10
207.9114336495
 20
445.8719349197
 11
199.6114336495
 21
445.8719349197
  0
LINE
  5
391
100
AcDbEntity
  8
0
100
AcDbLine
 62
7
  6
CONTINUOUS
 10
197.6114336495
 20
445.8719349197
 11
189.3114336495
 21
445.8719349197
  0
LINE
  5
392
100
AcDbEntity
  8
0
100
AcDbLine
 62
7
  6
CONTINUOUS
 10
187.3114336495
 20
445.8719349197
 11
179.0114336495
 21
445.8719349197
  0
LINE
  5
393
100
AcDbEntity
  8
0
100
AcDbLine
 62
7
  6
CONTINUOUS
 10
177.0114336495
 20
445.8719349197
 11
168.7114336495
 21
445.8719349197
  0
LINE
  5
394
100
AcDbEntity
  8
0
100
AcDbLine
 62
7
  6
CONTINUOUS
 10
166.7114336495
 20
445.8719349197
 11
158.4114336495
 21
445.8719349197
  0
LINE
  5
395
100
AcDbEntity
  8
0
100
AcDbLine
 62
7
  6
CONTINUOUS
 10
158.4114336495
 20
454.1719349197
 11
166.7114336495
 21
454.1719349197
  0
LINE
  5
396
100
AcDbEntity
  8
0
100
AcDbLine
 62
7
  6
CONTINUOUS
 10
168.7114336495
 20
454.1719349197
 11
177.0114336495
 21
454.1719349197
  0
LINE
  5
397
100
AcDbEntity
  8
0
100
AcDbLine
 62
7
  6
CONTINUOUS
 10
179.0114336495
 20
454.1719349197
 11
187.3114336495
 21
454.1719349197
  0
LINE
  5
398
100
AcDbEntity
  8
0
100
AcDbLine
 62
7
  6
CONTINUOUS
 10
189.3114336495
 20
454.1719349197
 11
197.6114336495
 21
454.1719349197
  0
LINE
  5
399
100
AcDbEntity
  8
0
100
AcDbLine
 62
7
  6
CONTINUOUS
 10
199.6114336495
 20
454.1719349197
 11
207.9114336495
 21
454.1719349197
  0
LINE
  5
39A
100
AcDbEntity
  8
0
100
AcDbLine
 62
7
  6
CONTINUOUS
 10
209.9114336495
 20
454.1719349197
 11
218.2114336495
 21
454.1719349197
  0
LINE
  5
39B
100
AcDbEntity
  8
0
100
AcDbLine
 62
7
  6
CONTINUOUS
 10
220.2114336495
 20
454.1719349197
 11
228.5114336495
 21
454.1719349197
  0
LINE
  5
39C
100
AcDbEntity
  8
0
100
AcDbLine
 62
7
  6
CONTINUOUS
 10
230.5114336495
 20
454.1719349197
 11
238.8114336495
 21
454.1719349197
  0
LINE
  5
39D
100
AcDbEntity
  8
0
100
AcDbLine
 62
7
  6
CONTINUOUS
 10
240.8114336495
 20
454.1719349197
 11
249.1114336495
 21
454.1719349197
  0
LINE
  5
39E
100
AcDbEntity
  8
0
100
AcDbLine
 62
7
  6
CONTINUOUS
 10
249.1114336495
 20
456.1719349197
 11
240.8114336495
 21
456.1719349197
  0
LINE
  5
39F
100
AcDbEntity
  8
0
100
AcDbLine
 62
7
  6
CONTINUOUS
 10
238.8114336495
 20
456.1719349197
 11
230.5114336495
 21
456.1719349197
  0
LINE
  5
3A0
100
AcDbEntity
  8
0
100
AcDbLine
 62
7
  6
CONTINUOUS
 10
228.5114336495
 20
456.1719349197
 11
220.2114336495
 21
456.1719349197
  0
LINE
  5
3A1
100
AcDbEntity
  8
0
100
AcDbLine
 62
7
  6
CONTINUOUS
 10
218.2114336495
 20
456.1719349197
 11
209.9114336495
 21
456.1719349197
  0
LINE
  5
3A2
100
AcDbEntity
  8
0
100
AcDbLine
 62
7
  6
CONTINUOUS
 10
207.9114336495
 20
456.1719349197
 11
199.6114336495
 21
456.1719349197
  0
LINE
  5
3A3
100
AcDbEntity
  8
0
100
AcDbLine
 62
7
  6
CONTINUOUS
 10
197.6114336495
 20
456.1719349197
 11
189.3114336495
 21
456.1719349197
  0
LINE
  5
3A4
100
AcDbEntity
  8
0
100
AcDbLine
 62
7
  6
CONTINUOUS
 10
187.3114336495
 20
456.1719349197
 11
179.0114336495
 21
456.1719349197
  0
LINE
  5
3A5
100
AcDbEntity
  8
0
100
AcDbLine
 62
7
  6
CONTINUOUS
 10
177.0114336495
 20
456.1719349197
 11
168.7114336495
 21
456.1719349197
  0
LINE
  5
3A6
100
AcDbEntity
  8
0
100
AcDbLine
 62
7
  6
CONTINUOUS
 10
166.7114336495
 20
456.1719349197
 11
158.4114336495
 21
456.1719349197
  0
LINE
  5
3A7
100
AcDbEntity
  8
0
100
AcDbLine
 62
7
  6
CONTINUOUS
 10
73.2614336537
 20
457.4219349197
 11
334.2614336538
 21
457.4219349197
  0
LINE
  5
3A8
100
AcDbEntity
  8
0
100
AcDbLine
 62
7
  6
CONTINUOUS
 10
61.2614336495
 20
497.9219349197
 11
346.2614336495
 21
497.9219349197
  0
LINE
  5
3A9
100
AcDbEntity
  8
0
100
AcDbLine
 62
7
  6
CONTINUOUS
 10
194.7614336453
 20
505.6219349197
 11
200.8056066474
 21
505.6219349197
  0
LINE
  5
3AA
100
AcDbEntity
  8
0
100
AcDbLine
 62
7
  6
CONTINUOUS
 10
206.7172606431
 20
505.6219349197
 11
212.7614336453
 21
505.6219349197
  0
ARC
  5
3AB
100
AcDbEntity
  8
0
100
AcDbCircle
 62
7
  6
CONTINUOUS
 10
203.7614336495
 20
419.123746018
 40
68.0
100
AcDbArc
 50
217.400269399
 51
322.599730601
  0
ARC
  5
3AC
100
AcDbEntity
  8
0
100
AcDbCircle
 62
7
  6
CONTINUOUS
 10
246.2614336495
 20
289.9219349197
 40
45.0
100
AcDbArc
 50
209.5936437263
 51
330.4149357964
  0
CIRCLE
  5
3AD
100
AcDbEntity
  8
0
100
AcDbCircle
 62
7
  6
CONTINUOUS
 10
293.7614336495
 20
84.9219349197
 40
10.0
  0
CIRCLE
  5
3AE
100
AcDbEntity
  8
0
100
AcDbCircle
 62
7
  6
CONTINUOUS
 10
257.7614336495
 20
147.9219349197
 40
4.5
  0
CIRCLE
  5
3AF
100
AcDbEntity
  8
0
100
AcDbCircle
 62
7
  6
CONTINUOUS
 10
327.7614336495
 20
470.4219349197
 40
3.75
  0
CIRCLE
  5
3B0
100
AcDbEntity
  8
0
100
AcDbCircle
 62
7
  6
CONTINUOUS
 10
79.7614336495
 20
470.4219349197
 40
3.75
  0
CIRCLE
  5
3B1
100
AcDbEntity
  8
0
100
AcDbCircle
 62
7
  6
CONTINUOUS
 10
327.7614336495
 20
53.4219349197
 40
3.75
  0
CIRCLE
  5
3B2
100
AcDbEntity
  8
0
100
AcDbCircle
 62
7
  6
CONTINUOUS
 10
79.7614336495
 20
53.4219349197
 40
3.75
  0
CIRCLE
  5
3B3
100
AcDbEntity
  8
0
100
AcDbCircle
 62
7
  6
CONTINUOUS
 10
94.7614336495
 20
372.4219349197
 40
3.0
  0
ARC
  5
3B4
100
AcDbEntity
  8
0
100
AcDbCircle
 62
7
  6
CONTINUOUS
 10
203.7614336453
 20
525.4717572446
 40
2.999978012
100
AcDbArc
 50
0.0
 51
180.0
  0
CIRCLE
  5
3B5
100
AcDbEntity
  8
0
100
AcDbCircle
 62
7
  6
CONTINUOUS
 10
80.7614336495
 20
372.4219349197
 40
2.25
  0
CIRCLE
  5
3B6
100
AcDbEntity
  8
0
100
AcDbCircle
 62
7
  6
CONTINUOUS
 10
108.7614336495
 20
372.4219349197
 40
2.25
  0
CIRCLE
  5
3B7
100
AcDbEntity
  8
0
100
AcDbCircle
 62
7
  6
CONTINUOUS
 10
259.7614336495
 20
363.1219349197
 40
2.1
  0
CIRCLE
  5
3B8
100
AcDbEntity
  8
0
100
AcDbCircle
 62
7
  6
CONTINUOUS
 10
147.7614336495
 20
363.1219349197
 40
2.1
  0
CIRCLE
  5
3B9
100
AcDbEntity
  8
0
100
AcDbCircle
 62
7
  6
CONTINUOUS
 10
139.1314336495
 20
88.2219349197
 40
1.75
  0
CIRCLE
  5
3BA
100
AcDbEntity
  8
0
100
AcDbCircle
 62
7
  6
CONTINUOUS
 10
106.1314336495
 20
109.2219349197
 40
1.75
  0
CIRCLE
  5
3BB
100
AcDbEntity
  8
0
100
AcDbCircle
 62
7
  6
CONTINUOUS
 10
139.1314336495
 20
133.8219349197
 40
1.75
  0
CIRCLE
  5
3BC
100
AcDbEntity
  8
0
100
AcDbCircle
 62
7
  6
CONTINUOUS
 10
106.1314336495
 20
154.8219349197
 40
1.75
  0
CIRCLE
  5
3BD
100
AcDbEntity
  8
0
100
AcDbCircle
 62
7
  6
CONTINUOUS
 10
309.7614336495
 20
258.1219349197
 40
1.5
  0
SPLINE
  5
3BE
100
AcDbEntity
  8
0
100
AcDbSpline
 62
7
  6
CONTINUOUS
 70
0
 71
3
 72
11
 73
7
 74
0
 42
0.0000001
 43
0.0000001
 44
0.0000000001
 40
0.0
 40
0.0
 40
0.0
 40
0.0
 40
0.2504728907
 40
0.4985623269
 40
0.7479424801
 40
1.0
 40
1.0
 40
1.0
 40
1.0
 10
203.7614336451
 20
501.3598179913
 30
0.0
 10
204.1911337661
 20
501.3598179913
 30
0.0
 10
205.0598690247
 20
501.5464175933
 30
0.0
 10
206.1005776015
 20
502.3738118485
 30
0.0
 10
206.6694828594
 20
503.5669119602
 30
0.0
 10
206.7614116573
 20
504.4339282758
 30
0.0
 10
206.7614116573
 20
504.866346916
 30
0.0
  0
SPLINE
  5
3BF
100
AcDbEntity
  8
0
100
AcDbSpline
 62
7
  6
CONTINUOUS
 70
0
 71
3
 72
11
 73
7
 74
0
 42
0.0000001
 43
0.0000001
 44
0.0000000001
 40
0.0
 40
0.0
 40
0.0
 40
0.0
 40
0.2504729375
 40
0.4985623301
 40
0.747942412
 40
1.0
 40
1.0
 40
1.0
 40
1.0
 10
203.7614336451
 20
501.3598179913
 30
0.0
 10
203.3317334424
 20
501.3598179913
 30
0.0
 10
202.462998152
 20
501.5464175773
 30
0.0
 10
201.4222897474
 20
502.3738118514
 30
0.0
 10
200.853384478
 20
503.566911836
 30
0.0
 10
200.7614556333
 20
504.4339281574
 30
0.0
 10
200.7614556333
 20
504.866346916
 30
0.0
  0
ENDSEC
  0
SECTION
  2
OBJECTS
  0
DICTIONARY
  5
C
100
AcDbDictionary
280
0
281
1
  3
ACAD_GROUP
350
D
  3
ACAD_MLINESTYLE
350
17
  3
ACAD_LAYOUT
350
1A
  3
ACAD_PLOTSETTINGS
350
19
  3
ACAD_PLOTSTYLENAME
350
E
  0
DICTIONARY
  5
D
102
{ACAD_REACTORS
330
C
102
}
100
AcDbDictionary
280
0
281
1
  0
ACDBDICTIONARYWDFLT
  5
E
102
{ACAD_REACTORS
330
C
102
}
100
AcDbDictionary
281
1
  3
Normal
350
F
100
AcDbDictionaryWithDefault
340
F
  0
DICTIONARY
  5
17
102
{ACAD_REACTORS
330
C
102
}
100
AcDbDictionary
280
0
281
1
  3
Standard
350
18
  0
DICTIONARY
  5
19
102
{ACAD_REACTORS
330
C
102
}
100
AcDbDictionary
281
1
  0
DICTIONARY
  5
1A
102
{ACAD_REACTORS
330
C
102
}
100
AcDbDictionary
281
1
  3
Model
350
3C0
  3
Layout1
350
3C1
  0
ACDBPLACEHOLDER
  5
F
102
{ACAD_REACTORS
330
E
102
}
  0
MLINESTYLE
  5
18
102
{ACAD_REACTORS
330
17
102
}
100
AcDbMlineStyle
  2
STANDARD
 70
0
  3

 62
256
 51
90.0
 52
90.0
 71
2
 49
0.5
 62
256
  6
BYLAYER
 49
-0.5
 62
256
  6
BYLAYER
  0
LAYOUT
  5
3C0
102
{ACAD_REACTORS
330
1A
102
}
100
AcDbPlotSettings
  1

  2
none_device
  4

  6

 40
0.0
 41
0.0
 42
0.0
 43
0.0
 44
210.0
 45
297.0
 46
0.0
 47
0.0
 48
0.0
 49
0.0
140
0.0
141
0.0
142
1.0
143
1.0
 70
1024
 72
1
 73
0
 74
0
  7

 75
0
147
1.0
148
0.0
149
0.0
100
AcDbLayout
  1
Model
 70
0
 71
0
 10
0.0
 20
0.0
 11
210.0
 21
297.0
 12
0.0
 22
0.0
 32
0.0
 14
0.0
 24
0.0
 34
0.0
 15
0.0
 25
0.0
 35
0.0
146
0.0
 13
0.0
 23
0.0
 33
0.0
 16
1.0
 26
0.0
 36
0.0
 17
0.0
 27
1.0
 37
0.0
 76
0
330
210
345
0
346
0
  0
LAYOUT
  5
3C1
102
{ACAD_REACTORS
330
1A
102
}
100
AcDbPlotSettings
  1

  2
none_device
  4

  6

 40
0.0
 41
0.0
 42
0.0
 43
0.0
 44
210.0
 45
297.0
 46
0.0
 47
0.0
 48
0.0
 49
0.0
140
0.0
141
0.0
142
1.0
143
1.0
 70
0
 72
1
 73
0
 74
0
  7

 75
0
147
1.0
148
0.0
149
0.0
100
AcDbLayout
  1
Layout1
 70
0
 71
1
 10
0.0
 20
0.0
 11
210.0
 21
297.0
 12
0.0
 22
0.0
 32
0.0
 14
0.0
 24
0.0
 34
0.0
 15
0.0
 25
0.0
 35
0.0
146
0.0
 13
0.0
 23
0.0
 33
0.0
 16
1.0
 26
0.0
 36
0.0
 17
0.0
 27
1.0
 37
0.0
 76
0
330
211
345
0
346
0
  0
ENDSEC
  0
EOF
