999
DXF file: C:\Users\sesa63760\Dev\_Creo\CAD\MCADPD0004272_3D-CAD\drw0001_4.dxf
999
Pro/ENGINEER 2019471 by Parametric Technology Corporation
  0
SECTION
  2
HEADER
  9
$ACADVER
  1
AC1024
  9
$DWGCODEPAGE
  3
ANSI_1252
  9
$EXTMAX
 10
289.5853796587
 20
409.5564655172
 30
0.0
  9
$EXTMIN
 10
0.0
 20
0.0
 30
0.0
  9
$LIMMIN
 10
0.0
 20
0.0
  9
$LIMMAX
 10
289.5853796587
 20
409.5564655172
  9
$VIEWCTR
 10
144.7926898293
 20
204.7782327586
  9
$VIEWSIZE
 40
409.5564655172
  9
$CLAYER
  8
0
  9
$LTSCALE
 40
26.6970140485
  9
$CELTYPE
  6
BYLAYER
  9
$DIMSCALE
 40
1.0
  9
$DIMASZ
 40
3.4474449959
  9
$DIMEXO
 40
1.0
  9
$DIMDLI
 40
18.4452097063
  9
$DIMEXE
 40
1.0
  9
$DIMCEN
 40
4.3686022989
  9
$DIMLFAC
 40
1.0
  9
$DIMBLK
  1
_FILLED
  9
$DIMALT
 70
0
  9
$DIMALTF
 40
0.0393700787
  9
$DIMTXT
 40
4.8264229943
  9
$DIMTOL
 70
1
  9
$DIMLIM
 70
0
  9
$DIMTFAC
 40
1.0
  9
$DIMTP
 40
0.01
  9
$DIMTM
 40
0.01
  9
$DIMGAP
 40
0.625
  9
$DIMDSEP
 70
46
  9
$AUNITS
 70
0
  9
$PDMODE
 70
3
  9
$PDSIZE
 40
0.3125
  9
$HANDSEED
  5
4D5
  9
$TILEMODE
 70
1
  9
$MEASUREMENT
 70
1
  9
$INSUNITS
 70
4
  0
ENDSEC
  0
SECTION
  2
CLASSES
  0
CLASS
  1
ACDBDICTIONARYWDFLT
  2
AcDbDictionaryWithDefault
  3
AutoCAD 2000
 90
0
 91
1
280
0
281
0
  0
CLASS
  1
ACDBPLACEHOLDER
  2
AcDbPlaceHolder
  3
AutoCAD 2000
 90
0
 91
1
280
0
281
0
  0
CLASS
  1
LAYOUT
  2
AcDbLayout
  3
AutoCAD 2000
 90
0
 91
0
280
0
281
0
  0
ENDSEC
  0
SECTION
  2
TABLES
  0
TABLE
  2
VPORT
  5
8
100
AcDbSymbolTable
 70
2
  0
VPORT
  5
1F4
100
AcDbSymbolTableRecord
100
AcDbViewportTableRecord
  2
*ACTIVE
 70
0
 10
0.0
 20
0.0
 11
1.0
 21
1.0
 12
144.7926898293
 22
204.7782327586
 13
0.0
 23
0.0
 14
1.0
 24
1.0
 15
0.0
 25
0.0
 16
0.0
 26
0.0
 36
1.0
 17
0.0
 27
0.0
 37
0.0
 40
409.5564655172
 41
0.7070707071
 42
50.0
 43
0.0
 44
0.0
 50
0.0
 51
0.0
 71
0
 72
100
 73
1
 74
1
 75
0
 76
0
 77
0
 78
0
  0
ENDTAB
  0
TABLE
  2
LTYPE
  5
5
100
AcDbSymbolTable
 70
6
  0
LTYPE
  5
14
100
AcDbSymbolTableRecord
100
AcDbLinetypeTableRecord
  2
BYBLOCK
 70
0
  3

 72
65
 73
0
 40
0.0
  0
LTYPE
  5
15
100
AcDbSymbolTableRecord
100
AcDbLinetypeTableRecord
  2
BYLAYER
 70
0
  3

 72
65
 73
0
 40
0.0
  0
LTYPE
  5
16
100
AcDbSymbolTableRecord
100
AcDbLinetypeTableRecord
  2
CONTINUOUS
 70
64
  3
Solid line
 72
65
 73
0
 40
0.0
  0
LTYPE
  5
1F5
100
AcDbSymbolTableRecord
100
AcDbLinetypeTableRecord
  2
CENTER
 70
64
  3
____ _ ____ _ ____ _ ____ _ ____ _ ____ _ ____
 72
65
 73
4
 40
0.6
 49
0.375
 74
0
 49
-0.075
 74
0
 49
0.075
 74
0
 49
-0.075
 74
0
  0
LTYPE
  5
1F6
100
AcDbSymbolTableRecord
100
AcDbLinetypeTableRecord
  2
HIDDEN
 70
64
  3
- - - - - - - - - - - - - - - - - - - -
 72
65
 73
2
 40
0.2
 49
0.1
 74
0
 49
-0.1
 74
0
  0
LTYPE
  5
1F7
100
AcDbSymbolTableRecord
100
AcDbLinetypeTableRecord
  2
PHANTOM
 70
64
  3
_____ _ _ _____ _ _ _____ _ _ _____
 72
65
 73
6
 40
0.8
 49
0.45
 74
0
 49
-0.05
 74
0
 49
0.1
 74
0
 49
-0.05
 74
0
 49
0.1
 74
0
 49
-0.05
 74
0
  0
LTYPE
  5
1F8
100
AcDbSymbolTableRecord
100
AcDbLinetypeTableRecord
  2
DOT
 70
64
  3
. . . . . . . . . . . . . . . . . . . .
 72
65
 73
2
 40
0.2
 49
0.1
 74
0
 49
-0.1
 74
0
  0
LTYPE
  5
1F9
100
AcDbSymbolTableRecord
100
AcDbLinetypeTableRecord
  2
DASHED
 70
64
  3
- - - - - - - - - - - - - - - - - - - -
 72
65
 73
2
 40
0.2
 49
0.1
 74
0
 49
-0.1
 74
0
  0
ENDTAB
  0
TABLE
  2
LAYER
  5
2
100
AcDbSymbolTable
 70
36
  0
LAYER
  5
10
100
AcDbSymbolTableRecord
100
AcDbLayerTableRecord
  2
0
 70
0
 62
7
  6
CONTINUOUS
370
-3
390
F
  0
LAYER
  5
1FA
100
AcDbSymbolTableRecord
100
AcDbLayerTableRecord
  2
DEFAULT_1
 70
0
 62
7
  6
CENTER
370
-3
390
F
  0
LAYER
  5
1FB
100
AcDbSymbolTableRecord
100
AcDbLayerTableRecord
  2
DEFAULT_2
 70
0
 62
7
  6
HIDDEN
370
-3
390
F
  0
LAYER
  5
1FC
100
AcDbSymbolTableRecord
100
AcDbLayerTableRecord
  2
DEFAULT_3
 70
0
 62
7
  6
PHANTOM
370
-3
390
F
  0
LAYER
  5
1FD
100
AcDbSymbolTableRecord
100
AcDbLayerTableRecord
  2
00_COMPONENTS
 70
0
 62
7
  6
CONTINUOUS
370
-3
390
F
  0
LAYER
  5
1FE
100
AcDbSymbolTableRecord
100
AcDbLayerTableRecord
  2
01_1_DEFAULT_DATUMS
 70
0
 62
7
  6
CONTINUOUS
370
-3
390
F
  0
LAYER
  5
1FF
100
AcDbSymbolTableRecord
100
AcDbLayerTableRecord
  2
01_PLANES
 70
0
 62
7
  6
CONTINUOUS
370
-3
390
F
  0
LAYER
  5
200
100
AcDbSymbolTableRecord
100
AcDbLayerTableRecord
  2
02_COORD_SYS
 70
0
 62
7
  6
CONTINUOUS
370
-3
390
F
  0
LAYER
  5
201
100
AcDbSymbolTableRecord
100
AcDbLayerTableRecord
  2
03_AXES
 70
0
 62
7
  6
CONTINUOUS
370
-3
390
F
  0
LAYER
  5
202
100
AcDbSymbolTableRecord
100
AcDbLayerTableRecord
  2
04_POINTS
 70
0
 62
7
  6
CONTINUOUS
370
-3
390
F
  0
LAYER
  5
203
100
AcDbSymbolTableRecord
100
AcDbLayerTableRecord
  2
05_CURVES
 70
0
 62
7
  6
CONTINUOUS
370
-3
390
F
  0
LAYER
  5
204
100
AcDbSymbolTableRecord
100
AcDbLayerTableRecord
  2
06_SURFS
 70
0
 62
7
  6
CONTINUOUS
370
-3
390
F
  0
LAYER
  5
205
100
AcDbSymbolTableRecord
100
AcDbLayerTableRecord
  2
07_COSMETICS
 70
0
 62
7
  6
CONTINUOUS
370
-3
390
F
  0
LAYER
  5
206
100
AcDbSymbolTableRecord
100
AcDbLayerTableRecord
  2
10_NOTES
 70
0
 62
7
  6
CONTINUOUS
370
-3
390
F
  0
LAYER
  5
207
100
AcDbSymbolTableRecord
100
AcDbLayerTableRecord
  2
11_NOTES_PUB
 70
0
 62
7
  6
CONTINUOUS
370
-3
390
F
  0
LAYER
  5
208
100
AcDbSymbolTableRecord
100
AcDbLayerTableRecord
  2
13_REF_GTOL
 70
0
 62
7
  6
CONTINUOUS
370
-3
390
F
  0
LAYER
  5
209
100
AcDbSymbolTableRecord
100
AcDbLayerTableRecord
  2
16_MISC
 70
0
 62
7
  6
CONTINUOUS
370
-3
390
F
  0
LAYER
  5
20A
100
AcDbSymbolTableRecord
100
AcDbLayerTableRecord
  2
17_NO_PRINT
 70
0
 62
7
  6
CONTINUOUS
370
-3
390
F
  0
LAYER
  5
20B
100
AcDbSymbolTableRecord
100
AcDbLayerTableRecord
  2
18_DATUM_CAMS_JOINTS
 70
0
 62
7
  6
CONTINUOUS
370
-3
390
F
  0
LAYER
  5
20C
100
AcDbSymbolTableRecord
100
AcDbLayerTableRecord
  2
19_DATUM_FUNCTIONAL
 70
0
 62
7
  6
CONTINUOUS
370
-3
390
F
  0
LAYER
  5
20D
100
AcDbSymbolTableRecord
100
AcDbLayerTableRecord
  2
20_DATUM_KINEMATIC_SCHEME
 70
0
 62
7
  6
CONTINUOUS
370
-3
390
F
  0
ENDTAB
  0
TABLE
  2
STYLE
  5
3
100
AcDbSymbolTable
 70
1
  0
STYLE
  5
11
100
AcDbSymbolTableRecord
100
AcDbTextStyleTableRecord
  2
STANDARD
 70
0
 40
0.0
 41
1.0
 50
0.0
 71
0
 42
0.2
  3
ARIAL.TTF
  4

  0
STYLE
  5
20E
100
AcDbSymbolTableRecord
100
AcDbTextStyleTableRecord
  2
TEXTSTYLE_1
 70
0
 40
0.0
 41
0.8
 50
0.0
 71
0
 42
0.2
  3
gdt
  4

  0
ENDTAB
  0
TABLE
  2
VIEW
  5
6
100
AcDbSymbolTable
 70
0
  0
ENDTAB
  0
TABLE
  2
UCS
  5
7
100
AcDbSymbolTable
 70
0
  0
ENDTAB
  0
TABLE
  2
APPID
  5
9
100
AcDbSymbolTable
 70
1
  0
APPID
  5
20F
100
AcDbSymbolTableRecord
100
AcDbRegAppTableRecord
  2
ACAD
 70
0
  0
ENDTAB
  0
TABLE
  2
BLOCK_RECORD
  5
1
100
AcDbSymbolTable
 70
0
  0
BLOCK_RECORD
  5
210
100
AcDbSymbolTableRecord
100
AcDbBlockTableRecord
  2
*Model_Space
  0
BLOCK_RECORD
  5
211
100
AcDbSymbolTableRecord
100
AcDbBlockTableRecord
  2
*Paper_Space
  0
BLOCK_RECORD
  5
212
100
AcDbSymbolTableRecord
100
AcDbBlockTableRecord
  2
_FILLED
  0
ENDTAB
  0
TABLE
  2
DIMSTYLE
  5
A
100
AcDbSymbolTable
 70
1
100
AcDbDimStyleTable
 71
0
  0
DIMSTYLE
105
213
100
AcDbSymbolTableRecord
100
AcDbDimStyleTableRecord
  2
STANDARD
 70
0
  3

  4

 40
1.0
 41
3.4474449959
 42
1.0
 43
0.38
 44
1.0
 45
0.0
 46
0.0
 47
0.01
 48
0.01
140
4.8264229943
141
0.09
142
0.0
143
25.4
144
1.0
145
0.0
146
1.0
147
0.625
 71
1
 72
0
 73
0
 74
0
 75
0
 76
0
 77
1
 78
8
 79
2
170
0
171
1
172
0
173
0
174
0
175
0
176
0
177
0
178
0
270
2
179
2
271
2
272
2
273
2
274
2
275
0
280
0
281
0
282
0
283
1
284
8
285
0
286
0
287
3
288
0
340
11
278
46
341
212
342
212
343
212
344
212
  0
ENDTAB
  0
ENDSEC
  0
SECTION
  2
BLOCKS
  0
BLOCK
  5
20
100
AcDbEntity
  8
0
100
AcDbBlockBegin
  2
*Model_Space
 70
0
 10
0.0
 20
0.0
 30
0.0
  3
*Model_Space
  1

  0
ENDBLK
  5
21
100
AcDbEntity
  8
0
100
AcDbBlockEnd
  0
BLOCK
  5
1C
100
AcDbEntity
  8
0
100
AcDbBlockBegin
  2
*Paper_Space
 70
0
 10
0.0
 20
0.0
 30
0.0
  3
*Paper_Space
  1

  0
ENDBLK
  5
1D
100
AcDbEntity
  8
0
100
AcDbBlockEnd
  0
BLOCK
  5
214
100
AcDbEntity
  8
0
100
AcDbBlockBegin
  2
_FILLED
 70
64
 10
0.0
 20
0.0
  3
_FILLED
  1

  0
SOLID
  5
215
100
AcDbEntity
  8
0
  6
BYBLOCK
 62
0
100
AcDbTrace
 10
0.0
 20
0.0
 11
-1.0
 21
0.25
 12
-1.0
 22
-0.25
 13
-1.0
 23
-0.25
  0
ENDBLK
  5
216
100
AcDbEntity
  8
0
  6
BYBLOCK
 62
0
100
AcDbBlockEnd
  0
ENDSEC
  0
SECTION
  2
ENTITIES
  0
LINE
  5
217
100
AcDbEntity
  8
0
100
AcDbLine
 62
7
  6
BYLAYER
 10
41.130791959
 20
274.6423448868
 11
40.6111669584
 21
273.7423279848
  0
LINE
  5
218
100
AcDbEntity
  8
0
100
AcDbLine
 62
7
  6
BYLAYER
 10
40.6111671557
 20
133.3076716734
 11
41.1307920712
 21
132.407654919
  0
LINE
  5
219
100
AcDbEntity
  8
0
100
AcDbLine
 62
7
  6
BYLAYER
 10
32.2523881052
 20
271.8923366052
 11
32.2523881052
 21
247.4450210481
  0
LINE
  5
21A
100
AcDbEntity
  8
0
100
AcDbLine
 62
7
  6
BYLAYER
 10
32.2523881052
 20
247.3748847578
 11
32.2523881052
 21
245.4923366052
  0
LINE
  5
21B
100
AcDbEntity
  8
0
100
AcDbLine
 62
7
  6
BYLAYER
 10
32.2523881052
 20
161.5576633948
 11
32.2523881052
 21
140.2576633948
  0
LINE
  5
21C
100
AcDbEntity
  8
0
100
AcDbLine
 62
7
  6
BYLAYER
 10
32.2523881052
 20
140.2306724444
 11
32.2523881052
 21
135.1576633948
  0
LINE
  5
21D
100
AcDbEntity
  8
0
100
AcDbLine
 62
7
  6
BYLAYER
 10
36.722389719
 20
158.7641853836
 11
36.722389719
 21
133.4576633948
  0
LINE
  5
21E
100
AcDbEntity
  8
0
100
AcDbLine
 62
7
  6
BYLAYER
 10
36.722389719
 20
248.2858146164
 11
36.722389719
 21
273.5923366052
  0
LINE
  5
21F
100
AcDbEntity
  8
0
100
AcDbLine
 62
7
  6
BYLAYER
 10
39.1023881052
 20
162.2076293948
 11
39.1023881052
 21
158.7641853836
  0
LINE
  5
220
100
AcDbEntity
  8
0
100
AcDbLine
 62
7
  6
BYLAYER
 10
39.1023881052
 20
244.8423706052
 11
39.1023881052
 21
248.2858146164
  0
LINE
  5
221
100
AcDbEntity
  8
0
100
AcDbLine
 62
7
  6
BYLAYER
 10
60.60079196
 20
274.6423448868
 11
60.0811669594
 21
273.7423279848
  0
LINE
  5
222
100
AcDbEntity
  8
0
100
AcDbLine
 62
7
  6
BYLAYER
 10
60.0811671567
 20
133.3076716734
 11
60.6007920721
 21
132.4076549191
  0
LINE
  5
223
100
AcDbEntity
  8
0
100
AcDbLine
 62
7
  6
BYLAYER
 10
40.702389719
 20
185.5576628701
 11
40.702389719
 21
162.2076293948
  0
LINE
  5
224
100
AcDbEntity
  8
0
100
AcDbLine
 62
7
  6
BYLAYER
 10
40.7023901948
 20
221.4923407213
 11
40.7023899334
 21
244.8423706052
  0
LINE
  5
225
100
AcDbEntity
  8
0
100
AcDbLine
 62
7
  6
BYLAYER
 10
44.702389719
 20
273.5923366052
 11
44.702389719
 21
272.5923366052
  0
LINE
  5
226
100
AcDbEntity
  8
0
100
AcDbLine
 62
7
  6
BYLAYER
 10
44.7023913328
 20
229.7923366052
 11
44.7023913328
 21
227.7923366052
  0
LINE
  5
227
100
AcDbEntity
  8
0
100
AcDbLine
 62
7
  6
BYLAYER
 10
44.702389719
 20
133.4576633948
 11
44.702389719
 21
134.4576633948
  0
LINE
  5
228
100
AcDbEntity
  8
0
100
AcDbLine
 62
7
  6
BYLAYER
 10
44.7023913328
 20
177.2576633948
 11
44.7023913328
 21
179.2576633948
  0
LINE
  5
229
100
AcDbEntity
  8
0
100
AcDbLine
 62
7
  6
BYLAYER
 10
54.702389719
 20
134.4576633948
 11
54.702389719
 21
133.4576633948
  0
LINE
  5
22A
100
AcDbEntity
  8
0
100
AcDbLine
 62
7
  6
BYLAYER
 10
54.702389719
 20
272.5923366052
 11
54.702389719
 21
273.5923366052
  0
LINE
  5
22B
100
AcDbEntity
  8
0
100
AcDbLine
 62
7
  6
BYLAYER
 10
54.7023913328
 20
179.2576633948
 11
54.7023913328
 21
177.2576633948
  0
LINE
  5
22C
100
AcDbEntity
  8
0
100
AcDbLine
 62
7
  6
BYLAYER
 10
54.7023913328
 20
227.7923366052
 11
54.7023913328
 21
229.7923366052
  0
LINE
  5
22D
100
AcDbEntity
  8
0
100
AcDbLine
 62
7
  6
BYLAYER
 10
58.7023902417
 20
185.5607275858
 11
58.7023899545
 21
162.2076293948
  0
LINE
  5
22E
100
AcDbEntity
  8
0
100
AcDbLine
 62
7
  6
BYLAYER
 10
58.702389719
 20
221.4913140681
 11
58.702389719
 21
244.8423706052
  0
LINE
  5
22F
100
AcDbEntity
  8
0
100
AcDbLine
 62
7
  6
BYLAYER
 10
76.1307919983
 20
274.642344953
 11
75.6111670446
 21
273.7423281324
  0
LINE
  5
230
100
AcDbEntity
  8
0
100
AcDbLine
 62
7
  6
BYLAYER
 10
75.6111671925
 20
133.3076716113
 11
76.1307921577
 21
132.4076547708
  0
LINE
  5
231
100
AcDbEntity
  8
0
100
AcDbLine
 62
7
  6
BYLAYER
 10
60.3023913328
 20
162.2076293948
 11
60.3023913328
 21
158.7641853836
  0
LINE
  5
232
100
AcDbEntity
  8
0
100
AcDbLine
 62
7
  6
BYLAYER
 10
60.3023913328
 20
244.8423706052
 11
60.3023913328
 21
248.2858146164
  0
LINE
  5
233
100
AcDbEntity
  8
0
100
AcDbLine
 62
7
  6
BYLAYER
 10
62.682389719
 20
158.7641853836
 11
62.682389719
 21
133.4576633948
  0
LINE
  5
234
100
AcDbEntity
  8
0
100
AcDbLine
 62
7
  6
BYLAYER
 10
62.682389719
 20
248.2858146164
 11
62.682389719
 21
273.5923366052
  0
LINE
  5
235
100
AcDbEntity
  8
0
100
AcDbLine
 62
7
  6
BYLAYER
 10
95.6007920039
 20
274.642344953
 11
95.0811670503
 21
273.7423281325
  0
LINE
  5
236
100
AcDbEntity
  8
0
100
AcDbLine
 62
7
  6
BYLAYER
 10
95.0811671982
 20
133.3076716113
 11
95.6007921633
 21
132.4076547708
  0
LINE
  5
237
100
AcDbEntity
  8
0
100
AcDbLine
 62
7
  6
BYLAYER
 10
71.722389719
 20
158.7641853836
 11
71.722389719
 21
133.4576633948
  0
LINE
  5
238
100
AcDbEntity
  8
0
100
AcDbLine
 62
7
  6
BYLAYER
 10
71.722389719
 20
248.2858146164
 11
71.722389719
 21
273.5923366052
  0
LINE
  5
239
100
AcDbEntity
  8
0
100
AcDbLine
 62
7
  6
BYLAYER
 10
74.1023881052
 20
162.2076293948
 11
74.1023881052
 21
158.7641853836
  0
LINE
  5
23A
100
AcDbEntity
  8
0
100
AcDbLine
 62
7
  6
BYLAYER
 10
74.1023881052
 20
244.8423706052
 11
74.1023881052
 21
248.2858146164
  0
LINE
  5
23B
100
AcDbEntity
  8
0
100
AcDbLine
 62
7
  6
BYLAYER
 10
75.702389719
 20
185.5586859319
 11
75.702389719
 21
162.2076293948
  0
LINE
  5
23C
100
AcDbEntity
  8
0
100
AcDbLine
 62
7
  6
BYLAYER
 10
75.7023891963
 20
221.4892724142
 11
75.7023894835
 21
244.8423706052
  0
LINE
  5
23D
100
AcDbEntity
  8
0
100
AcDbLine
 62
7
  6
BYLAYER
 10
79.7023881052
 20
179.2576633948
 11
79.7023881052
 21
177.2576633948
  0
LINE
  5
23E
100
AcDbEntity
  8
0
100
AcDbLine
 62
7
  6
BYLAYER
 10
79.702389719
 20
134.4576633948
 11
79.702389719
 21
133.4576633948
  0
LINE
  5
23F
100
AcDbEntity
  8
0
100
AcDbLine
 62
7
  6
BYLAYER
 10
79.7023881052
 20
227.7923366052
 11
79.7023881052
 21
229.7923366052
  0
LINE
  5
240
100
AcDbEntity
  8
0
100
AcDbLine
 62
7
  6
BYLAYER
 10
79.702389719
 20
272.5923366052
 11
79.702389719
 21
273.5923366052
  0
LINE
  5
241
100
AcDbEntity
  8
0
100
AcDbLine
 62
7
  6
BYLAYER
 10
111.130791959
 20
274.6423448867
 11
110.6111669584
 21
273.7423279848
  0
LINE
  5
242
100
AcDbEntity
  8
0
100
AcDbLine
 62
7
  6
BYLAYER
 10
223.214169486
 20
132.2576633948
 11
221.0606101422
 21
132.2576633948
  0
LINE
  5
243
100
AcDbEntity
  8
0
100
AcDbLine
 62
7
  6
BYLAYER
 10
203.7441694846
 20
132.2576633948
 11
201.59061014
 21
132.2576633948
  0
LINE
  5
244
100
AcDbEntity
  8
0
100
AcDbLine
 62
7
  6
BYLAYER
 10
130.514169486
 20
132.2576633948
 11
128.3606101422
 21
132.2576633948
  0
LINE
  5
245
100
AcDbEntity
  8
0
100
AcDbLine
 62
7
  6
BYLAYER
 10
111.0441694847
 20
132.2576633948
 11
108.89061014
 21
132.2576633948
  0
LINE
  5
246
100
AcDbEntity
  8
0
100
AcDbLine
 62
7
  6
BYLAYER
 10
60.5141694859
 20
132.2576633948
 11
58.3606101422
 21
132.2576633948
  0
LINE
  5
247
100
AcDbEntity
  8
0
100
AcDbLine
 62
7
  6
BYLAYER
 10
41.0441694847
 20
132.2576633948
 11
38.89061014
 21
132.2576633948
  0
LINE
  5
248
100
AcDbEntity
  8
0
100
AcDbLine
 62
7
  6
BYLAYER
 10
73.890607444
 20
132.2576633948
 11
76.044171994
 21
132.2576633948
  0
LINE
  5
249
100
AcDbEntity
  8
0
100
AcDbLine
 62
7
  6
BYLAYER
 10
93.3606074453
 20
132.2576633948
 11
95.5141719962
 21
132.2576633948
  0
LINE
  5
24A
100
AcDbEntity
  8
0
100
AcDbLine
 62
7
  6
BYLAYER
 10
166.590607444
 20
132.2576633948
 11
168.744171994
 21
132.2576633948
  0
LINE
  5
24B
100
AcDbEntity
  8
0
100
AcDbLine
 62
7
  6
BYLAYER
 10
186.0606074453
 20
132.2576633948
 11
188.2141719962
 21
132.2576633948
  0
LINE
  5
24C
100
AcDbEntity
  8
0
100
AcDbLine
 62
7
  6
BYLAYER
 10
236.590607444
 20
132.2576633948
 11
238.744171994
 21
132.2576633948
  0
LINE
  5
24D
100
AcDbEntity
  8
0
100
AcDbLine
 62
7
  6
BYLAYER
 10
256.0606074453
 20
132.2576633948
 11
258.2141719962
 21
132.2576633948
  0
LINE
  5
24E
100
AcDbEntity
  8
0
100
AcDbLine
 62
7
  6
BYLAYER
 10
36.722389719
 20
133.4576633948
 11
39.2369923179
 21
133.4576633948
  0
LINE
  5
24F
100
AcDbEntity
  8
0
100
AcDbLine
 62
7
  6
BYLAYER
 10
40.6977871169
 20
133.4576633948
 11
58.7069923206
 21
133.4576633948
  0
LINE
  5
250
100
AcDbEntity
  8
0
100
AcDbLine
 62
7
  6
BYLAYER
 10
60.1677871174
 20
133.4576633948
 11
62.682389719
 21
133.4576633948
  0
LINE
  5
251
100
AcDbEntity
  8
0
100
AcDbLine
 62
7
  6
BYLAYER
 10
71.722389719
 20
133.4576633948
 11
74.2369923206
 21
133.4576633948
  0
LINE
  5
252
100
AcDbEntity
  8
0
100
AcDbLine
 62
7
  6
BYLAYER
 10
75.6977871174
 20
133.4576633948
 11
93.7069923211
 21
133.4576633948
  0
LINE
  5
253
100
AcDbEntity
  8
0
100
AcDbLine
 62
7
  6
BYLAYER
 10
95.1677871201
 20
133.4576633948
 11
97.682389719
 21
133.4576633948
  0
LINE
  5
254
100
AcDbEntity
  8
0
100
AcDbLine
 62
7
  6
BYLAYER
 10
106.722389719
 20
133.4576633948
 11
109.2369923179
 21
133.4576633948
  0
LINE
  5
255
100
AcDbEntity
  8
0
100
AcDbLine
 62
7
  6
BYLAYER
 10
110.6977871169
 20
133.4576633948
 11
128.7069923206
 21
133.4576633948
  0
LINE
  5
256
100
AcDbEntity
  8
0
100
AcDbLine
 62
7
  6
BYLAYER
 10
130.1677871174
 20
133.4576633948
 11
132.682389719
 21
133.4576633948
  0
LINE
  5
257
100
AcDbEntity
  8
0
100
AcDbLine
 62
7
  6
BYLAYER
 10
164.422389719
 20
133.4576633948
 11
166.9369923206
 21
133.4576633948
  0
LINE
  5
258
100
AcDbEntity
  8
0
100
AcDbLine
 62
7
  6
BYLAYER
 10
168.3977871174
 20
133.4576633948
 11
186.4069923211
 21
133.4576633948
  0
LINE
  5
259
100
AcDbEntity
  8
0
100
AcDbLine
 62
7
  6
BYLAYER
 10
187.8677871201
 20
133.4576633948
 11
190.382389719
 21
133.4576633948
  0
LINE
  5
25A
100
AcDbEntity
  8
0
100
AcDbLine
 62
7
  6
BYLAYER
 10
199.422389719
 20
133.4576633948
 11
201.9369923179
 21
133.4576633948
  0
LINE
  5
25B
100
AcDbEntity
  8
0
100
AcDbLine
 62
7
  6
BYLAYER
 10
203.3977871169
 20
133.4576633948
 11
221.4069923206
 21
133.4576633948
  0
LINE
  5
25C
100
AcDbEntity
  8
0
100
AcDbLine
 62
7
  6
BYLAYER
 10
222.8677871174
 20
133.4576633948
 11
225.382389719
 21
133.4576633948
  0
LINE
  5
25D
100
AcDbEntity
  8
0
100
AcDbLine
 62
7
  6
BYLAYER
 10
234.422389719
 20
133.4576633948
 11
236.9369923206
 21
133.4576633948
  0
LINE
  5
25E
100
AcDbEntity
  8
0
100
AcDbLine
 62
7
  6
BYLAYER
 10
238.3977871174
 20
133.4576633948
 11
256.4069923211
 21
133.4576633948
  0
LINE
  5
25F
100
AcDbEntity
  8
0
100
AcDbLine
 62
7
  6
BYLAYER
 10
257.8677871201
 20
133.4576633948
 11
260.382389719
 21
133.4576633948
  0
LINE
  5
260
100
AcDbEntity
  8
0
100
AcDbLine
 62
7
  6
BYLAYER
 10
252.402389719
 20
134.4576633948
 11
242.402389719
 21
134.4576633948
  0
LINE
  5
261
100
AcDbEntity
  8
0
100
AcDbLine
 62
7
  6
BYLAYER
 10
182.402389719
 20
134.4576633948
 11
172.402389719
 21
134.4576633948
  0
LINE
  5
262
100
AcDbEntity
  8
0
100
AcDbLine
 62
7
  6
BYLAYER
 10
89.702389719
 20
134.4576633948
 11
79.702389719
 21
134.4576633948
  0
LINE
  5
263
100
AcDbEntity
  8
0
100
AcDbLine
 62
7
  6
BYLAYER
 10
44.702389719
 20
134.4576633948
 11
54.702389719
 21
134.4576633948
  0
LINE
  5
264
100
AcDbEntity
  8
0
100
AcDbLine
 62
7
  6
BYLAYER
 10
114.702389719
 20
134.4576633948
 11
124.702389719
 21
134.4576633948
  0
LINE
  5
265
100
AcDbEntity
  8
0
100
AcDbLine
 62
7
  6
BYLAYER
 10
207.402389719
 20
134.4576633948
 11
217.402389719
 21
134.4576633948
  0
LINE
  5
266
100
AcDbEntity
  8
0
100
AcDbLine
 62
7
  6
BYLAYER
 10
32.2523881052
 20
135.1576633948
 11
36.722389719
 21
135.1576633948
  0
LINE
  5
267
100
AcDbEntity
  8
0
100
AcDbLine
 62
7
  6
BYLAYER
 10
62.682389719
 20
135.1576633948
 11
71.722389719
 21
135.1576633948
  0
LINE
  5
268
100
AcDbEntity
  8
0
100
AcDbLine
 62
7
  6
BYLAYER
 10
97.682389719
 20
135.1576633948
 11
106.722389719
 21
135.1576633948
  0
LINE
  5
269
100
AcDbEntity
  8
0
100
AcDbLine
 62
7
  6
BYLAYER
 10
132.682389719
 20
135.1576633948
 11
164.422389719
 21
135.1576633948
  0
LINE
  5
26A
100
AcDbEntity
  8
0
100
AcDbLine
 62
7
  6
BYLAYER
 10
190.382389719
 20
135.1576633948
 11
199.422389719
 21
135.1576633948
  0
LINE
  5
26B
100
AcDbEntity
  8
0
100
AcDbLine
 62
7
  6
BYLAYER
 10
225.382389719
 20
135.1576633948
 11
234.422389719
 21
135.1576633948
  0
LINE
  5
26C
100
AcDbEntity
  8
0
100
AcDbLine
 62
7
  6
BYLAYER
 10
260.382389719
 20
135.1576633948
 11
264.8523881052
 21
135.1576633948
  0
LINE
  5
26D
100
AcDbEntity
  8
0
100
AcDbLine
 62
7
  6
BYLAYER
 10
62.682389719
 20
135.1951633948
 11
71.722389719
 21
135.1951633948
  0
LINE
  5
26E
100
AcDbEntity
  8
0
100
AcDbLine
 62
7
  6
BYLAYER
 10
97.682389719
 20
135.1951633948
 11
106.722389719
 21
135.1951633948
  0
LINE
  5
26F
100
AcDbEntity
  8
0
100
AcDbLine
 62
7
  6
BYLAYER
 10
132.682389719
 20
135.1951633948
 11
164.422389719
 21
135.1951633948
  0
LINE
  5
270
100
AcDbEntity
  8
0
100
AcDbLine
 62
7
  6
BYLAYER
 10
190.382389719
 20
135.1951633948
 11
199.422389719
 21
135.1951633948
  0
LINE
  5
271
100
AcDbEntity
  8
0
100
AcDbLine
 62
7
  6
BYLAYER
 10
225.382389719
 20
135.1951633948
 11
234.422389719
 21
135.1951633948
  0
LINE
  5
272
100
AcDbEntity
  8
0
100
AcDbLine
 62
7
  6
BYLAYER
 10
32.2523881052
 20
135.6576633948
 11
36.722389719
 21
135.6576633948
  0
LINE
  5
273
100
AcDbEntity
  8
0
100
AcDbLine
 62
7
  6
BYLAYER
 10
62.682389719
 20
135.6576633948
 11
71.722389719
 21
135.6576633948
  0
LINE
  5
274
100
AcDbEntity
  8
0
100
AcDbLine
 62
7
  6
BYLAYER
 10
97.682389719
 20
135.6576633948
 11
106.722389719
 21
135.6576633948
  0
LINE
  5
275
100
AcDbEntity
  8
0
100
AcDbLine
 62
7
  6
BYLAYER
 10
132.682389719
 20
135.6576633948
 11
164.422389719
 21
135.6576633948
  0
LINE
  5
276
100
AcDbEntity
  8
0
100
AcDbLine
 62
7
  6
BYLAYER
 10
190.382389719
 20
135.6576633948
 11
199.422389719
 21
135.6576633948
  0
LINE
  5
277
100
AcDbEntity
  8
0
100
AcDbLine
 62
7
  6
BYLAYER
 10
225.382389719
 20
135.6576633948
 11
234.422389719
 21
135.6576633948
  0
LINE
  5
278
100
AcDbEntity
  8
0
100
AcDbLine
 62
7
  6
BYLAYER
 10
260.382389719
 20
135.6576633948
 11
264.8523881052
 21
135.6576633948
  0
LINE
  5
279
100
AcDbEntity
  8
0
100
AcDbLine
 62
7
  6
BYLAYER
 10
32.2523881052
 20
136.6576633948
 11
36.722389719
 21
136.6576633948
  0
LINE
  5
27A
100
AcDbEntity
  8
0
100
AcDbLine
 62
7
  6
BYLAYER
 10
62.682389719
 20
136.6576633948
 11
71.722389719
 21
136.6576633948
  0
LINE
  5
27B
100
AcDbEntity
  8
0
100
AcDbLine
 62
7
  6
BYLAYER
 10
97.682389719
 20
136.6576633948
 11
106.722389719
 21
136.6576633948
  0
LINE
  5
27C
100
AcDbEntity
  8
0
100
AcDbLine
 62
7
  6
BYLAYER
 10
132.682389719
 20
136.6576633948
 11
164.422389719
 21
136.6576633948
  0
LINE
  5
27D
100
AcDbEntity
  8
0
100
AcDbLine
 62
7
  6
BYLAYER
 10
190.382389719
 20
136.6576633948
 11
199.422389719
 21
136.6576633948
  0
LINE
  5
27E
100
AcDbEntity
  8
0
100
AcDbLine
 62
7
  6
BYLAYER
 10
225.382389719
 20
136.6576633948
 11
234.422389719
 21
136.6576633948
  0
LINE
  5
27F
100
AcDbEntity
  8
0
100
AcDbLine
 62
7
  6
BYLAYER
 10
260.382389719
 20
136.6576633948
 11
264.8523881052
 21
136.6576633948
  0
LINE
  5
280
100
AcDbEntity
  8
0
100
AcDbLine
 62
7
  6
BYLAYER
 10
62.682389719
 20
137.1201633948
 11
71.722389719
 21
137.1201633948
  0
LINE
  5
281
100
AcDbEntity
  8
0
100
AcDbLine
 62
7
  6
BYLAYER
 10
97.682389719
 20
137.1201633948
 11
106.722389719
 21
137.1201633948
  0
LINE
  5
282
100
AcDbEntity
  8
0
100
AcDbLine
 62
7
  6
BYLAYER
 10
132.682389719
 20
137.1201633948
 11
164.422389719
 21
137.1201633948
  0
LINE
  5
283
100
AcDbEntity
  8
0
100
AcDbLine
 62
7
  6
BYLAYER
 10
190.382389719
 20
137.1201633948
 11
199.422389719
 21
137.1201633948
  0
LINE
  5
284
100
AcDbEntity
  8
0
100
AcDbLine
 62
7
  6
BYLAYER
 10
225.382389719
 20
137.1201633948
 11
234.422389719
 21
137.1201633948
  0
LINE
  5
285
100
AcDbEntity
  8
0
100
AcDbLine
 62
7
  6
BYLAYER
 10
32.2523881052
 20
137.1576633948
 11
36.722389719
 21
137.1576633948
  0
LINE
  5
286
100
AcDbEntity
  8
0
100
AcDbLine
 62
7
  6
BYLAYER
 10
260.382389719
 20
137.1576633948
 11
264.8523881052
 21
137.1576633948
  0
LINE
  5
287
100
AcDbEntity
  8
0
100
AcDbLine
 62
7
  6
BYLAYER
 10
32.2523881052
 20
137.3576633948
 11
36.722389719
 21
137.3576633948
  0
LINE
  5
288
100
AcDbEntity
  8
0
100
AcDbLine
 62
7
  6
BYLAYER
 10
260.382389719
 20
137.3576633948
 11
264.8523881052
 21
137.3576633948
  0
LINE
  5
289
100
AcDbEntity
  8
0
100
AcDbLine
 62
7
  6
BYLAYER
 10
264.8523881052
 20
140.0576633948
 11
260.382389719
 21
140.0576633948
  0
LINE
  5
28A
100
AcDbEntity
  8
0
100
AcDbLine
 62
7
  6
BYLAYER
 10
36.722389719
 20
140.0576633948
 11
32.2523881052
 21
140.0576633948
  0
LINE
  5
28B
100
AcDbEntity
  8
0
100
AcDbLine
 62
7
  6
BYLAYER
 10
264.8523881052
 20
140.2576633948
 11
260.382389719
 21
140.2576633948
  0
LINE
  5
28C
100
AcDbEntity
  8
0
100
AcDbLine
 62
7
  6
BYLAYER
 10
36.722389719
 20
140.2576633948
 11
32.2523881052
 21
140.2576633948
  0
LINE
  5
28D
100
AcDbEntity
  8
0
100
AcDbLine
 62
7
  6
BYLAYER
 10
32.2523881052
 20
140.4576633948
 11
36.722389719
 21
140.4576633948
  0
LINE
  5
28E
100
AcDbEntity
  8
0
100
AcDbLine
 62
7
  6
BYLAYER
 10
260.382389719
 20
140.4576633948
 11
264.8523881052
 21
140.4576633948
  0
LINE
  5
28F
100
AcDbEntity
  8
0
100
AcDbLine
 62
7
  6
BYLAYER
 10
110.6111671557
 20
133.3076716734
 11
111.1307920711
 21
132.4076549191
  0
LINE
  5
290
100
AcDbEntity
  8
0
100
AcDbLine
 62
7
  6
BYLAYER
 10
89.702389719
 20
273.5923366052
 11
89.702389719
 21
272.5923366052
  0
LINE
  5
291
100
AcDbEntity
  8
0
100
AcDbLine
 62
7
  6
BYLAYER
 10
89.7023881052
 20
229.7923366052
 11
89.7023881052
 21
227.7923366052
  0
LINE
  5
292
100
AcDbEntity
  8
0
100
AcDbLine
 62
7
  6
BYLAYER
 10
89.702389719
 20
133.4576633948
 11
89.702389719
 21
134.4576633948
  0
LINE
  5
293
100
AcDbEntity
  8
0
100
AcDbLine
 62
7
  6
BYLAYER
 10
89.7023881052
 20
177.2576633948
 11
89.7023881052
 21
179.2576633948
  0
LINE
  5
294
100
AcDbEntity
  8
0
100
AcDbLine
 62
7
  6
BYLAYER
 10
93.7023892432
 20
185.5576592787
 11
93.7023895046
 21
162.2076293948
  0
LINE
  5
295
100
AcDbEntity
  8
0
100
AcDbLine
 62
7
  6
BYLAYER
 10
93.702389719
 20
221.4923371299
 11
93.702389719
 21
244.8423706052
  0
LINE
  5
296
100
AcDbEntity
  8
0
100
AcDbLine
 62
7
  6
BYLAYER
 10
38.803987432
 20
132.4076550434
 11
39.3236124268
 21
133.3076719353
  0
LINE
  5
297
100
AcDbEntity
  8
0
100
AcDbLine
 62
7
  6
BYLAYER
 10
264.8523881052
 20
141.6576633948
 11
260.382389719
 21
141.6576633948
  0
LINE
  5
298
100
AcDbEntity
  8
0
100
AcDbLine
 62
7
  6
BYLAYER
 10
36.722389719
 20
141.6576633948
 11
32.2523881052
 21
141.6576633948
  0
LINE
  5
299
100
AcDbEntity
  8
0
100
AcDbLine
 62
7
  6
BYLAYER
 10
32.2523881052
 20
141.8576633948
 11
36.722389719
 21
141.8576633948
  0
LINE
  5
29A
100
AcDbEntity
  8
0
100
AcDbLine
 62
7
  6
BYLAYER
 10
260.382389719
 20
141.8576633948
 11
264.8523881052
 21
141.8576633948
  0
LINE
  5
29B
100
AcDbEntity
  8
0
100
AcDbLine
 62
7
  6
BYLAYER
 10
32.2523881052
 20
143.3576633948
 11
36.722389719
 21
143.3576633948
  0
LINE
  5
29C
100
AcDbEntity
  8
0
100
AcDbLine
 62
7
  6
BYLAYER
 10
260.382389719
 20
143.3576633948
 11
264.8523881052
 21
143.3576633948
  0
LINE
  5
29D
100
AcDbEntity
  8
0
100
AcDbLine
 62
7
  6
BYLAYER
 10
39.3236122414
 20
273.7423283859
 11
38.8039873211
 21
274.6423451487
  0
LINE
  5
29E
100
AcDbEntity
  8
0
100
AcDbLine
 62
7
  6
BYLAYER
 10
95.3023913328
 20
162.2076293948
 11
95.3023913328
 21
158.7641853836
  0
LINE
  5
29F
100
AcDbEntity
  8
0
100
AcDbLine
 62
7
  6
BYLAYER
 10
95.3023913328
 20
244.8423706052
 11
95.3023913328
 21
248.2858146164
  0
LINE
  5
2A0
100
AcDbEntity
  8
0
100
AcDbLine
 62
7
  6
BYLAYER
 10
97.682389719
 20
158.7641853836
 11
97.682389719
 21
133.4576633948
  0
LINE
  5
2A1
100
AcDbEntity
  8
0
100
AcDbLine
 62
7
  6
BYLAYER
 10
97.682389719
 20
248.2858146164
 11
97.682389719
 21
273.5923366052
  0
LINE
  5
2A2
100
AcDbEntity
  8
0
100
AcDbLine
 62
7
  6
BYLAYER
 10
130.60079196
 20
274.6423448868
 11
130.0811669594
 21
273.7423279848
  0
LINE
  5
2A3
100
AcDbEntity
  8
0
100
AcDbLine
 62
7
  6
BYLAYER
 10
32.2523881052
 20
153.8576633948
 11
36.722389719
 21
153.8576633948
  0
LINE
  5
2A4
100
AcDbEntity
  8
0
100
AcDbLine
 62
7
  6
BYLAYER
 10
260.382389719
 20
153.8576633948
 11
264.8523881052
 21
153.8576633948
  0
LINE
  5
2A5
100
AcDbEntity
  8
0
100
AcDbLine
 62
7
  6
BYLAYER
 10
32.2523881052
 20
154.3576633948
 11
36.722389719
 21
154.3576633948
  0
LINE
  5
2A6
100
AcDbEntity
  8
0
100
AcDbLine
 62
7
  6
BYLAYER
 10
260.382389719
 20
154.3576633948
 11
264.8523881052
 21
154.3576633948
  0
LINE
  5
2A7
100
AcDbEntity
  8
0
100
AcDbLine
 62
7
  6
BYLAYER
 10
264.8523881052
 20
155.1076633948
 11
260.382389719
 21
155.1076633948
  0
LINE
  5
2A8
100
AcDbEntity
  8
0
100
AcDbLine
 62
7
  6
BYLAYER
 10
36.722389719
 20
155.1076633948
 11
32.2523881052
 21
155.1076633948
  0
LINE
  5
2A9
100
AcDbEntity
  8
0
100
AcDbLine
 62
7
  6
BYLAYER
 10
234.422389719
 20
155.3576633948
 11
225.382389719
 21
155.3576633948
  0
LINE
  5
2AA
100
AcDbEntity
  8
0
100
AcDbLine
 62
7
  6
BYLAYER
 10
199.422389719
 20
155.3576633948
 11
190.382389719
 21
155.3576633948
  0
LINE
  5
2AB
100
AcDbEntity
  8
0
100
AcDbLine
 62
7
  6
BYLAYER
 10
164.422389719
 20
155.3576633948
 11
132.682389719
 21
155.3576633948
  0
LINE
  5
2AC
100
AcDbEntity
  8
0
100
AcDbLine
 62
7
  6
BYLAYER
 10
106.722389719
 20
155.3576633948
 11
97.682389719
 21
155.3576633948
  0
LINE
  5
2AD
100
AcDbEntity
  8
0
100
AcDbLine
 62
7
  6
BYLAYER
 10
71.722389719
 20
155.3576633948
 11
62.682389719
 21
155.3576633948
  0
LINE
  5
2AE
100
AcDbEntity
  8
0
100
AcDbLine
 62
7
  6
BYLAYER
 10
32.2523881052
 20
155.3576633948
 11
36.722389719
 21
155.3576633948
  0
LINE
  5
2AF
100
AcDbEntity
  8
0
100
AcDbLine
 62
7
  6
BYLAYER
 10
260.382389719
 20
155.3576633948
 11
264.8523881052
 21
155.3576633948
  0
LINE
  5
2B0
100
AcDbEntity
  8
0
100
AcDbLine
 62
7
  6
BYLAYER
 10
264.8523881052
 20
156.4269464208
 11
260.382389719
 21
156.4269464208
  0
LINE
  5
2B1
100
AcDbEntity
  8
0
100
AcDbLine
 62
7
  6
BYLAYER
 10
234.422389719
 20
156.4269464208
 11
225.382389719
 21
156.4269464208
  0
LINE
  5
2B2
100
AcDbEntity
  8
0
100
AcDbLine
 62
7
  6
BYLAYER
 10
199.422389719
 20
156.4269464208
 11
190.382389719
 21
156.4269464208
  0
LINE
  5
2B3
100
AcDbEntity
  8
0
100
AcDbLine
 62
7
  6
BYLAYER
 10
164.422389719
 20
156.4269464208
 11
132.682389719
 21
156.4269464208
  0
LINE
  5
2B4
100
AcDbEntity
  8
0
100
AcDbLine
 62
7
  6
BYLAYER
 10
106.722389719
 20
156.4269464208
 11
97.682389719
 21
156.4269464208
  0
LINE
  5
2B5
100
AcDbEntity
  8
0
100
AcDbLine
 62
7
  6
BYLAYER
 10
71.722389719
 20
156.4269464208
 11
62.682389719
 21
156.4269464208
  0
LINE
  5
2B6
100
AcDbEntity
  8
0
100
AcDbLine
 62
7
  6
BYLAYER
 10
36.722389719
 20
156.4269464208
 11
32.2523881052
 21
156.4269464208
  0
LINE
  5
2B7
100
AcDbEntity
  8
0
100
AcDbLine
 62
7
  6
BYLAYER
 10
32.2523881052
 20
157.0641853836
 11
36.722389719
 21
157.0641853836
  0
LINE
  5
2B8
100
AcDbEntity
  8
0
100
AcDbLine
 62
7
  6
BYLAYER
 10
62.682389719
 20
157.0641853836
 11
71.722389719
 21
157.0641853836
  0
LINE
  5
2B9
100
AcDbEntity
  8
0
100
AcDbLine
 62
7
  6
BYLAYER
 10
97.682389719
 20
157.0641853836
 11
106.722389719
 21
157.0641853836
  0
LINE
  5
2BA
100
AcDbEntity
  8
0
100
AcDbLine
 62
7
  6
BYLAYER
 10
132.682389719
 20
157.0641853836
 11
164.422389719
 21
157.0641853836
  0
LINE
  5
2BB
100
AcDbEntity
  8
0
100
AcDbLine
 62
7
  6
BYLAYER
 10
190.382389719
 20
157.0641853836
 11
199.422389719
 21
157.0641853836
  0
LINE
  5
2BC
100
AcDbEntity
  8
0
100
AcDbLine
 62
7
  6
BYLAYER
 10
225.382389719
 20
157.0641853836
 11
234.422389719
 21
157.0641853836
  0
LINE
  5
2BD
100
AcDbEntity
  8
0
100
AcDbLine
 62
7
  6
BYLAYER
 10
260.382389719
 20
157.0641853836
 11
264.8523881052
 21
157.0641853836
  0
LINE
  5
2BE
100
AcDbEntity
  8
0
100
AcDbLine
 62
7
  6
BYLAYER
 10
264.8523881052
 20
157.2695574601
 11
260.382389719
 21
157.2695574601
  0
LINE
  5
2BF
100
AcDbEntity
  8
0
100
AcDbLine
 62
7
  6
BYLAYER
 10
234.422389719
 20
157.2695574601
 11
225.382389719
 21
157.2695574601
  0
LINE
  5
2C0
100
AcDbEntity
  8
0
100
AcDbLine
 62
7
  6
BYLAYER
 10
199.422389719
 20
157.2695574601
 11
190.382389719
 21
157.2695574601
  0
LINE
  5
2C1
100
AcDbEntity
  8
0
100
AcDbLine
 62
7
  6
BYLAYER
 10
164.422389719
 20
157.2695574601
 11
132.682389719
 21
157.2695574601
  0
LINE
  5
2C2
100
AcDbEntity
  8
0
100
AcDbLine
 62
7
  6
BYLAYER
 10
106.722389719
 20
157.2695574601
 11
97.682389719
 21
157.2695574601
  0
LINE
  5
2C3
100
AcDbEntity
  8
0
100
AcDbLine
 62
7
  6
BYLAYER
 10
71.722389719
 20
157.2695574601
 11
62.682389719
 21
157.2695574601
  0
LINE
  5
2C4
100
AcDbEntity
  8
0
100
AcDbLine
 62
7
  6
BYLAYER
 10
36.722389719
 20
157.2695574601
 11
32.2523881052
 21
157.2695574601
  0
LINE
  5
2C5
100
AcDbEntity
  8
0
100
AcDbLine
 62
7
  6
BYLAYER
 10
32.2523881052
 20
157.3076633948
 11
36.722389719
 21
157.3076633948
  0
LINE
  5
2C6
100
AcDbEntity
  8
0
100
AcDbLine
 62
7
  6
BYLAYER
 10
62.682389719
 20
157.3076633948
 11
71.722389719
 21
157.3076633948
  0
LINE
  5
2C7
100
AcDbEntity
  8
0
100
AcDbLine
 62
7
  6
BYLAYER
 10
97.682389719
 20
157.3076633948
 11
106.722389719
 21
157.3076633948
  0
LINE
  5
2C8
100
AcDbEntity
  8
0
100
AcDbLine
 62
7
  6
BYLAYER
 10
132.682389719
 20
157.3076633948
 11
164.422389719
 21
157.3076633948
  0
LINE
  5
2C9
100
AcDbEntity
  8
0
100
AcDbLine
 62
7
  6
BYLAYER
 10
190.382389719
 20
157.3076633948
 11
199.422389719
 21
157.3076633948
  0
LINE
  5
2CA
100
AcDbEntity
  8
0
100
AcDbLine
 62
7
  6
BYLAYER
 10
225.382389719
 20
157.3076633948
 11
234.422389719
 21
157.3076633948
  0
LINE
  5
2CB
100
AcDbEntity
  8
0
100
AcDbLine
 62
7
  6
BYLAYER
 10
260.382389719
 20
157.3076633948
 11
264.8523881052
 21
157.3076633948
  0
LINE
  5
2CC
100
AcDbEntity
  8
0
100
AcDbLine
 62
7
  6
BYLAYER
 10
32.2523881052
 20
157.5076633948
 11
36.722389719
 21
157.5076633948
  0
LINE
  5
2CD
100
AcDbEntity
  8
0
100
AcDbLine
 62
7
  6
BYLAYER
 10
62.682389719
 20
157.5076633948
 11
71.722389719
 21
157.5076633948
  0
LINE
  5
2CE
100
AcDbEntity
  8
0
100
AcDbLine
 62
7
  6
BYLAYER
 10
97.682389719
 20
157.5076633948
 11
106.722389719
 21
157.5076633948
  0
LINE
  5
2CF
100
AcDbEntity
  8
0
100
AcDbLine
 62
7
  6
BYLAYER
 10
132.682389719
 20
157.5076633948
 11
164.422389719
 21
157.5076633948
  0
LINE
  5
2D0
100
AcDbEntity
  8
0
100
AcDbLine
 62
7
  6
BYLAYER
 10
190.382389719
 20
157.5076633948
 11
199.422389719
 21
157.5076633948
  0
LINE
  5
2D1
100
AcDbEntity
  8
0
100
AcDbLine
 62
7
  6
BYLAYER
 10
225.382389719
 20
157.5076633948
 11
234.422389719
 21
157.5076633948
  0
LINE
  5
2D2
100
AcDbEntity
  8
0
100
AcDbLine
 62
7
  6
BYLAYER
 10
260.382389719
 20
157.5076633948
 11
264.8523881052
 21
157.5076633948
  0
LINE
  5
2D3
100
AcDbEntity
  8
0
100
AcDbLine
 62
7
  6
BYLAYER
 10
236.8023881052
 20
158.7641853836
 11
234.422389719
 21
158.7641853836
  0
LINE
  5
2D4
100
AcDbEntity
  8
0
100
AcDbLine
 62
7
  6
BYLAYER
 10
201.8023881052
 20
158.7641853836
 11
199.422389719
 21
158.7641853836
  0
LINE
  5
2D5
100
AcDbEntity
  8
0
100
AcDbLine
 62
7
  6
BYLAYER
 10
166.8023881052
 20
158.7641853836
 11
164.422389719
 21
158.7641853836
  0
LINE
  5
2D6
100
AcDbEntity
  8
0
100
AcDbLine
 62
7
  6
BYLAYER
 10
109.1023881052
 20
158.7641853836
 11
106.722389719
 21
158.7641853836
  0
LINE
  5
2D7
100
AcDbEntity
  8
0
100
AcDbLine
 62
7
  6
BYLAYER
 10
74.1023881052
 20
158.7641853836
 11
71.722389719
 21
158.7641853836
  0
LINE
  5
2D8
100
AcDbEntity
  8
0
100
AcDbLine
 62
7
  6
BYLAYER
 10
39.1023881052
 20
158.7641853836
 11
36.722389719
 21
158.7641853836
  0
LINE
  5
2D9
100
AcDbEntity
  8
0
100
AcDbLine
 62
7
  6
BYLAYER
 10
60.3023913328
 20
158.7641853836
 11
62.682389719
 21
158.7641853836
  0
LINE
  5
2DA
100
AcDbEntity
  8
0
100
AcDbLine
 62
7
  6
BYLAYER
 10
95.3023913328
 20
158.7641853836
 11
97.682389719
 21
158.7641853836
  0
LINE
  5
2DB
100
AcDbEntity
  8
0
100
AcDbLine
 62
7
  6
BYLAYER
 10
130.3023913328
 20
158.7641853836
 11
132.682389719
 21
158.7641853836
  0
LINE
  5
2DC
100
AcDbEntity
  8
0
100
AcDbLine
 62
7
  6
BYLAYER
 10
188.0023913328
 20
158.7641853836
 11
190.382389719
 21
158.7641853836
  0
LINE
  5
2DD
100
AcDbEntity
  8
0
100
AcDbLine
 62
7
  6
BYLAYER
 10
223.0023913328
 20
158.7641853836
 11
225.382389719
 21
158.7641853836
  0
LINE
  5
2DE
100
AcDbEntity
  8
0
100
AcDbLine
 62
7
  6
BYLAYER
 10
258.0023913328
 20
158.7641853836
 11
260.382389719
 21
158.7641853836
  0
LINE
  5
2DF
100
AcDbEntity
  8
0
100
AcDbLine
 62
7
  6
BYLAYER
 10
130.0811671567
 20
133.3076716734
 11
130.6007920721
 21
132.4076549191
  0
LINE
  5
2E0
100
AcDbEntity
  8
0
100
AcDbLine
 62
7
  6
BYLAYER
 10
106.722389719
 20
158.7641853836
 11
106.722389719
 21
133.4576633948
  0
LINE
  5
2E1
100
AcDbEntity
  8
0
100
AcDbLine
 62
7
  6
BYLAYER
 10
106.722389719
 20
248.2858146164
 11
106.722389719
 21
273.5923366052
  0
LINE
  5
2E2
100
AcDbEntity
  8
0
100
AcDbLine
 62
7
  6
BYLAYER
 10
109.1023881052
 20
162.2076293948
 11
109.1023881052
 21
158.7641853836
  0
LINE
  5
2E3
100
AcDbEntity
  8
0
100
AcDbLine
 62
7
  6
BYLAYER
 10
109.1023881052
 20
244.8423706052
 11
109.1023881052
 21
248.2858146164
  0
LINE
  5
2E4
100
AcDbEntity
  8
0
100
AcDbLine
 62
7
  6
BYLAYER
 10
110.702389719
 20
185.5576628701
 11
110.702389719
 21
162.2076293948
  0
LINE
  5
2E5
100
AcDbEntity
  8
0
100
AcDbLine
 62
7
  6
BYLAYER
 10
110.7023901948
 20
221.4923407213
 11
110.7023899334
 21
244.8423706052
  0
LINE
  5
2E6
100
AcDbEntity
  8
0
100
AcDbLine
 62
7
  6
BYLAYER
 10
58.2739874376
 20
132.4076550434
 11
58.7936124325
 21
133.3076719353
  0
LINE
  5
2E7
100
AcDbEntity
  8
0
100
AcDbLine
 62
7
  6
BYLAYER
 10
264.8523881052
 20
159.6049789519
 11
258.0023913328
 21
159.6049789519
  0
LINE
  5
2E8
100
AcDbEntity
  8
0
100
AcDbLine
 62
7
  6
BYLAYER
 10
236.8023881052
 20
159.6049789519
 11
223.0023913328
 21
159.6049789519
  0
LINE
  5
2E9
100
AcDbEntity
  8
0
100
AcDbLine
 62
7
  6
BYLAYER
 10
201.8023881052
 20
159.6049789519
 11
188.0023913328
 21
159.6049789519
  0
LINE
  5
2EA
100
AcDbEntity
  8
0
100
AcDbLine
 62
7
  6
BYLAYER
 10
166.8023881052
 20
159.6049789519
 11
130.3023913328
 21
159.6049789519
  0
LINE
  5
2EB
100
AcDbEntity
  8
0
100
AcDbLine
 62
7
  6
BYLAYER
 10
109.1023881052
 20
159.6049789519
 11
95.3023913328
 21
159.6049789519
  0
LINE
  5
2EC
100
AcDbEntity
  8
0
100
AcDbLine
 62
7
  6
BYLAYER
 10
74.1023881052
 20
159.6049789519
 11
60.3023913328
 21
159.6049789519
  0
LINE
  5
2ED
100
AcDbEntity
  8
0
100
AcDbLine
 62
7
  6
BYLAYER
 10
39.1023881052
 20
159.6049789519
 11
32.2523881052
 21
159.6049789519
  0
LINE
  5
2EE
100
AcDbEntity
  8
0
100
AcDbLine
 62
7
  6
BYLAYER
 10
264.8523881052
 20
159.6751152422
 11
258.0023913328
 21
159.6751152422
  0
LINE
  5
2EF
100
AcDbEntity
  8
0
100
AcDbLine
 62
7
  6
BYLAYER
 10
236.8023881052
 20
159.6751152422
 11
223.0023913328
 21
159.6751152422
  0
LINE
  5
2F0
100
AcDbEntity
  8
0
100
AcDbLine
 62
7
  6
BYLAYER
 10
201.8023881052
 20
159.6751152422
 11
188.0023913328
 21
159.6751152422
  0
LINE
  5
2F1
100
AcDbEntity
  8
0
100
AcDbLine
 62
7
  6
BYLAYER
 10
166.8023881052
 20
159.6751152422
 11
130.3023913328
 21
159.6751152422
  0
LINE
  5
2F2
100
AcDbEntity
  8
0
100
AcDbLine
 62
7
  6
BYLAYER
 10
109.1023881052
 20
159.6751152422
 11
95.3023913328
 21
159.6751152422
  0
LINE
  5
2F3
100
AcDbEntity
  8
0
100
AcDbLine
 62
7
  6
BYLAYER
 10
74.1023881052
 20
159.6751152422
 11
60.3023913328
 21
159.6751152422
  0
LINE
  5
2F4
100
AcDbEntity
  8
0
100
AcDbLine
 62
7
  6
BYLAYER
 10
39.1023881052
 20
159.6751152422
 11
32.2523881052
 21
159.6751152422
  0
LINE
  5
2F5
100
AcDbEntity
  8
0
100
AcDbLine
 62
7
  6
BYLAYER
 10
32.2523881052
 20
159.6874428321
 11
39.1023881052
 21
159.6874428321
  0
LINE
  5
2F6
100
AcDbEntity
  8
0
100
AcDbLine
 62
7
  6
BYLAYER
 10
60.3023913328
 20
159.6874428321
 11
74.1023881052
 21
159.6874428321
  0
LINE
  5
2F7
100
AcDbEntity
  8
0
100
AcDbLine
 62
7
  6
BYLAYER
 10
95.3023913328
 20
159.6874428321
 11
109.1023881052
 21
159.6874428321
  0
LINE
  5
2F8
100
AcDbEntity
  8
0
100
AcDbLine
 62
7
  6
BYLAYER
 10
130.3023913328
 20
159.6874428321
 11
166.8023881052
 21
159.6874428321
  0
LINE
  5
2F9
100
AcDbEntity
  8
0
100
AcDbLine
 62
7
  6
BYLAYER
 10
188.0023913328
 20
159.6874428321
 11
201.8023881052
 21
159.6874428321
  0
LINE
  5
2FA
100
AcDbEntity
  8
0
100
AcDbLine
 62
7
  6
BYLAYER
 10
223.0023913328
 20
159.6874428321
 11
236.8023881052
 21
159.6874428321
  0
LINE
  5
2FB
100
AcDbEntity
  8
0
100
AcDbLine
 62
7
  6
BYLAYER
 10
258.0023913328
 20
159.6874428321
 11
264.8523881052
 21
159.6874428321
  0
LINE
  5
2FC
100
AcDbEntity
  8
0
100
AcDbLine
 62
7
  6
BYLAYER
 10
32.2523881052
 20
160.8076633948
 11
39.1023881052
 21
160.8076633948
  0
LINE
  5
2FD
100
AcDbEntity
  8
0
100
AcDbLine
 62
7
  6
BYLAYER
 10
60.3023913328
 20
160.8076633948
 11
74.1023881052
 21
160.8076633948
  0
LINE
  5
2FE
100
AcDbEntity
  8
0
100
AcDbLine
 62
7
  6
BYLAYER
 10
95.3023913328
 20
160.8076633948
 11
109.1023881052
 21
160.8076633948
  0
LINE
  5
2FF
100
AcDbEntity
  8
0
100
AcDbLine
 62
7
  6
BYLAYER
 10
130.3023913328
 20
160.8076633948
 11
166.8023881052
 21
160.8076633948
  0
LINE
  5
300
100
AcDbEntity
  8
0
100
AcDbLine
 62
7
  6
BYLAYER
 10
188.0023913328
 20
160.8076633948
 11
201.8023881052
 21
160.8076633948
  0
LINE
  5
301
100
AcDbEntity
  8
0
100
AcDbLine
 62
7
  6
BYLAYER
 10
223.0023913328
 20
160.8076633948
 11
236.8023881052
 21
160.8076633948
  0
LINE
  5
302
100
AcDbEntity
  8
0
100
AcDbLine
 62
7
  6
BYLAYER
 10
258.0023913328
 20
160.8076633948
 11
264.8523881052
 21
160.8076633948
  0
LINE
  5
303
100
AcDbEntity
  8
0
100
AcDbLine
 62
7
  6
BYLAYER
 10
32.2523881052
 20
161.5576633948
 11
39.1023881052
 21
161.5576633948
  0
LINE
  5
304
100
AcDbEntity
  8
0
100
AcDbLine
 62
7
  6
BYLAYER
 10
60.3023913328
 20
161.5576633948
 11
74.1023881052
 21
161.5576633948
  0
LINE
  5
305
100
AcDbEntity
  8
0
100
AcDbLine
 62
7
  6
BYLAYER
 10
95.3023913328
 20
161.5576633948
 11
109.1023881052
 21
161.5576633948
  0
LINE
  5
306
100
AcDbEntity
  8
0
100
AcDbLine
 62
7
  6
BYLAYER
 10
130.3023913328
 20
161.5576633948
 11
166.8023881052
 21
161.5576633948
  0
LINE
  5
307
100
AcDbEntity
  8
0
100
AcDbLine
 62
7
  6
BYLAYER
 10
188.0023913328
 20
161.5576633948
 11
201.8023881052
 21
161.5576633948
  0
LINE
  5
308
100
AcDbEntity
  8
0
100
AcDbLine
 62
7
  6
BYLAYER
 10
223.0023913328
 20
161.5576633948
 11
236.8023881052
 21
161.5576633948
  0
LINE
  5
309
100
AcDbEntity
  8
0
100
AcDbLine
 62
7
  6
BYLAYER
 10
258.0023913328
 20
161.5576633948
 11
264.8523881052
 21
161.5576633948
  0
LINE
  5
30A
100
AcDbEntity
  8
0
100
AcDbLine
 62
7
  6
BYLAYER
 10
39.1023881052
 20
162.2076293948
 11
60.3023913328
 21
162.2076293948
  0
LINE
  5
30B
100
AcDbEntity
  8
0
100
AcDbLine
 62
7
  6
BYLAYER
 10
74.1023881052
 20
162.2076293948
 11
95.3023913328
 21
162.2076293948
  0
LINE
  5
30C
100
AcDbEntity
  8
0
100
AcDbLine
 62
7
  6
BYLAYER
 10
109.1023881052
 20
162.2076293948
 11
130.3023913328
 21
162.2076293948
  0
LINE
  5
30D
100
AcDbEntity
  8
0
100
AcDbLine
 62
7
  6
BYLAYER
 10
166.8023881052
 20
162.2076293948
 11
188.0023913328
 21
162.2076293948
  0
LINE
  5
30E
100
AcDbEntity
  8
0
100
AcDbLine
 62
7
  6
BYLAYER
 10
201.8023881052
 20
162.2076293948
 11
223.0023913328
 21
162.2076293948
  0
LINE
  5
30F
100
AcDbEntity
  8
0
100
AcDbLine
 62
7
  6
BYLAYER
 10
236.8023881052
 20
162.2076293948
 11
258.0023913328
 21
162.2076293948
  0
LINE
  5
310
100
AcDbEntity
  8
0
100
AcDbLine
 62
7
  6
BYLAYER
 10
58.7936122471
 20
273.7423283859
 11
58.2739873268
 21
274.6423451487
  0
LINE
  5
311
100
AcDbEntity
  8
0
100
AcDbLine
 62
7
  6
BYLAYER
 10
114.702389719
 20
273.5923366052
 11
114.702389719
 21
272.5923366052
  0
LINE
  5
312
100
AcDbEntity
  8
0
100
AcDbLine
 62
7
  6
BYLAYER
 10
114.7023913328
 20
229.7923366052
 11
114.7023913328
 21
227.7923366052
  0
LINE
  5
313
100
AcDbEntity
  8
0
100
AcDbLine
 62
7
  6
BYLAYER
 10
114.702389719
 20
133.4576633948
 11
114.702389719
 21
134.4576633948
  0
LINE
  5
314
100
AcDbEntity
  8
0
100
AcDbLine
 62
7
  6
BYLAYER
 10
114.7023913328
 20
177.2576633948
 11
114.7023913328
 21
179.2576633948
  0
LINE
  5
315
100
AcDbEntity
  8
0
100
AcDbLine
 62
7
  6
BYLAYER
 10
73.8039875122
 20
132.4076551725
 11
74.3236124763
 21
133.3076720111
  0
LINE
  5
316
100
AcDbEntity
  8
0
100
AcDbLine
 62
7
  6
BYLAYER
 10
74.3236123219
 20
273.7423282563
 11
73.8039873677
 21
274.6423450779
  0
LINE
  5
317
100
AcDbEntity
  8
0
100
AcDbLine
 62
7
  6
BYLAYER
 10
124.702389719
 20
134.4576633948
 11
124.702389719
 21
133.4576633948
  0
LINE
  5
318
100
AcDbEntity
  8
0
100
AcDbLine
 62
7
  6
BYLAYER
 10
124.702389719
 20
272.5923366052
 11
124.702389719
 21
273.5923366052
  0
LINE
  5
319
100
AcDbEntity
  8
0
100
AcDbLine
 62
7
  6
BYLAYER
 10
124.7023913328
 20
179.2576633948
 11
124.7023913328
 21
177.2576633948
  0
LINE
  5
31A
100
AcDbEntity
  8
0
100
AcDbLine
 62
7
  6
BYLAYER
 10
124.7023913328
 20
227.7923366052
 11
124.7023913328
 21
229.7923366052
  0
LINE
  5
31B
100
AcDbEntity
  8
0
100
AcDbLine
 62
7
  6
BYLAYER
 10
128.702389719
 20
221.4913140681
 11
128.702389719
 21
244.8423706052
  0
LINE
  5
31C
100
AcDbEntity
  8
0
100
AcDbLine
 62
7
  6
BYLAYER
 10
128.7023902417
 20
185.5607275858
 11
128.7023899545
 21
162.2076293948
  0
LINE
  5
31D
100
AcDbEntity
  8
0
100
AcDbLine
 62
7
  6
BYLAYER
 10
130.3023913328
 20
162.2076293948
 11
130.3023913328
 21
158.7641853836
  0
LINE
  5
31E
100
AcDbEntity
  8
0
100
AcDbLine
 62
7
  6
BYLAYER
 10
130.3023913328
 20
244.8423706052
 11
130.3023913328
 21
248.2858146164
  0
LINE
  5
31F
100
AcDbEntity
  8
0
100
AcDbLine
 62
7
  6
BYLAYER
 10
168.8307919983
 20
274.6423449529
 11
168.3111670446
 21
273.7423281323
  0
LINE
  5
320
100
AcDbEntity
  8
0
100
AcDbLine
 62
7
  6
BYLAYER
 10
168.3111671925
 20
133.3076716114
 11
168.8307921577
 21
132.4076547709
  0
LINE
  5
321
100
AcDbEntity
  8
0
100
AcDbLine
 62
7
  6
BYLAYER
 10
132.682389719
 20
158.7641853836
 11
132.682389719
 21
133.4576633948
  0
LINE
  5
322
100
AcDbEntity
  8
0
100
AcDbLine
 62
7
  6
BYLAYER
 10
132.682389719
 20
248.2858146164
 11
132.682389719
 21
273.5923366052
  0
LINE
  5
323
100
AcDbEntity
  8
0
100
AcDbLine
 62
7
  6
BYLAYER
 10
93.2739875132
 20
132.4076551725
 11
93.7936124773
 21
133.3076720112
  0
LINE
  5
324
100
AcDbEntity
  8
0
100
AcDbLine
 62
7
  6
BYLAYER
 10
253.4023886172
 20
188.5576633948
 11
241.4023881108
 21
188.5576633948
  0
LINE
  5
325
100
AcDbEntity
  8
0
100
AcDbLine
 62
7
  6
BYLAYER
 10
183.4023886172
 20
188.5576633948
 11
171.4023881108
 21
188.5576633948
  0
LINE
  5
326
100
AcDbEntity
  8
0
100
AcDbLine
 62
7
  6
BYLAYER
 10
90.7023886172
 20
188.5576633948
 11
78.7023881108
 21
188.5576633948
  0
LINE
  5
327
100
AcDbEntity
  8
0
100
AcDbLine
 62
7
  6
BYLAYER
 10
43.7023904614
 20
188.5576634265
 11
55.6993142531
 21
188.5576634265
  0
LINE
  5
328
100
AcDbEntity
  8
0
100
AcDbLine
 62
7
  6
BYLAYER
 10
113.7023904614
 20
188.5576634265
 11
125.6993142531
 21
188.5576634265
  0
LINE
  5
329
100
AcDbEntity
  8
0
100
AcDbLine
 62
7
  6
BYLAYER
 10
206.4023904614
 20
188.5576634265
 11
218.399314253
 21
188.5576634265
  0
LINE
  5
32A
100
AcDbEntity
  8
0
100
AcDbLine
 62
7
  6
BYLAYER
 10
93.7936123229
 20
273.7423282563
 11
93.2739873687
 21
274.6423450778
  0
LINE
  5
32B
100
AcDbEntity
  8
0
100
AcDbLine
 62
7
  6
BYLAYER
 10
188.3007920039
 20
274.642344953
 11
187.7811670502
 21
273.7423281324
  0
LINE
  5
32C
100
AcDbEntity
  8
0
100
AcDbLine
 62
7
  6
BYLAYER
 10
108.803987432
 20
132.4076550434
 11
109.3236124268
 21
133.3076719353
  0
LINE
  5
32D
100
AcDbEntity
  8
0
100
AcDbLine
 62
7
  6
BYLAYER
 10
187.7811671981
 20
133.3076716114
 11
188.3007921633
 21
132.4076547708
  0
LINE
  5
32E
100
AcDbEntity
  8
0
100
AcDbLine
 62
7
  6
BYLAYER
 10
109.3236122414
 20
273.7423283859
 11
108.8039873211
 21
274.6423451487
  0
LINE
  5
32F
100
AcDbEntity
  8
0
100
AcDbLine
 62
7
  6
BYLAYER
 10
164.422389719
 20
158.7641853836
 11
164.422389719
 21
133.4576633948
  0
LINE
  5
330
100
AcDbEntity
  8
0
100
AcDbLine
 62
7
  6
BYLAYER
 10
164.422389719
 20
248.2858146164
 11
164.422389719
 21
273.5923366052
  0
LINE
  5
331
100
AcDbEntity
  8
0
100
AcDbLine
 62
7
  6
BYLAYER
 10
166.8023881052
 20
162.2076293948
 11
166.8023881052
 21
158.7641853836
  0
LINE
  5
332
100
AcDbEntity
  8
0
100
AcDbLine
 62
7
  6
BYLAYER
 10
166.8023881052
 20
244.8423706052
 11
166.8023881052
 21
248.2858146164
  0
LINE
  5
333
100
AcDbEntity
  8
0
100
AcDbLine
 62
7
  6
BYLAYER
 10
203.830791959
 20
274.6423448868
 11
203.3111669584
 21
273.742327985
  0
LINE
  5
334
100
AcDbEntity
  8
0
100
AcDbLine
 62
7
  6
BYLAYER
 10
128.2739874376
 20
132.4076550434
 11
128.7936124325
 21
133.3076719353
  0
LINE
  5
335
100
AcDbEntity
  8
0
100
AcDbLine
 62
7
  6
BYLAYER
 10
183.4023889766
 20
218.4923365735
 11
171.405465185
 21
218.4923365735
  0
LINE
  5
336
100
AcDbEntity
  8
0
100
AcDbLine
 62
7
  6
BYLAYER
 10
90.7023889766
 20
218.4923365735
 11
78.7054651849
 21
218.4923365735
  0
LINE
  5
337
100
AcDbEntity
  8
0
100
AcDbLine
 62
7
  6
BYLAYER
 10
43.7023908208
 20
218.4923366052
 11
55.7023913272
 21
218.4923366052
  0
LINE
  5
338
100
AcDbEntity
  8
0
100
AcDbLine
 62
7
  6
BYLAYER
 10
113.7023908208
 20
218.4923366052
 11
125.7023913272
 21
218.4923366052
  0
LINE
  5
339
100
AcDbEntity
  8
0
100
AcDbLine
 62
7
  6
BYLAYER
 10
206.4023908208
 20
218.4923366052
 11
218.4023913272
 21
218.4923366052
  0
LINE
  5
33A
100
AcDbEntity
  8
0
100
AcDbLine
 62
7
  6
BYLAYER
 10
241.4023881108
 20
218.4923366052
 11
253.4023886172
 21
218.4923366052
  0
LINE
  5
33B
100
AcDbEntity
  8
0
100
AcDbLine
 62
7
  6
BYLAYER
 10
203.3111671558
 20
133.3076716733
 11
203.8307920711
 21
132.407654919
  0
LINE
  5
33C
100
AcDbEntity
  8
0
100
AcDbLine
 62
7
  6
BYLAYER
 10
128.7936122471
 20
273.7423283859
 11
128.2739873267
 21
274.6423451487
  0
LINE
  5
33D
100
AcDbEntity
  8
0
100
AcDbLine
 62
7
  6
BYLAYER
 10
168.402389719
 20
185.5586859319
 11
168.402389719
 21
162.2076293948
  0
LINE
  5
33E
100
AcDbEntity
  8
0
100
AcDbLine
 62
7
  6
BYLAYER
 10
168.4023891963
 20
221.4892724145
 11
168.4023894835
 21
244.8423706052
  0
LINE
  5
33F
100
AcDbEntity
  8
0
100
AcDbLine
 62
7
  6
BYLAYER
 10
172.4023881052
 20
179.2576633948
 11
172.4023881052
 21
177.2576633948
  0
LINE
  5
340
100
AcDbEntity
  8
0
100
AcDbLine
 62
7
  6
BYLAYER
 10
172.4023881052
 20
227.7923366052
 11
172.4023881052
 21
229.7923366052
  0
LINE
  5
341
100
AcDbEntity
  8
0
100
AcDbLine
 62
7
  6
BYLAYER
 10
172.402389719
 20
134.4576633948
 11
172.402389719
 21
133.4576633948
  0
LINE
  5
342
100
AcDbEntity
  8
0
100
AcDbLine
 62
7
  6
BYLAYER
 10
172.402389719
 20
272.5923366052
 11
172.402389719
 21
273.5923366052
  0
LINE
  5
343
100
AcDbEntity
  8
0
100
AcDbLine
 62
7
  6
BYLAYER
 10
182.4023881052
 20
229.7923366052
 11
182.4023881052
 21
227.7923366052
  0
LINE
  5
344
100
AcDbEntity
  8
0
100
AcDbLine
 62
7
  6
BYLAYER
 10
182.4023881052
 20
177.2576633948
 11
182.4023881052
 21
179.2576633948
  0
LINE
  5
345
100
AcDbEntity
  8
0
100
AcDbLine
 62
7
  6
BYLAYER
 10
182.402389719
 20
273.5923366052
 11
182.402389719
 21
272.5923366052
  0
LINE
  5
346
100
AcDbEntity
  8
0
100
AcDbLine
 62
7
  6
BYLAYER
 10
182.402389719
 20
133.4576633948
 11
182.402389719
 21
134.4576633948
  0
LINE
  5
347
100
AcDbEntity
  8
0
100
AcDbLine
 62
7
  6
BYLAYER
 10
223.30079196
 20
274.6423448868
 11
222.7811669594
 21
273.7423279849
  0
LINE
  5
348
100
AcDbEntity
  8
0
100
AcDbLine
 62
7
  6
BYLAYER
 10
222.7811671568
 20
133.3076716733
 11
223.3007920721
 21
132.407654919
  0
LINE
  5
349
100
AcDbEntity
  8
0
100
AcDbLine
 62
7
  6
BYLAYER
 10
186.4023892432
 20
185.557659279
 11
186.4023895046
 21
162.2076293948
  0
LINE
  5
34A
100
AcDbEntity
  8
0
100
AcDbLine
 62
7
  6
BYLAYER
 10
186.402389719
 20
221.4923371299
 11
186.402389719
 21
244.8423706052
  0
LINE
  5
34B
100
AcDbEntity
  8
0
100
AcDbLine
 62
7
  6
BYLAYER
 10
188.0023913328
 20
162.2076293948
 11
188.0023913328
 21
158.7641853836
  0
LINE
  5
34C
100
AcDbEntity
  8
0
100
AcDbLine
 62
7
  6
BYLAYER
 10
188.0023913328
 20
244.8423706052
 11
188.0023913328
 21
248.2858146164
  0
LINE
  5
34D
100
AcDbEntity
  8
0
100
AcDbLine
 62
7
  6
BYLAYER
 10
190.382389719
 20
158.7641853836
 11
190.382389719
 21
133.4576633948
  0
LINE
  5
34E
100
AcDbEntity
  8
0
100
AcDbLine
 62
7
  6
BYLAYER
 10
190.382389719
 20
248.2858146164
 11
190.382389719
 21
273.5923366052
  0
LINE
  5
34F
100
AcDbEntity
  8
0
100
AcDbLine
 62
7
  6
BYLAYER
 10
238.8307919983
 20
274.6423449529
 11
238.3111670446
 21
273.7423281324
  0
LINE
  5
350
100
AcDbEntity
  8
0
100
AcDbLine
 62
7
  6
BYLAYER
 10
258.0023913328
 20
244.8423706052
 11
236.8023881052
 21
244.8423706052
  0
LINE
  5
351
100
AcDbEntity
  8
0
100
AcDbLine
 62
7
  6
BYLAYER
 10
223.0023913328
 20
244.8423706052
 11
201.8023881052
 21
244.8423706052
  0
LINE
  5
352
100
AcDbEntity
  8
0
100
AcDbLine
 62
7
  6
BYLAYER
 10
188.0023913328
 20
244.8423706052
 11
166.8023881052
 21
244.8423706052
  0
LINE
  5
353
100
AcDbEntity
  8
0
100
AcDbLine
 62
7
  6
BYLAYER
 10
130.3023913328
 20
244.8423706052
 11
109.1023881052
 21
244.8423706052
  0
LINE
  5
354
100
AcDbEntity
  8
0
100
AcDbLine
 62
7
  6
BYLAYER
 10
95.3023913328
 20
244.8423706052
 11
74.1023881052
 21
244.8423706052
  0
LINE
  5
355
100
AcDbEntity
  8
0
100
AcDbLine
 62
7
  6
BYLAYER
 10
60.3023913328
 20
244.8423706052
 11
39.1023881052
 21
244.8423706052
  0
LINE
  5
356
100
AcDbEntity
  8
0
100
AcDbLine
 62
7
  6
BYLAYER
 10
32.2523881052
 20
245.4923366052
 11
39.1023881052
 21
245.4923366052
  0
LINE
  5
357
100
AcDbEntity
  8
0
100
AcDbLine
 62
7
  6
BYLAYER
 10
60.3023913328
 20
245.4923366052
 11
74.1023881052
 21
245.4923366052
  0
LINE
  5
358
100
AcDbEntity
  8
0
100
AcDbLine
 62
7
  6
BYLAYER
 10
95.3023913328
 20
245.4923366052
 11
109.1023881052
 21
245.4923366052
  0
LINE
  5
359
100
AcDbEntity
  8
0
100
AcDbLine
 62
7
  6
BYLAYER
 10
130.3023913328
 20
245.4923366052
 11
166.8023881052
 21
245.4923366052
  0
LINE
  5
35A
100
AcDbEntity
  8
0
100
AcDbLine
 62
7
  6
BYLAYER
 10
188.0023913328
 20
245.4923366052
 11
201.8023881052
 21
245.4923366052
  0
LINE
  5
35B
100
AcDbEntity
  8
0
100
AcDbLine
 62
7
  6
BYLAYER
 10
223.0023913328
 20
245.4923366052
 11
236.8023881052
 21
245.4923366052
  0
LINE
  5
35C
100
AcDbEntity
  8
0
100
AcDbLine
 62
7
  6
BYLAYER
 10
258.0023913328
 20
245.4923366052
 11
264.8523881052
 21
245.4923366052
  0
LINE
  5
35D
100
AcDbEntity
  8
0
100
AcDbLine
 62
7
  6
BYLAYER
 10
32.2523881052
 20
246.2423366052
 11
39.1023881052
 21
246.2423366052
  0
LINE
  5
35E
100
AcDbEntity
  8
0
100
AcDbLine
 62
7
  6
BYLAYER
 10
60.3023913328
 20
246.2423366052
 11
74.1023881052
 21
246.2423366052
  0
LINE
  5
35F
100
AcDbEntity
  8
0
100
AcDbLine
 62
7
  6
BYLAYER
 10
95.3023913328
 20
246.2423366052
 11
109.1023881052
 21
246.2423366052
  0
LINE
  5
360
100
AcDbEntity
  8
0
100
AcDbLine
 62
7
  6
BYLAYER
 10
130.3023913328
 20
246.2423366052
 11
166.8023881052
 21
246.2423366052
  0
LINE
  5
361
100
AcDbEntity
  8
0
100
AcDbLine
 62
7
  6
BYLAYER
 10
188.0023913328
 20
246.2423366052
 11
201.8023881052
 21
246.2423366052
  0
LINE
  5
362
100
AcDbEntity
  8
0
100
AcDbLine
 62
7
  6
BYLAYER
 10
223.0023913328
 20
246.2423366052
 11
236.8023881052
 21
246.2423366052
  0
LINE
  5
363
100
AcDbEntity
  8
0
100
AcDbLine
 62
7
  6
BYLAYER
 10
258.0023913328
 20
246.2423366052
 11
264.8523881052
 21
246.2423366052
  0
LINE
  5
364
100
AcDbEntity
  8
0
100
AcDbLine
 62
7
  6
BYLAYER
 10
264.8523881052
 20
247.3625571679
 11
258.0023913328
 21
247.3625571679
  0
LINE
  5
365
100
AcDbEntity
  8
0
100
AcDbLine
 62
7
  6
BYLAYER
 10
236.8023881052
 20
247.3625571679
 11
223.0023913328
 21
247.3625571679
  0
LINE
  5
366
100
AcDbEntity
  8
0
100
AcDbLine
 62
7
  6
BYLAYER
 10
201.8023881052
 20
247.3625571679
 11
188.0023913328
 21
247.3625571679
  0
LINE
  5
367
100
AcDbEntity
  8
0
100
AcDbLine
 62
7
  6
BYLAYER
 10
166.8023881052
 20
247.3625571679
 11
130.3023913328
 21
247.3625571679
  0
LINE
  5
368
100
AcDbEntity
  8
0
100
AcDbLine
 62
7
  6
BYLAYER
 10
109.1023881052
 20
247.3625571679
 11
95.3023913328
 21
247.3625571679
  0
LINE
  5
369
100
AcDbEntity
  8
0
100
AcDbLine
 62
7
  6
BYLAYER
 10
74.1023881052
 20
247.3625571679
 11
60.3023913328
 21
247.3625571679
  0
LINE
  5
36A
100
AcDbEntity
  8
0
100
AcDbLine
 62
7
  6
BYLAYER
 10
39.1023881052
 20
247.3625571679
 11
32.2523881052
 21
247.3625571679
  0
LINE
  5
36B
100
AcDbEntity
  8
0
100
AcDbLine
 62
7
  6
BYLAYER
 10
32.2523881052
 20
247.3748847578
 11
39.1023881052
 21
247.3748847578
  0
LINE
  5
36C
100
AcDbEntity
  8
0
100
AcDbLine
 62
7
  6
BYLAYER
 10
60.3023913328
 20
247.3748847578
 11
74.1023881052
 21
247.3748847578
  0
LINE
  5
36D
100
AcDbEntity
  8
0
100
AcDbLine
 62
7
  6
BYLAYER
 10
95.3023913328
 20
247.3748847578
 11
109.1023881052
 21
247.3748847578
  0
LINE
  5
36E
100
AcDbEntity
  8
0
100
AcDbLine
 62
7
  6
BYLAYER
 10
130.3023913328
 20
247.3748847578
 11
166.8023881052
 21
247.3748847578
  0
LINE
  5
36F
100
AcDbEntity
  8
0
100
AcDbLine
 62
7
  6
BYLAYER
 10
188.0023913328
 20
247.3748847578
 11
201.8023881052
 21
247.3748847578
  0
LINE
  5
370
100
AcDbEntity
  8
0
100
AcDbLine
 62
7
  6
BYLAYER
 10
223.0023913328
 20
247.3748847578
 11
236.8023881052
 21
247.3748847578
  0
LINE
  5
371
100
AcDbEntity
  8
0
100
AcDbLine
 62
7
  6
BYLAYER
 10
258.0023913328
 20
247.3748847578
 11
264.8523881052
 21
247.3748847578
  0
LINE
  5
372
100
AcDbEntity
  8
0
100
AcDbLine
 62
7
  6
BYLAYER
 10
32.2523881052
 20
247.4450210481
 11
39.1023881052
 21
247.4450210481
  0
LINE
  5
373
100
AcDbEntity
  8
0
100
AcDbLine
 62
7
  6
BYLAYER
 10
60.3023913328
 20
247.4450210481
 11
74.1023881052
 21
247.4450210481
  0
LINE
  5
374
100
AcDbEntity
  8
0
100
AcDbLine
 62
7
  6
BYLAYER
 10
95.3023913328
 20
247.4450210481
 11
109.1023881052
 21
247.4450210481
  0
LINE
  5
375
100
AcDbEntity
  8
0
100
AcDbLine
 62
7
  6
BYLAYER
 10
130.3023913328
 20
247.4450210481
 11
166.8023881052
 21
247.4450210481
  0
LINE
  5
376
100
AcDbEntity
  8
0
100
AcDbLine
 62
7
  6
BYLAYER
 10
188.0023913328
 20
247.4450210481
 11
201.8023881052
 21
247.4450210481
  0
LINE
  5
377
100
AcDbEntity
  8
0
100
AcDbLine
 62
7
  6
BYLAYER
 10
223.0023913328
 20
247.4450210481
 11
236.8023881052
 21
247.4450210481
  0
LINE
  5
378
100
AcDbEntity
  8
0
100
AcDbLine
 62
7
  6
BYLAYER
 10
258.0023913328
 20
247.4450210481
 11
264.8523881052
 21
247.4450210481
  0
LINE
  5
379
100
AcDbEntity
  8
0
100
AcDbLine
 62
7
  6
BYLAYER
 10
260.382389719
 20
248.2858146164
 11
258.0023913328
 21
248.2858146164
  0
LINE
  5
37A
100
AcDbEntity
  8
0
100
AcDbLine
 62
7
  6
BYLAYER
 10
236.8023881052
 20
248.2858146164
 11
234.422389719
 21
248.2858146164
  0
LINE
  5
37B
100
AcDbEntity
  8
0
100
AcDbLine
 62
7
  6
BYLAYER
 10
201.8023881052
 20
248.2858146164
 11
199.422389719
 21
248.2858146164
  0
LINE
  5
37C
100
AcDbEntity
  8
0
100
AcDbLine
 62
7
  6
BYLAYER
 10
166.8023881052
 20
248.2858146164
 11
164.422389719
 21
248.2858146164
  0
LINE
  5
37D
100
AcDbEntity
  8
0
100
AcDbLine
 62
7
  6
BYLAYER
 10
109.1023881052
 20
248.2858146164
 11
106.722389719
 21
248.2858146164
  0
LINE
  5
37E
100
AcDbEntity
  8
0
100
AcDbLine
 62
7
  6
BYLAYER
 10
74.1023881052
 20
248.2858146164
 11
71.722389719
 21
248.2858146164
  0
LINE
  5
37F
100
AcDbEntity
  8
0
100
AcDbLine
 62
7
  6
BYLAYER
 10
39.1023881052
 20
248.2858146164
 11
36.722389719
 21
248.2858146164
  0
LINE
  5
380
100
AcDbEntity
  8
0
100
AcDbLine
 62
7
  6
BYLAYER
 10
60.3023913328
 20
248.2858146164
 11
62.682389719
 21
248.2858146164
  0
LINE
  5
381
100
AcDbEntity
  8
0
100
AcDbLine
 62
7
  6
BYLAYER
 10
95.3023913328
 20
248.2858146164
 11
97.682389719
 21
248.2858146164
  0
LINE
  5
382
100
AcDbEntity
  8
0
100
AcDbLine
 62
7
  6
BYLAYER
 10
130.3023913328
 20
248.2858146164
 11
132.682389719
 21
248.2858146164
  0
LINE
  5
383
100
AcDbEntity
  8
0
100
AcDbLine
 62
7
  6
BYLAYER
 10
188.0023913328
 20
248.2858146164
 11
190.382389719
 21
248.2858146164
  0
LINE
  5
384
100
AcDbEntity
  8
0
100
AcDbLine
 62
7
  6
BYLAYER
 10
223.0023913328
 20
248.2858146164
 11
225.382389719
 21
248.2858146164
  0
LINE
  5
385
100
AcDbEntity
  8
0
100
AcDbLine
 62
7
  6
BYLAYER
 10
264.8523881052
 20
249.5423366052
 11
260.382389719
 21
249.5423366052
  0
LINE
  5
386
100
AcDbEntity
  8
0
100
AcDbLine
 62
7
  6
BYLAYER
 10
234.422389719
 20
249.5423366052
 11
225.382389719
 21
249.5423366052
  0
LINE
  5
387
100
AcDbEntity
  8
0
100
AcDbLine
 62
7
  6
BYLAYER
 10
199.422389719
 20
249.5423366052
 11
190.382389719
 21
249.5423366052
  0
LINE
  5
388
100
AcDbEntity
  8
0
100
AcDbLine
 62
7
  6
BYLAYER
 10
164.422389719
 20
249.5423366052
 11
132.682389719
 21
249.5423366052
  0
LINE
  5
389
100
AcDbEntity
  8
0
100
AcDbLine
 62
7
  6
BYLAYER
 10
106.722389719
 20
249.5423366052
 11
97.682389719
 21
249.5423366052
  0
LINE
  5
38A
100
AcDbEntity
  8
0
100
AcDbLine
 62
7
  6
BYLAYER
 10
71.722389719
 20
249.5423366052
 11
62.682389719
 21
249.5423366052
  0
LINE
  5
38B
100
AcDbEntity
  8
0
100
AcDbLine
 62
7
  6
BYLAYER
 10
36.722389719
 20
249.5423366052
 11
32.2523881052
 21
249.5423366052
  0
LINE
  5
38C
100
AcDbEntity
  8
0
100
AcDbLine
 62
7
  6
BYLAYER
 10
264.8523881052
 20
249.7423366052
 11
260.382389719
 21
249.7423366052
  0
LINE
  5
38D
100
AcDbEntity
  8
0
100
AcDbLine
 62
7
  6
BYLAYER
 10
234.422389719
 20
249.7423366052
 11
225.382389719
 21
249.7423366052
  0
LINE
  5
38E
100
AcDbEntity
  8
0
100
AcDbLine
 62
7
  6
BYLAYER
 10
199.422389719
 20
249.7423366052
 11
190.382389719
 21
249.7423366052
  0
LINE
  5
38F
100
AcDbEntity
  8
0
100
AcDbLine
 62
7
  6
BYLAYER
 10
164.422389719
 20
249.7423366052
 11
132.682389719
 21
249.7423366052
  0
LINE
  5
390
100
AcDbEntity
  8
0
100
AcDbLine
 62
7
  6
BYLAYER
 10
106.722389719
 20
249.7423366052
 11
97.682389719
 21
249.7423366052
  0
LINE
  5
391
100
AcDbEntity
  8
0
100
AcDbLine
 62
7
  6
BYLAYER
 10
71.722389719
 20
249.7423366052
 11
62.682389719
 21
249.7423366052
  0
LINE
  5
392
100
AcDbEntity
  8
0
100
AcDbLine
 62
7
  6
BYLAYER
 10
36.722389719
 20
249.7423366052
 11
32.2523881052
 21
249.7423366052
  0
LINE
  5
393
100
AcDbEntity
  8
0
100
AcDbLine
 62
7
  6
BYLAYER
 10
32.2523881052
 20
249.7804425399
 11
36.722389719
 21
249.7804425399
  0
LINE
  5
394
100
AcDbEntity
  8
0
100
AcDbLine
 62
7
  6
BYLAYER
 10
62.682389719
 20
249.7804425399
 11
71.722389719
 21
249.7804425399
  0
LINE
  5
395
100
AcDbEntity
  8
0
100
AcDbLine
 62
7
  6
BYLAYER
 10
97.682389719
 20
249.7804425399
 11
106.722389719
 21
249.7804425399
  0
LINE
  5
396
100
AcDbEntity
  8
0
100
AcDbLine
 62
7
  6
BYLAYER
 10
132.682389719
 20
249.7804425399
 11
164.422389719
 21
249.7804425399
  0
LINE
  5
397
100
AcDbEntity
  8
0
100
AcDbLine
 62
7
  6
BYLAYER
 10
190.382389719
 20
249.7804425399
 11
199.422389719
 21
249.7804425399
  0
LINE
  5
398
100
AcDbEntity
  8
0
100
AcDbLine
 62
7
  6
BYLAYER
 10
225.382389719
 20
249.7804425399
 11
234.422389719
 21
249.7804425399
  0
LINE
  5
399
100
AcDbEntity
  8
0
100
AcDbLine
 62
7
  6
BYLAYER
 10
260.382389719
 20
249.7804425399
 11
264.8523881052
 21
249.7804425399
  0
LINE
  5
39A
100
AcDbEntity
  8
0
100
AcDbLine
 62
7
  6
BYLAYER
 10
264.8523881052
 20
249.9858146164
 11
260.382389719
 21
249.9858146164
  0
LINE
  5
39B
100
AcDbEntity
  8
0
100
AcDbLine
 62
7
  6
BYLAYER
 10
234.422389719
 20
249.9858146164
 11
225.382389719
 21
249.9858146164
  0
LINE
  5
39C
100
AcDbEntity
  8
0
100
AcDbLine
 62
7
  6
BYLAYER
 10
199.422389719
 20
249.9858146164
 11
190.382389719
 21
249.9858146164
  0
LINE
  5
39D
100
AcDbEntity
  8
0
100
AcDbLine
 62
7
  6
BYLAYER
 10
164.422389719
 20
249.9858146164
 11
132.682389719
 21
249.9858146164
  0
LINE
  5
39E
100
AcDbEntity
  8
0
100
AcDbLine
 62
7
  6
BYLAYER
 10
106.722389719
 20
249.9858146164
 11
97.682389719
 21
249.9858146164
  0
LINE
  5
39F
100
AcDbEntity
  8
0
100
AcDbLine
 62
7
  6
BYLAYER
 10
71.722389719
 20
249.9858146164
 11
62.682389719
 21
249.9858146164
  0
LINE
  5
3A0
100
AcDbEntity
  8
0
100
AcDbLine
 62
7
  6
BYLAYER
 10
36.722389719
 20
249.9858146164
 11
32.2523881052
 21
249.9858146164
  0
LINE
  5
3A1
100
AcDbEntity
  8
0
100
AcDbLine
 62
7
  6
BYLAYER
 10
238.3111671926
 20
133.3076716113
 11
238.8307921577
 21
132.4076547709
  0
LINE
  5
3A2
100
AcDbEntity
  8
0
100
AcDbLine
 62
7
  6
BYLAYER
 10
199.422389719
 20
158.7641853836
 11
199.422389719
 21
133.4576633948
  0
LINE
  5
3A3
100
AcDbEntity
  8
0
100
AcDbLine
 62
7
  6
BYLAYER
 10
199.422389719
 20
248.2858146164
 11
199.422389719
 21
273.5923366052
  0
LINE
  5
3A4
100
AcDbEntity
  8
0
100
AcDbLine
 62
7
  6
BYLAYER
 10
201.8023881052
 20
162.2076293948
 11
201.8023881052
 21
158.7641853836
  0
LINE
  5
3A5
100
AcDbEntity
  8
0
100
AcDbLine
 62
7
  6
BYLAYER
 10
201.8023881052
 20
244.8423706052
 11
201.8023881052
 21
248.2858146164
  0
LINE
  5
3A6
100
AcDbEntity
  8
0
100
AcDbLine
 62
7
  6
BYLAYER
 10
203.402389719
 20
185.5576628701
 11
203.402389719
 21
162.2076293948
  0
LINE
  5
3A7
100
AcDbEntity
  8
0
100
AcDbLine
 62
7
  6
BYLAYER
 10
203.4023901948
 20
221.4923407216
 11
203.4023899334
 21
244.8423706052
  0
LINE
  5
3A8
100
AcDbEntity
  8
0
100
AcDbLine
 62
7
  6
BYLAYER
 10
166.5039875122
 20
132.4076551725
 11
167.0236124764
 21
133.3076720113
  0
LINE
  5
3A9
100
AcDbEntity
  8
0
100
AcDbLine
 62
7
  6
BYLAYER
 10
32.2523881052
 20
250.6230535792
 11
36.722389719
 21
250.6230535792
  0
LINE
  5
3AA
100
AcDbEntity
  8
0
100
AcDbLine
 62
7
  6
BYLAYER
 10
62.682389719
 20
250.6230535792
 11
71.722389719
 21
250.6230535792
  0
LINE
  5
3AB
100
AcDbEntity
  8
0
100
AcDbLine
 62
7
  6
BYLAYER
 10
97.682389719
 20
250.6230535792
 11
106.722389719
 21
250.6230535792
  0
LINE
  5
3AC
100
AcDbEntity
  8
0
100
AcDbLine
 62
7
  6
BYLAYER
 10
132.682389719
 20
250.6230535792
 11
164.422389719
 21
250.6230535792
  0
LINE
  5
3AD
100
AcDbEntity
  8
0
100
AcDbLine
 62
7
  6
BYLAYER
 10
190.382389719
 20
250.6230535792
 11
199.422389719
 21
250.6230535792
  0
LINE
  5
3AE
100
AcDbEntity
  8
0
100
AcDbLine
 62
7
  6
BYLAYER
 10
225.382389719
 20
250.6230535792
 11
234.422389719
 21
250.6230535792
  0
LINE
  5
3AF
100
AcDbEntity
  8
0
100
AcDbLine
 62
7
  6
BYLAYER
 10
260.382389719
 20
250.6230535792
 11
264.8523881052
 21
250.6230535792
  0
LINE
  5
3B0
100
AcDbEntity
  8
0
100
AcDbLine
 62
7
  6
BYLAYER
 10
264.8523881052
 20
251.6923366052
 11
260.382389719
 21
251.6923366052
  0
LINE
  5
3B1
100
AcDbEntity
  8
0
100
AcDbLine
 62
7
  6
BYLAYER
 10
234.422389719
 20
251.6923366052
 11
225.382389719
 21
251.6923366052
  0
LINE
  5
3B2
100
AcDbEntity
  8
0
100
AcDbLine
 62
7
  6
BYLAYER
 10
199.422389719
 20
251.6923366052
 11
190.382389719
 21
251.6923366052
  0
LINE
  5
3B3
100
AcDbEntity
  8
0
100
AcDbLine
 62
7
  6
BYLAYER
 10
164.422389719
 20
251.6923366052
 11
132.682389719
 21
251.6923366052
  0
LINE
  5
3B4
100
AcDbEntity
  8
0
100
AcDbLine
 62
7
  6
BYLAYER
 10
106.722389719
 20
251.6923366052
 11
97.682389719
 21
251.6923366052
  0
LINE
  5
3B5
100
AcDbEntity
  8
0
100
AcDbLine
 62
7
  6
BYLAYER
 10
71.722389719
 20
251.6923366052
 11
62.682389719
 21
251.6923366052
  0
LINE
  5
3B6
100
AcDbEntity
  8
0
100
AcDbLine
 62
7
  6
BYLAYER
 10
36.722389719
 20
251.6923366052
 11
32.2523881052
 21
251.6923366052
  0
LINE
  5
3B7
100
AcDbEntity
  8
0
100
AcDbLine
 62
7
  6
BYLAYER
 10
32.2523881052
 20
251.9423366052
 11
36.722389719
 21
251.9423366052
  0
LINE
  5
3B8
100
AcDbEntity
  8
0
100
AcDbLine
 62
7
  6
BYLAYER
 10
260.382389719
 20
251.9423366052
 11
264.8523881052
 21
251.9423366052
  0
LINE
  5
3B9
100
AcDbEntity
  8
0
100
AcDbLine
 62
7
  6
BYLAYER
 10
32.2523881052
 20
252.6923366052
 11
36.722389719
 21
252.6923366052
  0
LINE
  5
3BA
100
AcDbEntity
  8
0
100
AcDbLine
 62
7
  6
BYLAYER
 10
260.382389719
 20
252.6923366052
 11
264.8523881052
 21
252.6923366052
  0
LINE
  5
3BB
100
AcDbEntity
  8
0
100
AcDbLine
 62
7
  6
BYLAYER
 10
32.2523881052
 20
253.1923366052
 11
36.722389719
 21
253.1923366052
  0
LINE
  5
3BC
100
AcDbEntity
  8
0
100
AcDbLine
 62
7
  6
BYLAYER
 10
260.382389719
 20
253.1923366052
 11
264.8523881052
 21
253.1923366052
  0
LINE
  5
3BD
100
AcDbEntity
  8
0
100
AcDbLine
 62
7
  6
BYLAYER
 10
167.023612322
 20
273.7423282561
 11
166.5039873677
 21
274.6423450778
  0
LINE
  5
3BE
100
AcDbEntity
  8
0
100
AcDbLine
 62
7
  6
BYLAYER
 10
207.402389719
 20
273.5923366052
 11
207.402389719
 21
272.5923366052
  0
LINE
  5
3BF
100
AcDbEntity
  8
0
100
AcDbLine
 62
7
  6
BYLAYER
 10
207.402389719
 20
133.4576633948
 11
207.402389719
 21
134.4576633948
  0
LINE
  5
3C0
100
AcDbEntity
  8
0
100
AcDbLine
 62
7
  6
BYLAYER
 10
207.4023913328
 20
229.7923366052
 11
207.4023913328
 21
227.7923366052
  0
LINE
  5
3C1
100
AcDbEntity
  8
0
100
AcDbLine
 62
7
  6
BYLAYER
 10
207.4023913328
 20
177.2576633948
 11
207.4023913328
 21
179.2576633948
  0
LINE
  5
3C2
100
AcDbEntity
  8
0
100
AcDbLine
 62
7
  6
BYLAYER
 10
258.3007920039
 20
274.642344953
 11
257.7811670502
 21
273.7423281324
  0
LINE
  5
3C3
100
AcDbEntity
  8
0
100
AcDbLine
 62
7
  6
BYLAYER
 10
264.8523881052
 20
263.6923366052
 11
260.382389719
 21
263.6923366052
  0
LINE
  5
3C4
100
AcDbEntity
  8
0
100
AcDbLine
 62
7
  6
BYLAYER
 10
36.722389719
 20
263.6923366052
 11
32.2523881052
 21
263.6923366052
  0
LINE
  5
3C5
100
AcDbEntity
  8
0
100
AcDbLine
 62
7
  6
BYLAYER
 10
264.8523881052
 20
265.1923366052
 11
260.382389719
 21
265.1923366052
  0
LINE
  5
3C6
100
AcDbEntity
  8
0
100
AcDbLine
 62
7
  6
BYLAYER
 10
36.722389719
 20
265.1923366052
 11
32.2523881052
 21
265.1923366052
  0
LINE
  5
3C7
100
AcDbEntity
  8
0
100
AcDbLine
 62
7
  6
BYLAYER
 10
32.2523881052
 20
265.3923366052
 11
36.722389719
 21
265.3923366052
  0
LINE
  5
3C8
100
AcDbEntity
  8
0
100
AcDbLine
 62
7
  6
BYLAYER
 10
260.382389719
 20
265.3923366052
 11
264.8523881052
 21
265.3923366052
  0
LINE
  5
3C9
100
AcDbEntity
  8
0
100
AcDbLine
 62
7
  6
BYLAYER
 10
264.8523881052
 20
266.5923366052
 11
260.382389719
 21
266.5923366052
  0
LINE
  5
3CA
100
AcDbEntity
  8
0
100
AcDbLine
 62
7
  6
BYLAYER
 10
36.722389719
 20
266.5923366052
 11
32.2523881052
 21
266.5923366052
  0
LINE
  5
3CB
100
AcDbEntity
  8
0
100
AcDbLine
 62
7
  6
BYLAYER
 10
32.2523881052
 20
266.7923366052
 11
36.722389719
 21
266.7923366052
  0
LINE
  5
3CC
100
AcDbEntity
  8
0
100
AcDbLine
 62
7
  6
BYLAYER
 10
260.382389719
 20
266.7923366052
 11
264.8523881052
 21
266.7923366052
  0
LINE
  5
3CD
100
AcDbEntity
  8
0
100
AcDbLine
 62
7
  6
BYLAYER
 10
32.2523881052
 20
266.9923366052
 11
36.722389719
 21
266.9923366052
  0
LINE
  5
3CE
100
AcDbEntity
  8
0
100
AcDbLine
 62
7
  6
BYLAYER
 10
260.382389719
 20
266.9923366052
 11
264.8523881052
 21
266.9923366052
  0
LINE
  5
3CF
100
AcDbEntity
  8
0
100
AcDbLine
 62
7
  6
BYLAYER
 10
257.7811671982
 20
133.3076716114
 11
258.3007921633
 21
132.4076547708
  0
LINE
  5
3D0
100
AcDbEntity
  8
0
100
AcDbLine
 62
7
  6
BYLAYER
 10
217.4023913328
 20
179.2576633948
 11
217.4023913328
 21
177.2576633948
  0
LINE
  5
3D1
100
AcDbEntity
  8
0
100
AcDbLine
 62
7
  6
BYLAYER
 10
217.402389719
 20
134.4576633948
 11
217.402389719
 21
133.4576633948
  0
LINE
  5
3D2
100
AcDbEntity
  8
0
100
AcDbLine
 62
7
  6
BYLAYER
 10
217.4023913328
 20
227.7923366052
 11
217.4023913328
 21
229.7923366052
  0
LINE
  5
3D3
100
AcDbEntity
  8
0
100
AcDbLine
 62
7
  6
BYLAYER
 10
217.402389719
 20
272.5923366052
 11
217.402389719
 21
273.5923366052
  0
LINE
  5
3D4
100
AcDbEntity
  8
0
100
AcDbLine
 62
7
  6
BYLAYER
 10
221.4023902417
 20
185.5607275855
 11
221.4023899545
 21
162.2076293948
  0
LINE
  5
3D5
100
AcDbEntity
  8
0
100
AcDbLine
 62
7
  6
BYLAYER
 10
221.402389719
 20
221.4913140681
 11
221.402389719
 21
244.8423706052
  0
LINE
  5
3D6
100
AcDbEntity
  8
0
100
AcDbLine
 62
7
  6
BYLAYER
 10
185.9739875132
 20
132.4076551725
 11
186.4936124772
 21
133.307672011
  0
LINE
  5
3D7
100
AcDbEntity
  8
0
100
AcDbLine
 62
7
  6
BYLAYER
 10
264.8523881052
 20
269.6923366052
 11
260.382389719
 21
269.6923366052
  0
LINE
  5
3D8
100
AcDbEntity
  8
0
100
AcDbLine
 62
7
  6
BYLAYER
 10
36.722389719
 20
269.6923366052
 11
32.2523881052
 21
269.6923366052
  0
LINE
  5
3D9
100
AcDbEntity
  8
0
100
AcDbLine
 62
7
  6
BYLAYER
 10
32.2523881052
 20
269.8923366052
 11
36.722389719
 21
269.8923366052
  0
LINE
  5
3DA
100
AcDbEntity
  8
0
100
AcDbLine
 62
7
  6
BYLAYER
 10
260.382389719
 20
269.8923366052
 11
264.8523881052
 21
269.8923366052
  0
LINE
  5
3DB
100
AcDbEntity
  8
0
100
AcDbLine
 62
7
  6
BYLAYER
 10
62.682389719
 20
269.9298366052
 11
71.722389719
 21
269.9298366052
  0
LINE
  5
3DC
100
AcDbEntity
  8
0
100
AcDbLine
 62
7
  6
BYLAYER
 10
97.682389719
 20
269.9298366052
 11
106.722389719
 21
269.9298366052
  0
LINE
  5
3DD
100
AcDbEntity
  8
0
100
AcDbLine
 62
7
  6
BYLAYER
 10
132.682389719
 20
269.9298366052
 11
164.422389719
 21
269.9298366052
  0
LINE
  5
3DE
100
AcDbEntity
  8
0
100
AcDbLine
 62
7
  6
BYLAYER
 10
190.382389719
 20
269.9298366052
 11
199.422389719
 21
269.9298366052
  0
LINE
  5
3DF
100
AcDbEntity
  8
0
100
AcDbLine
 62
7
  6
BYLAYER
 10
225.382389719
 20
269.9298366052
 11
234.422389719
 21
269.9298366052
  0
LINE
  5
3E0
100
AcDbEntity
  8
0
100
AcDbLine
 62
7
  6
BYLAYER
 10
32.2523881052
 20
270.3923366052
 11
36.722389719
 21
270.3923366052
  0
LINE
  5
3E1
100
AcDbEntity
  8
0
100
AcDbLine
 62
7
  6
BYLAYER
 10
62.682389719
 20
270.3923366052
 11
71.722389719
 21
270.3923366052
  0
LINE
  5
3E2
100
AcDbEntity
  8
0
100
AcDbLine
 62
7
  6
BYLAYER
 10
97.682389719
 20
270.3923366052
 11
106.722389719
 21
270.3923366052
  0
LINE
  5
3E3
100
AcDbEntity
  8
0
100
AcDbLine
 62
7
  6
BYLAYER
 10
132.682389719
 20
270.3923366052
 11
164.422389719
 21
270.3923366052
  0
LINE
  5
3E4
100
AcDbEntity
  8
0
100
AcDbLine
 62
7
  6
BYLAYER
 10
190.382389719
 20
270.3923366052
 11
199.422389719
 21
270.3923366052
  0
LINE
  5
3E5
100
AcDbEntity
  8
0
100
AcDbLine
 62
7
  6
BYLAYER
 10
225.382389719
 20
270.3923366052
 11
234.422389719
 21
270.3923366052
  0
LINE
  5
3E6
100
AcDbEntity
  8
0
100
AcDbLine
 62
7
  6
BYLAYER
 10
260.382389719
 20
270.3923366052
 11
264.8523881052
 21
270.3923366052
  0
LINE
  5
3E7
100
AcDbEntity
  8
0
100
AcDbLine
 62
7
  6
BYLAYER
 10
32.2523881052
 20
271.3923366052
 11
36.722389719
 21
271.3923366052
  0
LINE
  5
3E8
100
AcDbEntity
  8
0
100
AcDbLine
 62
7
  6
BYLAYER
 10
62.682389719
 20
271.3923366052
 11
71.722389719
 21
271.3923366052
  0
LINE
  5
3E9
100
AcDbEntity
  8
0
100
AcDbLine
 62
7
  6
BYLAYER
 10
97.682389719
 20
271.3923366052
 11
106.722389719
 21
271.3923366052
  0
LINE
  5
3EA
100
AcDbEntity
  8
0
100
AcDbLine
 62
7
  6
BYLAYER
 10
132.682389719
 20
271.3923366052
 11
164.422389719
 21
271.3923366052
  0
LINE
  5
3EB
100
AcDbEntity
  8
0
100
AcDbLine
 62
7
  6
BYLAYER
 10
190.382389719
 20
271.3923366052
 11
199.422389719
 21
271.3923366052
  0
LINE
  5
3EC
100
AcDbEntity
  8
0
100
AcDbLine
 62
7
  6
BYLAYER
 10
225.382389719
 20
271.3923366052
 11
234.422389719
 21
271.3923366052
  0
LINE
  5
3ED
100
AcDbEntity
  8
0
100
AcDbLine
 62
7
  6
BYLAYER
 10
260.382389719
 20
271.3923366052
 11
264.8523881052
 21
271.3923366052
  0
LINE
  5
3EE
100
AcDbEntity
  8
0
100
AcDbLine
 62
7
  6
BYLAYER
 10
62.682389719
 20
271.8548366052
 11
71.722389719
 21
271.8548366052
  0
LINE
  5
3EF
100
AcDbEntity
  8
0
100
AcDbLine
 62
7
  6
BYLAYER
 10
97.682389719
 20
271.8548366052
 11
106.722389719
 21
271.8548366052
  0
LINE
  5
3F0
100
AcDbEntity
  8
0
100
AcDbLine
 62
7
  6
BYLAYER
 10
132.682389719
 20
271.8548366052
 11
164.422389719
 21
271.8548366052
  0
LINE
  5
3F1
100
AcDbEntity
  8
0
100
AcDbLine
 62
7
  6
BYLAYER
 10
190.382389719
 20
271.8548366052
 11
199.422389719
 21
271.8548366052
  0
LINE
  5
3F2
100
AcDbEntity
  8
0
100
AcDbLine
 62
7
  6
BYLAYER
 10
225.382389719
 20
271.8548366052
 11
234.422389719
 21
271.8548366052
  0
LINE
  5
3F3
100
AcDbEntity
  8
0
100
AcDbLine
 62
7
  6
BYLAYER
 10
32.2523881052
 20
271.8923366052
 11
36.722389719
 21
271.8923366052
  0
LINE
  5
3F4
100
AcDbEntity
  8
0
100
AcDbLine
 62
7
  6
BYLAYER
 10
62.682389719
 20
271.8923366052
 11
71.722389719
 21
271.8923366052
  0
LINE
  5
3F5
100
AcDbEntity
  8
0
100
AcDbLine
 62
7
  6
BYLAYER
 10
97.682389719
 20
271.8923366052
 11
106.722389719
 21
271.8923366052
  0
LINE
  5
3F6
100
AcDbEntity
  8
0
100
AcDbLine
 62
7
  6
BYLAYER
 10
132.682389719
 20
271.8923366052
 11
164.422389719
 21
271.8923366052
  0
LINE
  5
3F7
100
AcDbEntity
  8
0
100
AcDbLine
 62
7
  6
BYLAYER
 10
190.382389719
 20
271.8923366052
 11
199.422389719
 21
271.8923366052
  0
LINE
  5
3F8
100
AcDbEntity
  8
0
100
AcDbLine
 62
7
  6
BYLAYER
 10
225.382389719
 20
271.8923366052
 11
234.422389719
 21
271.8923366052
  0
LINE
  5
3F9
100
AcDbEntity
  8
0
100
AcDbLine
 62
7
  6
BYLAYER
 10
260.382389719
 20
271.8923366052
 11
264.8523881052
 21
271.8923366052
  0
LINE
  5
3FA
100
AcDbEntity
  8
0
100
AcDbLine
 62
7
  6
BYLAYER
 10
252.402389719
 20
272.5923366052
 11
242.402389719
 21
272.5923366052
  0
LINE
  5
3FB
100
AcDbEntity
  8
0
100
AcDbLine
 62
7
  6
BYLAYER
 10
182.402389719
 20
272.5923366052
 11
172.402389719
 21
272.5923366052
  0
LINE
  5
3FC
100
AcDbEntity
  8
0
100
AcDbLine
 62
7
  6
BYLAYER
 10
89.702389719
 20
272.5923366052
 11
79.702389719
 21
272.5923366052
  0
LINE
  5
3FD
100
AcDbEntity
  8
0
100
AcDbLine
 62
7
  6
BYLAYER
 10
44.702389719
 20
272.5923366052
 11
54.702389719
 21
272.5923366052
  0
LINE
  5
3FE
100
AcDbEntity
  8
0
100
AcDbLine
 62
7
  6
BYLAYER
 10
114.702389719
 20
272.5923366052
 11
124.702389719
 21
272.5923366052
  0
LINE
  5
3FF
100
AcDbEntity
  8
0
100
AcDbLine
 62
7
  6
BYLAYER
 10
207.402389719
 20
272.5923366052
 11
217.402389719
 21
272.5923366052
  0
LINE
  5
400
100
AcDbEntity
  8
0
100
AcDbLine
 62
7
  6
BYLAYER
 10
260.382389719
 20
273.5923366052
 11
257.8677871201
 21
273.5923366052
  0
LINE
  5
401
100
AcDbEntity
  8
0
100
AcDbLine
 62
7
  6
BYLAYER
 10
236.9369923206
 20
273.5923366052
 11
234.422389719
 21
273.5923366052
  0
LINE
  5
402
100
AcDbEntity
  8
0
100
AcDbLine
 62
7
  6
BYLAYER
 10
225.382389719
 20
273.5923366052
 11
222.8677871174
 21
273.5923366052
  0
LINE
  5
403
100
AcDbEntity
  8
0
100
AcDbLine
 62
7
  6
BYLAYER
 10
221.4069923206
 20
273.5923366052
 11
203.3977871169
 21
273.5923366052
  0
LINE
  5
404
100
AcDbEntity
  8
0
100
AcDbLine
 62
7
  6
BYLAYER
 10
201.9369923179
 20
273.5923366052
 11
199.422389719
 21
273.5923366052
  0
LINE
  5
405
100
AcDbEntity
  8
0
100
AcDbLine
 62
7
  6
BYLAYER
 10
190.382389719
 20
273.5923366052
 11
187.8677871202
 21
273.5923366052
  0
LINE
  5
406
100
AcDbEntity
  8
0
100
AcDbLine
 62
7
  6
BYLAYER
 10
166.9369923206
 20
273.5923366052
 11
164.422389719
 21
273.5923366052
  0
LINE
  5
407
100
AcDbEntity
  8
0
100
AcDbLine
 62
7
  6
BYLAYER
 10
132.682389719
 20
273.5923366052
 11
130.1677871174
 21
273.5923366052
  0
LINE
  5
408
100
AcDbEntity
  8
0
100
AcDbLine
 62
7
  6
BYLAYER
 10
128.7069923206
 20
273.5923366052
 11
110.6977871169
 21
273.5923366052
  0
LINE
  5
409
100
AcDbEntity
  8
0
100
AcDbLine
 62
7
  6
BYLAYER
 10
109.2369923179
 20
273.5923366052
 11
106.722389719
 21
273.5923366052
  0
LINE
  5
40A
100
AcDbEntity
  8
0
100
AcDbLine
 62
7
  6
BYLAYER
 10
97.682389719
 20
273.5923366052
 11
95.1677871201
 21
273.5923366052
  0
LINE
  5
40B
100
AcDbEntity
  8
0
100
AcDbLine
 62
7
  6
BYLAYER
 10
74.2369923206
 20
273.5923366052
 11
71.722389719
 21
273.5923366052
  0
LINE
  5
40C
100
AcDbEntity
  8
0
100
AcDbLine
 62
7
  6
BYLAYER
 10
62.682389719
 20
273.5923366052
 11
60.1677871174
 21
273.5923366052
  0
LINE
  5
40D
100
AcDbEntity
  8
0
100
AcDbLine
 62
7
  6
BYLAYER
 10
58.7069923206
 20
273.5923366052
 11
40.6977871169
 21
273.5923366052
  0
LINE
  5
40E
100
AcDbEntity
  8
0
100
AcDbLine
 62
7
  6
BYLAYER
 10
39.2369923179
 20
273.5923366052
 11
36.722389719
 21
273.5923366052
  0
LINE
  5
40F
100
AcDbEntity
  8
0
100
AcDbLine
 62
7
  6
BYLAYER
 10
75.6977871174
 20
273.5923366052
 11
93.7069923211
 21
273.5923366052
  0
LINE
  5
410
100
AcDbEntity
  8
0
100
AcDbLine
 62
7
  6
BYLAYER
 10
168.3977871174
 20
273.5923366052
 11
186.4069923211
 21
273.5923366052
  0
LINE
  5
411
100
AcDbEntity
  8
0
100
AcDbLine
 62
7
  6
BYLAYER
 10
238.3977871174
 20
273.5923366052
 11
256.4069923211
 21
273.5923366052
  0
LINE
  5
412
100
AcDbEntity
  8
0
100
AcDbLine
 62
7
  6
BYLAYER
 10
223.214171994
 20
274.7923366052
 11
221.060607444
 21
274.7923366052
  0
LINE
  5
413
100
AcDbEntity
  8
0
100
AcDbLine
 62
7
  6
BYLAYER
 10
203.7441719927
 20
274.7923366052
 11
201.5906074418
 21
274.7923366052
  0
LINE
  5
414
100
AcDbEntity
  8
0
100
AcDbLine
 62
7
  6
BYLAYER
 10
130.514171994
 20
274.7923366052
 11
128.360607444
 21
274.7923366052
  0
LINE
  5
415
100
AcDbEntity
  8
0
100
AcDbLine
 62
7
  6
BYLAYER
 10
111.0441719927
 20
274.7923366052
 11
108.8906074418
 21
274.7923366052
  0
LINE
  5
416
100
AcDbEntity
  8
0
100
AcDbLine
 62
7
  6
BYLAYER
 10
60.514171994
 20
274.7923366052
 11
58.360607444
 21
274.7923366052
  0
LINE
  5
417
100
AcDbEntity
  8
0
100
AcDbLine
 62
7
  6
BYLAYER
 10
41.0441719927
 20
274.7923366052
 11
38.8906074418
 21
274.7923366052
  0
LINE
  5
418
100
AcDbEntity
  8
0
100
AcDbLine
 62
7
  6
BYLAYER
 10
73.8906099483
 20
274.7923366052
 11
76.0441692997
 21
274.7923366052
  0
LINE
  5
419
100
AcDbEntity
  8
0
100
AcDbLine
 62
7
  6
BYLAYER
 10
93.3606099496
 20
274.7923366052
 11
95.5141693018
 21
274.7923366052
  0
LINE
  5
41A
100
AcDbEntity
  8
0
100
AcDbLine
 62
7
  6
BYLAYER
 10
166.5906099483
 20
274.7923366052
 11
168.7441692997
 21
274.7923366052
  0
LINE
  5
41B
100
AcDbEntity
  8
0
100
AcDbLine
 62
7
  6
BYLAYER
 10
186.0606099496
 20
274.7923366052
 11
188.2141693018
 21
274.7923366052
  0
LINE
  5
41C
100
AcDbEntity
  8
0
100
AcDbLine
 62
7
  6
BYLAYER
 10
236.5906099483
 20
274.7923366052
 11
238.7441692997
 21
274.7923366052
  0
LINE
  5
41D
100
AcDbEntity
  8
0
100
AcDbLine
 62
7
  6
BYLAYER
 10
256.0606099496
 20
274.7923366052
 11
258.2141693018
 21
274.7923366052
  0
LINE
  5
41E
100
AcDbEntity
  8
0
100
AcDbLine
 62
7
  6
BYLAYER
 10
186.4936123228
 20
273.7423282564
 11
185.9739873687
 21
274.6423450778
  0
LINE
  5
41F
100
AcDbEntity
  8
0
100
AcDbLine
 62
7
  6
BYLAYER
 10
223.0023913328
 20
162.2076293948
 11
223.0023913328
 21
158.7641853836
  0
LINE
  5
420
100
AcDbEntity
  8
0
100
AcDbLine
 62
7
  6
BYLAYER
 10
223.0023913328
 20
244.8423706052
 11
223.0023913328
 21
248.2858146164
  0
LINE
  5
421
100
AcDbEntity
  8
0
100
AcDbLine
 62
7
  6
BYLAYER
 10
225.382389719
 20
158.7641853836
 11
225.382389719
 21
133.4576633948
  0
LINE
  5
422
100
AcDbEntity
  8
0
100
AcDbLine
 62
7
  6
BYLAYER
 10
225.382389719
 20
248.2858146164
 11
225.382389719
 21
273.5923366052
  0
LINE
  5
423
100
AcDbEntity
  8
0
100
AcDbLine
 62
7
  6
BYLAYER
 10
201.503987432
 20
132.4076550434
 11
202.0236124268
 21
133.3076719353
  0
LINE
  5
424
100
AcDbEntity
  8
0
100
AcDbLine
 62
7
  6
BYLAYER
 10
202.0236122414
 20
273.7423283858
 11
201.5039873211
 21
274.6423451487
  0
LINE
  5
425
100
AcDbEntity
  8
0
100
AcDbLine
 62
7
  6
BYLAYER
 10
234.422389719
 20
158.7641853836
 11
234.422389719
 21
133.4576633948
  0
LINE
  5
426
100
AcDbEntity
  8
0
100
AcDbLine
 62
7
  6
BYLAYER
 10
234.422389719
 20
248.2858146164
 11
234.422389719
 21
273.5923366052
  0
LINE
  5
427
100
AcDbEntity
  8
0
100
AcDbLine
 62
7
  6
BYLAYER
 10
236.8023881052
 20
162.2076293948
 11
236.8023881052
 21
158.7641853836
  0
LINE
  5
428
100
AcDbEntity
  8
0
100
AcDbLine
 62
7
  6
BYLAYER
 10
236.8023881052
 20
244.8423706052
 11
236.8023881052
 21
248.2858146164
  0
LINE
  5
429
100
AcDbEntity
  8
0
100
AcDbLine
 62
7
  6
BYLAYER
 10
238.402389719
 20
244.8423706052
 11
238.402389719
 21
221.4913140681
  0
LINE
  5
42A
100
AcDbEntity
  8
0
100
AcDbLine
 62
7
  6
BYLAYER
 10
238.402389719
 20
185.5586859319
 11
238.402389719
 21
162.2076293948
  0
LINE
  5
42B
100
AcDbEntity
  8
0
100
AcDbLine
 62
7
  6
BYLAYER
 10
242.4023881052
 20
179.2576633948
 11
242.4023881052
 21
177.2576633948
  0
LINE
  5
42C
100
AcDbEntity
  8
0
100
AcDbLine
 62
7
  6
BYLAYER
 10
242.402389719
 20
134.4576633948
 11
242.402389719
 21
133.4576633948
  0
LINE
  5
42D
100
AcDbEntity
  8
0
100
AcDbLine
 62
7
  6
BYLAYER
 10
242.4023881052
 20
227.7923366052
 11
242.4023881052
 21
229.7923366052
  0
LINE
  5
42E
100
AcDbEntity
  8
0
100
AcDbLine
 62
7
  6
BYLAYER
 10
242.402389719
 20
272.5923366052
 11
242.402389719
 21
273.5923366052
  0
LINE
  5
42F
100
AcDbEntity
  8
0
100
AcDbLine
 62
7
  6
BYLAYER
 10
220.9739874376
 20
132.4076550432
 11
221.4936124325
 21
133.3076719352
  0
LINE
  5
430
100
AcDbEntity
  8
0
100
AcDbLine
 62
7
  6
BYLAYER
 10
221.493612247
 20
273.742328386
 11
220.9739873267
 21
274.6423451488
  0
LINE
  5
431
100
AcDbEntity
  8
0
100
AcDbLine
 62
7
  6
BYLAYER
 10
252.402389719
 20
273.5923366052
 11
252.402389719
 21
272.5923366052
  0
LINE
  5
432
100
AcDbEntity
  8
0
100
AcDbLine
 62
7
  6
BYLAYER
 10
252.4023881052
 20
229.7923366052
 11
252.4023881052
 21
227.7923366052
  0
LINE
  5
433
100
AcDbEntity
  8
0
100
AcDbLine
 62
7
  6
BYLAYER
 10
252.402389719
 20
133.4576633948
 11
252.402389719
 21
134.4576633948
  0
LINE
  5
434
100
AcDbEntity
  8
0
100
AcDbLine
 62
7
  6
BYLAYER
 10
252.4023881052
 20
177.2576633948
 11
252.4023881052
 21
179.2576633948
  0
LINE
  5
435
100
AcDbEntity
  8
0
100
AcDbLine
 62
7
  6
BYLAYER
 10
256.4023892432
 20
185.557659279
 11
256.4023895046
 21
162.2076293948
  0
LINE
  5
436
100
AcDbEntity
  8
0
100
AcDbLine
 62
7
  6
BYLAYER
 10
256.402389719
 20
221.4923371299
 11
256.402389719
 21
244.8423706052
  0
LINE
  5
437
100
AcDbEntity
  8
0
100
AcDbLine
 62
7
  6
BYLAYER
 10
258.0023913328
 20
162.2076293948
 11
258.0023913328
 21
158.7641853836
  0
LINE
  5
438
100
AcDbEntity
  8
0
100
AcDbLine
 62
7
  6
BYLAYER
 10
258.0023913328
 20
244.8423706052
 11
258.0023913328
 21
248.2858146164
  0
LINE
  5
439
100
AcDbEntity
  8
0
100
AcDbLine
 62
7
  6
BYLAYER
 10
260.382389719
 20
273.5923366052
 11
260.382389719
 21
248.2858146164
  0
LINE
  5
43A
100
AcDbEntity
  8
0
100
AcDbLine
 62
7
  6
BYLAYER
 10
260.382389719
 20
158.7641853836
 11
260.382389719
 21
133.4576633948
  0
LINE
  5
43B
100
AcDbEntity
  8
0
100
AcDbLine
 62
7
  6
BYLAYER
 10
264.8523881052
 20
135.1576633948
 11
264.8523881052
 21
159.6049789519
  0
LINE
  5
43C
100
AcDbEntity
  8
0
100
AcDbLine
 62
7
  6
BYLAYER
 10
264.8523881052
 20
159.6751152422
 11
264.8523881052
 21
161.5576633948
  0
LINE
  5
43D
100
AcDbEntity
  8
0
100
AcDbLine
 62
7
  6
BYLAYER
 10
264.8523881052
 20
245.4923366052
 11
264.8523881052
 21
266.7923366052
  0
LINE
  5
43E
100
AcDbEntity
  8
0
100
AcDbLine
 62
7
  6
BYLAYER
 10
264.8523881052
 20
266.8193275556
 11
264.8523881052
 21
271.8923366052
  0
LINE
  5
43F
100
AcDbEntity
  8
0
100
AcDbLine
 62
7
  6
BYLAYER
 10
236.5039875122
 20
132.4076551725
 11
237.0236124764
 21
133.3076720113
  0
LINE
  5
440
100
AcDbEntity
  8
0
100
AcDbLine
 62
7
  6
BYLAYER
 10
237.023612322
 20
273.7423282561
 11
236.5039873677
 21
274.6423450778
  0
LINE
  5
441
100
AcDbEntity
  8
0
100
AcDbLine
 62
7
  6
BYLAYER
 10
255.9739875132
 20
132.4076551726
 11
256.4936124772
 21
133.307672011
  0
LINE
  5
442
100
AcDbEntity
  8
0
100
AcDbLine
 62
7
  6
BYLAYER
 10
256.4936123228
 20
273.7423282564
 11
255.9739873687
 21
274.6423450778
  0
ARC
  5
443
100
AcDbEntity
  8
0
100
AcDbCircle
 62
7
  6
BYLAYER
 10
84.7023881052
 20
177.2576633948
 40
5.0
100
AcDbArc
 50
180.0
 51
360.0
  0
ARC
  5
444
100
AcDbEntity
  8
0
100
AcDbCircle
 62
7
  6
BYLAYER
 10
84.7023881052
 20
179.2576633948
 40
5.0
100
AcDbArc
 50
0.0
 51
180.0
  0
ARC
  5
445
100
AcDbEntity
  8
0
100
AcDbCircle
 62
7
  6
BYLAYER
 10
49.7023913328
 20
177.2576633948
 40
5.0
100
AcDbArc
 50
180.0
 51
360.0
  0
ARC
  5
446
100
AcDbEntity
  8
0
100
AcDbCircle
 62
7
  6
BYLAYER
 10
49.7023913328
 20
179.2576633948
 40
5.0
100
AcDbArc
 50
0.0
 51
180.0
  0
ARC
  5
447
100
AcDbEntity
  8
0
100
AcDbCircle
 62
7
  6
BYLAYER
 10
119.7023913328
 20
179.2576633948
 40
5.0
100
AcDbArc
 50
0.0
 51
180.0
  0
ARC
  5
448
100
AcDbEntity
  8
0
100
AcDbCircle
 62
7
  6
BYLAYER
 10
119.7023913328
 20
177.2576633948
 40
5.0
100
AcDbArc
 50
180.0
 51
360.0
  0
ARC
  5
449
100
AcDbEntity
  8
0
100
AcDbCircle
 62
7
  6
BYLAYER
 10
78.7023881509
 20
185.5576634709
 40
3.0
100
AcDbArc
 50
89.9412329748
 51
179.9414797086
  0
ARC
  5
44A
100
AcDbEntity
  8
0
100
AcDbCircle
 62
7
  6
BYLAYER
 10
90.7023885771
 20
185.5576634709
 40
3.0
100
AcDbArc
 50
359.9999199347
 51
89.9999923715
  0
ARC
  5
44B
100
AcDbEntity
  8
0
100
AcDbCircle
 62
7
  6
BYLAYER
 10
55.7023912871
 20
185.5576634709
 40
3.0
100
AcDbArc
 50
0.0585202836
 51
90.058767002
  0
ARC
  5
44C
100
AcDbEntity
  8
0
100
AcDbCircle
 62
7
  6
BYLAYER
 10
43.7023908608
 20
185.5576634709
 40
3.0
100
AcDbArc
 50
90.0000076291
 51
180.0000800553
  0
ARC
  5
44D
100
AcDbEntity
  8
0
100
AcDbCircle
 62
7
  6
BYLAYER
 10
113.7023908608
 20
185.5576634709
 40
3.0
100
AcDbArc
 50
90.0000076291
 51
180.0000800553
  0
ARC
  5
44E
100
AcDbEntity
  8
0
100
AcDbCircle
 62
7
  6
BYLAYER
 10
125.7023912871
 20
185.5576634709
 40
3.0
100
AcDbArc
 50
0.0585202836
 51
90.058767002
  0
ARC
  5
44F
100
AcDbEntity
  8
0
100
AcDbCircle
 62
7
  6
BYLAYER
 10
110.6977741731
 20
133.3576623655
 40
0.1000000928
100
AcDbArc
 50
89.9909898627
 51
209.9940988351
  0
ARC
  5
450
100
AcDbEntity
  8
0
100
AcDbCircle
 62
7
  6
BYLAYER
 10
130.1677741736
 20
133.3576623658
 40
0.1000000925
100
AcDbArc
 50
89.9909898665
 51
209.9940991111
  0
ARC
  5
451
100
AcDbEntity
  8
0
100
AcDbCircle
 62
7
  6
BYLAYER
 10
74.2370052644
 20
133.3576623658
 40
0.1000000925
100
AcDbArc
 50
330.0061243327
 51
90.0087659579
  0
ARC
  5
452
100
AcDbEntity
  8
0
100
AcDbCircle
 62
7
  6
BYLAYER
 10
93.7070052648
 20
133.3576623655
 40
0.1000000928
100
AcDbArc
 50
330.0061246514
 51
90.0087659213
  0
ARC
  5
453
100
AcDbEntity
  8
0
100
AcDbCircle
 62
7
  6
BYLAYER
 10
40.6977741731
 20
133.3576623655
 40
0.1000000928
100
AcDbArc
 50
89.9909898566
 51
209.9940988407
  0
ARC
  5
454
100
AcDbEntity
  8
0
100
AcDbCircle
 62
7
  6
BYLAYER
 10
60.1677741736
 20
133.3576623658
 40
0.1000000925
100
AcDbArc
 50
89.9909898555
 51
209.9940991218
  0
ARC
  5
455
100
AcDbEntity
  8
0
100
AcDbCircle
 62
7
  6
BYLAYER
 10
108.8905944768
 20
132.3576644156
 40
0.1000000537
100
AcDbArc
 50
150.0059409251
 51
270.0089742519
  0
ARC
  5
456
100
AcDbEntity
  8
0
100
AcDbCircle
 62
7
  6
BYLAYER
 10
95.5141849612
 20
132.3576644156
 40
0.1000000537
100
AcDbArc
 50
269.991220268
 51
29.9938787511
  0
ARC
  5
457
100
AcDbEntity
  8
0
100
AcDbCircle
 62
7
  6
BYLAYER
 10
38.8905944768
 20
132.3576644156
 40
0.1000000537
100
AcDbArc
 50
150.0059409243
 51
270.0089742515
  0
ARC
  5
458
100
AcDbEntity
  8
0
100
AcDbCircle
 62
7
  6
BYLAYER
 10
128.3605944797
 20
132.357664414
 40
0.1000000521
100
AcDbArc
 50
150.0059393354
 51
270.008973861
  0
ARC
  5
459
100
AcDbEntity
  8
0
100
AcDbCircle
 62
7
  6
BYLAYER
 10
76.0441849583
 20
132.357664414
 40
0.1000000521
100
AcDbArc
 50
269.9912206534
 51
29.9938803456
  0
ARC
  5
45A
100
AcDbEntity
  8
0
100
AcDbCircle
 62
7
  6
BYLAYER
 10
58.3605944797
 20
132.357664414
 40
0.1000000521
100
AcDbArc
 50
150.0059393315
 51
270.0089738653
  0
ARC
  5
45B
100
AcDbEntity
  8
0
100
AcDbCircle
 62
7
  6
BYLAYER
 10
111.0441849743
 20
132.357664406
 40
0.1000000142
100
AcDbArc
 50
269.9911251589
 51
29.9939872742
  0
ARC
  5
45C
100
AcDbEntity
  8
0
100
AcDbCircle
 62
7
  6
BYLAYER
 10
130.5141849748
 20
132.3576644062
 40
0.1000000145
100
AcDbArc
 50
269.9911256259
 51
29.9939869944
  0
ARC
  5
45D
100
AcDbEntity
  8
0
100
AcDbCircle
 62
7
  6
BYLAYER
 10
128.7070052977
 20
133.3576623832
 40
0.1000000147
100
AcDbArc
 50
330.0060559537
 51
90.008828982
  0
ARC
  5
45E
100
AcDbEntity
  8
0
100
AcDbCircle
 62
7
  6
BYLAYER
 10
75.6977741403
 20
133.3576623832
 40
0.1000000147
100
AcDbArc
 50
89.9909237674
 51
209.9941583705
  0
ARC
  5
45F
100
AcDbEntity
  8
0
100
AcDbCircle
 62
7
  6
BYLAYER
 10
73.8905944632
 20
132.3576644062
 40
0.1000000145
100
AcDbArc
 50
150.0058453302
 51
270.0090808015
  0
ARC
  5
460
100
AcDbEntity
  8
0
100
AcDbCircle
 62
7
  6
BYLAYER
 10
93.3605944637
 20
132.357664406
 40
0.1000000143
100
AcDbArc
 50
150.0058450378
 51
270.0090812848
  0
ARC
  5
461
100
AcDbEntity
  8
0
100
AcDbCircle
 62
7
  6
BYLAYER
 10
41.0441849743
 20
132.357664406
 40
0.1000000143
100
AcDbArc
 50
269.9911252032
 51
29.9939872247
  0
ARC
  5
462
100
AcDbEntity
  8
0
100
AcDbCircle
 62
7
  6
BYLAYER
 10
60.5141849748
 20
132.3576644062
 40
0.1000000145
100
AcDbArc
 50
269.9911255986
 51
29.9939870252
  0
ARC
  5
463
100
AcDbEntity
  8
0
100
AcDbCircle
 62
7
  6
BYLAYER
 10
58.7070052977
 20
133.3576623832
 40
0.1000000147
100
AcDbArc
 50
330.0060559408
 51
90.0088289946
  0
ARC
  5
464
100
AcDbEntity
  8
0
100
AcDbCircle
 62
7
  6
BYLAYER
 10
109.2370052949
 20
133.3576623848
 40
0.1000000131
100
AcDbArc
 50
330.0060543395
 51
90.0088289367
  0
ARC
  5
465
100
AcDbEntity
  8
0
100
AcDbCircle
 62
7
  6
BYLAYER
 10
95.1677741431
 20
133.3576623849
 40
0.100000013
100
AcDbArc
 50
89.9909237797
 51
209.9941600142
  0
ARC
  5
466
100
AcDbEntity
  8
0
100
AcDbCircle
 62
7
  6
BYLAYER
 10
39.2370052949
 20
133.3576623849
 40
0.100000013
100
AcDbArc
 50
330.006054326
 51
90.0088289494
  0
ARC
  5
467
100
AcDbEntity
  8
0
100
AcDbCircle
 62
7
  6
BYLAYER
 10
84.7023881052
 20
227.7923366052
 40
5.0
100
AcDbArc
 50
180.0
 51
360.0
  0
ARC
  5
468
100
AcDbEntity
  8
0
100
AcDbCircle
 62
7
  6
BYLAYER
 10
84.7023881052
 20
229.7923366052
 40
5.0
100
AcDbArc
 50
0.0
 51
180.0
  0
ARC
  5
469
100
AcDbEntity
  8
0
100
AcDbCircle
 62
7
  6
BYLAYER
 10
119.7023913328
 20
227.7923366052
 40
5.0
100
AcDbArc
 50
180.0
 51
360.0
  0
ARC
  5
46A
100
AcDbEntity
  8
0
100
AcDbCircle
 62
7
  6
BYLAYER
 10
119.7023913328
 20
229.7923366052
 40
5.0
100
AcDbArc
 50
0.0
 51
180.0
  0
ARC
  5
46B
100
AcDbEntity
  8
0
100
AcDbCircle
 62
7
  6
BYLAYER
 10
49.7023913328
 20
229.7923366052
 40
5.0
100
AcDbArc
 50
0.0
 51
180.0
  0
ARC
  5
46C
100
AcDbEntity
  8
0
100
AcDbCircle
 62
7
  6
BYLAYER
 10
49.7023913328
 20
227.7923366052
 40
5.0
100
AcDbArc
 50
180.0
 51
360.0
  0
ARC
  5
46D
100
AcDbEntity
  8
0
100
AcDbCircle
 62
7
  6
BYLAYER
 10
90.7023885771
 20
221.4923365291
 40
3.0
100
AcDbArc
 50
270.0000076291
 51
0.0000800553
  0
ARC
  5
46E
100
AcDbEntity
  8
0
100
AcDbCircle
 62
7
  6
BYLAYER
 10
78.7023881509
 20
221.4923365291
 40
3.0
100
AcDbArc
 50
180.0585202836
 51
270.058767002
  0
ARC
  5
46F
100
AcDbEntity
  8
0
100
AcDbCircle
 62
7
  6
BYLAYER
 10
113.7023908608
 20
221.4923365291
 40
3.0
100
AcDbArc
 50
179.9999199347
 51
269.9999923715
  0
ARC
  5
470
100
AcDbEntity
  8
0
100
AcDbCircle
 62
7
  6
BYLAYER
 10
125.7023912871
 20
221.4923365291
 40
3.0
100
AcDbArc
 50
269.9412329748
 51
359.9414797086
  0
ARC
  5
471
100
AcDbEntity
  8
0
100
AcDbCircle
 62
7
  6
BYLAYER
 10
55.7023912871
 20
221.4923365291
 40
3.0
100
AcDbArc
 50
269.9412329748
 51
359.9414797086
  0
ARC
  5
472
100
AcDbEntity
  8
0
100
AcDbCircle
 62
7
  6
BYLAYER
 10
43.7023908608
 20
221.4923365291
 40
3.0
100
AcDbArc
 50
179.9999199347
 51
269.9999923715
  0
ARC
  5
473
100
AcDbEntity
  8
0
100
AcDbCircle
 62
7
  6
BYLAYER
 10
130.1677741737
 20
273.6923376343
 40
0.1000000926
100
AcDbArc
 50
150.0061270403
 51
270.0087678811
  0
ARC
  5
474
100
AcDbEntity
  8
0
100
AcDbCircle
 62
7
  6
BYLAYER
 10
110.6977741732
 20
273.6923376345
 40
0.1000000929
100
AcDbArc
 50
150.0061273083
 51
270.0087678766
  0
ARC
  5
475
100
AcDbEntity
  8
0
100
AcDbCircle
 62
7
  6
BYLAYER
 10
60.1677741737
 20
273.6923376343
 40
0.1000000926
100
AcDbArc
 50
150.0061270287
 51
270.0087678926
  0
ARC
  5
476
100
AcDbEntity
  8
0
100
AcDbCircle
 62
7
  6
BYLAYER
 10
40.6977741732
 20
273.6923376345
 40
0.1000000928
100
AcDbArc
 50
150.0061272951
 51
270.0087678913
  0
ARC
  5
477
100
AcDbEntity
  8
0
100
AcDbCircle
 62
7
  6
BYLAYER
 10
74.2370052643
 20
273.6923376343
 40
0.1000000926
100
AcDbArc
 50
269.991038309
 51
29.9940525706
  0
ARC
  5
478
100
AcDbEntity
  8
0
100
AcDbCircle
 62
7
  6
BYLAYER
 10
93.7070052648
 20
273.6923376345
 40
0.1000000928
100
AcDbArc
 50
269.9910383141
 51
29.9940523011
  0
ARC
  5
479
100
AcDbEntity
  8
0
100
AcDbCircle
 62
7
  6
BYLAYER
 10
108.8905944769
 20
274.6923355844
 40
0.1000000538
100
AcDbArc
 50
89.9911779555
 51
209.9939319871
  0
ARC
  5
47A
100
AcDbEntity
  8
0
100
AcDbCircle
 62
7
  6
BYLAYER
 10
38.8905944769
 20
274.6923355844
 40
0.1000000538
100
AcDbArc
 50
89.9911779564
 51
209.9939319871
  0
ARC
  5
47B
100
AcDbEntity
  8
0
100
AcDbCircle
 62
7
  6
BYLAYER
 10
95.5141849611
 20
274.6923355844
 40
0.1000000538
100
AcDbArc
 50
330.0059385371
 51
90.0089720092
  0
ARC
  5
47C
100
AcDbEntity
  8
0
100
AcDbCircle
 62
7
  6
BYLAYER
 10
128.3605944797
 20
274.692335586
 40
0.1000000522
100
AcDbArc
 50
89.9911783403
 51
209.9939335694
  0
ARC
  5
47D
100
AcDbEntity
  8
0
100
AcDbCircle
 62
7
  6
BYLAYER
 10
58.3605944797
 20
274.692335586
 40
0.1000000522
100
AcDbArc
 50
89.9911783351
 51
209.9939335755
  0
ARC
  5
47E
100
AcDbEntity
  8
0
100
AcDbCircle
 62
7
  6
BYLAYER
 10
76.0441849583
 20
274.692335586
 40
0.1000000522
100
AcDbArc
 50
330.0059369495
 51
90.0089716302
  0
ARC
  5
47F
100
AcDbEntity
  8
0
100
AcDbCircle
 62
7
  6
BYLAYER
 10
128.7070052977
 20
273.6923376168
 40
0.1000000148
100
AcDbArc
 50
269.9909213455
 51
29.9941564906
  0
ARC
  5
480
100
AcDbEntity
  8
0
100
AcDbCircle
 62
7
  6
BYLAYER
 10
130.5141849748
 20
274.6923355937
 40
0.1000000146
100
AcDbArc
 50
330.0058845579
 51
90.0090313192
  0
ARC
  5
481
100
AcDbEntity
  8
0
100
AcDbCircle
 62
7
  6
BYLAYER
 10
111.0441849743
 20
274.692335594
 40
0.1000000143
100
AcDbArc
 50
330.0058842739
 51
90.0090317579
  0
ARC
  5
482
100
AcDbEntity
  8
0
100
AcDbCircle
 62
7
  6
BYLAYER
 10
58.7070052977
 20
273.6923376168
 40
0.1000000147
100
AcDbArc
 50
269.9909213185
 51
29.9941565144
  0
ARC
  5
483
100
AcDbEntity
  8
0
100
AcDbCircle
 62
7
  6
BYLAYER
 10
60.5141849748
 20
274.6923355937
 40
0.1000000146
100
AcDbArc
 50
330.0058845579
 51
90.0090313191
  0
ARC
  5
484
100
AcDbEntity
  8
0
100
AcDbCircle
 62
7
  6
BYLAYER
 10
75.6977741404
 20
273.6923376168
 40
0.1000000148
100
AcDbArc
 50
150.006011196
 51
270.008872216
  0
ARC
  5
485
100
AcDbEntity
  8
0
100
AcDbCircle
 62
7
  6
BYLAYER
 10
41.0441849743
 20
274.692335594
 40
0.1000000143
100
AcDbArc
 50
330.0058842608
 51
90.0090317728
  0
ARC
  5
486
100
AcDbEntity
  8
0
100
AcDbCircle
 62
7
  6
BYLAYER
 10
73.8905944632
 20
274.6923355937
 40
0.1000000146
100
AcDbArc
 50
89.9911278137
 51
209.9939889991
  0
ARC
  5
487
100
AcDbEntity
  8
0
100
AcDbCircle
 62
7
  6
BYLAYER
 10
93.3605944637
 20
274.692335594
 40
0.1000000143
100
AcDbArc
 50
89.9911273663
 51
209.9939892911
  0
ARC
  5
488
100
AcDbEntity
  8
0
100
AcDbCircle
 62
7
  6
BYLAYER
 10
109.2370052948
 20
273.6923376152
 40
0.1000000131
100
AcDbArc
 50
269.9909214016
 51
29.9941580957
  0
ARC
  5
489
100
AcDbEntity
  8
0
100
AcDbCircle
 62
7
  6
BYLAYER
 10
39.2370052948
 20
273.6923376152
 40
0.1000000131
100
AcDbArc
 50
269.9909213555
 51
29.9941581392
  0
ARC
  5
48A
100
AcDbEntity
  8
0
100
AcDbCircle
 62
7
  6
BYLAYER
 10
95.1677741431
 20
273.6923376152
 40
0.1000000131
100
AcDbArc
 50
150.0060095364
 51
270.0088722118
  0
ARC
  5
48B
100
AcDbEntity
  8
0
100
AcDbCircle
 62
7
  6
BYLAYER
 10
212.4023913328
 20
179.2576633948
 40
5.0
100
AcDbArc
 50
0.0
 51
180.0
  0
ARC
  5
48C
100
AcDbEntity
  8
0
100
AcDbCircle
 62
7
  6
BYLAYER
 10
212.4023913328
 20
177.2576633948
 40
5.0
100
AcDbArc
 50
180.0
 51
360.0
  0
ARC
  5
48D
100
AcDbEntity
  8
0
100
AcDbCircle
 62
7
  6
BYLAYER
 10
247.4023881052
 20
179.2576633948
 40
5.0
100
AcDbArc
 50
0.0
 51
180.0
  0
ARC
  5
48E
100
AcDbEntity
  8
0
100
AcDbCircle
 62
7
  6
BYLAYER
 10
247.4023881052
 20
177.2576633948
 40
5.0
100
AcDbArc
 50
180.0
 51
360.0
  0
ARC
  5
48F
100
AcDbEntity
  8
0
100
AcDbCircle
 62
7
  6
BYLAYER
 10
177.4023881052
 20
179.2576633948
 40
5.0
100
AcDbArc
 50
0.0
 51
180.0
  0
ARC
  5
490
100
AcDbEntity
  8
0
100
AcDbCircle
 62
7
  6
BYLAYER
 10
177.4023881052
 20
177.2576633948
 40
5.0
100
AcDbArc
 50
180.0
 51
360.0
  0
ARC
  5
491
100
AcDbEntity
  8
0
100
AcDbCircle
 62
7
  6
BYLAYER
 10
206.4023908609
 20
185.5576634709
 40
3.0
100
AcDbArc
 50
90.0000076291
 51
180.0000800613
  0
ARC
  5
492
100
AcDbEntity
  8
0
100
AcDbCircle
 62
7
  6
BYLAYER
 10
218.4023912871
 20
185.5576634709
 40
3.0
100
AcDbArc
 50
0.0585202789
 51
90.058767002
  0
ARC
  5
493
100
AcDbEntity
  8
0
100
AcDbCircle
 62
7
  6
BYLAYER
 10
253.4023885772
 20
185.5576634709
 40
3.0
100
AcDbArc
 50
359.9999199407
 51
89.9999923715
  0
ARC
  5
494
100
AcDbEntity
  8
0
100
AcDbCircle
 62
7
  6
BYLAYER
 10
241.4023881509
 20
185.5576634709
 40
3.0
100
AcDbArc
 50
89.9412329748
 51
179.9414797134
  0
ARC
  5
495
100
AcDbEntity
  8
0
100
AcDbCircle
 62
7
  6
BYLAYER
 10
183.4023885772
 20
185.5576634709
 40
3.0
100
AcDbArc
 50
359.9999199407
 51
89.9999923715
  0
ARC
  5
496
100
AcDbEntity
  8
0
100
AcDbCircle
 62
7
  6
BYLAYER
 10
171.4023881509
 20
185.5576634709
 40
3.0
100
AcDbArc
 50
89.9412329748
 51
179.9414797134
  0
ARC
  5
497
100
AcDbEntity
  8
0
100
AcDbCircle
 62
7
  6
BYLAYER
 10
256.4070052649
 20
133.3576623655
 40
0.1000000928
100
AcDbArc
 50
330.0061245277
 51
90.008766016
  0
ARC
  5
498
100
AcDbEntity
  8
0
100
AcDbCircle
 62
7
  6
BYLAYER
 10
236.9370052644
 20
133.3576623658
 40
0.1000000925
100
AcDbArc
 50
330.0061244475
 51
90.0087659811
  0
ARC
  5
499
100
AcDbEntity
  8
0
100
AcDbCircle
 62
7
  6
BYLAYER
 10
222.8677741736
 20
133.3576623658
 40
0.1000000925
100
AcDbArc
 50
89.9909898512
 51
209.9940991845
  0
ARC
  5
49A
100
AcDbEntity
  8
0
100
AcDbCircle
 62
7
  6
BYLAYER
 10
203.3977741731
 20
133.3576623655
 40
0.1000000928
100
AcDbArc
 50
89.9909898509
 51
209.9940989319
  0
ARC
  5
49B
100
AcDbEntity
  8
0
100
AcDbCircle
 62
7
  6
BYLAYER
 10
186.4070052649
 20
133.3576623655
 40
0.1000000928
100
AcDbArc
 50
330.0061245376
 51
90.0087660061
  0
ARC
  5
49C
100
AcDbEntity
  8
0
100
AcDbCircle
 62
7
  6
BYLAYER
 10
166.9370052644
 20
133.3576623658
 40
0.1000000925
100
AcDbArc
 50
330.0061244304
 51
90.0087659982
  0
ARC
  5
49D
100
AcDbEntity
  8
0
100
AcDbCircle
 62
7
  6
BYLAYER
 10
258.2141849611
 20
132.3576644156
 40
0.1000000538
100
AcDbArc
 50
269.9912202861
 51
29.9938787486
  0
ARC
  5
49E
100
AcDbEntity
  8
0
100
AcDbCircle
 62
7
  6
BYLAYER
 10
201.5905944768
 20
132.3576644155
 40
0.1000000537
100
AcDbArc
 50
150.005940883
 51
270.0089742642
  0
ARC
  5
49F
100
AcDbEntity
  8
0
100
AcDbCircle
 62
7
  6
BYLAYER
 10
188.2141849611
 20
132.3576644156
 40
0.1000000538
100
AcDbArc
 50
269.9912202882
 51
29.9938787466
  0
ARC
  5
4A0
100
AcDbEntity
  8
0
100
AcDbCircle
 62
7
  6
BYLAYER
 10
238.7441849583
 20
132.3576644139
 40
0.1000000521
100
AcDbArc
 50
269.9912206236
 51
29.9938804344
  0
ARC
  5
4A1
100
AcDbEntity
  8
0
100
AcDbCircle
 62
7
  6
BYLAYER
 10
221.0605944796
 20
132.3576644139
 40
0.1000000521
100
AcDbArc
 50
150.005939375
 51
270.0089738954
  0
ARC
  5
4A2
100
AcDbEntity
  8
0
100
AcDbCircle
 62
7
  6
BYLAYER
 10
168.7441849583
 20
132.3576644139
 40
0.1000000521
100
AcDbArc
 50
269.9912206249
 51
29.9938804331
  0
ARC
  5
4A3
100
AcDbEntity
  8
0
100
AcDbCircle
 62
7
  6
BYLAYER
 10
256.0605944637
 20
132.3576644059
 40
0.1000000142
100
AcDbArc
 50
150.0058449741
 51
270.0090813273
  0
ARC
  5
4A4
100
AcDbEntity
  8
0
100
AcDbCircle
 62
7
  6
BYLAYER
 10
236.5905944632
 20
132.3576644062
 40
0.1000000145
100
AcDbArc
 50
150.0058453038
 51
270.0090808323
  0
ARC
  5
4A5
100
AcDbEntity
  8
0
100
AcDbCircle
 62
7
  6
BYLAYER
 10
238.3977741403
 20
133.3576623832
 40
0.1000000147
100
AcDbArc
 50
89.9909237213
 51
209.9941583992
  0
ARC
  5
4A6
100
AcDbEntity
  8
0
100
AcDbCircle
 62
7
  6
BYLAYER
 10
221.4070052977
 20
133.3576623832
 40
0.1000000147
100
AcDbArc
 50
330.0060559198
 51
90.0088289864
  0
ARC
  5
4A7
100
AcDbEntity
  8
0
100
AcDbCircle
 62
7
  6
BYLAYER
 10
223.2141849748
 20
132.3576644062
 40
0.1000000145
100
AcDbArc
 50
269.9911256339
 51
29.9939869824
  0
ARC
  5
4A8
100
AcDbEntity
  8
0
100
AcDbCircle
 62
7
  6
BYLAYER
 10
203.7441849743
 20
132.357664406
 40
0.1000000143
100
AcDbArc
 50
269.9911251577
 51
29.9939872315
  0
ARC
  5
4A9
100
AcDbEntity
  8
0
100
AcDbCircle
 62
7
  6
BYLAYER
 10
186.0605944637
 20
132.3576644059
 40
0.1000000143
100
AcDbArc
 50
150.0058450307
 51
270.0090812639
  0
ARC
  5
4AA
100
AcDbEntity
  8
0
100
AcDbCircle
 62
7
  6
BYLAYER
 10
166.5905944632
 20
132.3576644062
 40
0.1000000145
100
AcDbArc
 50
150.0058453021
 51
270.0090808344
  0
ARC
  5
4AB
100
AcDbEntity
  8
0
100
AcDbCircle
 62
7
  6
BYLAYER
 10
168.3977741403
 20
133.3576623832
 40
0.1000000147
100
AcDbArc
 50
89.9909237748
 51
209.9941583525
  0
ARC
  5
4AC
100
AcDbEntity
  8
0
100
AcDbCircle
 62
7
  6
BYLAYER
 10
257.8677741431
 20
133.3576623848
 40
0.1000000131
100
AcDbArc
 50
89.9909238309
 51
209.9941599719
  0
ARC
  5
4AD
100
AcDbEntity
  8
0
100
AcDbCircle
 62
7
  6
BYLAYER
 10
201.9370052948
 20
133.3576623848
 40
0.1000000131
100
AcDbArc
 50
330.006054361
 51
90.0088289099
  0
ARC
  5
4AE
100
AcDbEntity
  8
0
100
AcDbCircle
 62
7
  6
BYLAYER
 10
187.8677741431
 20
133.3576623848
 40
0.1000000131
100
AcDbArc
 50
89.990923861
 51
209.9941599456
  0
ARC
  5
4AF
100
AcDbEntity
  8
0
100
AcDbCircle
 62
7
  6
BYLAYER
 10
247.4023881052
 20
227.7923366052
 40
5.0
100
AcDbArc
 50
180.0
 51
360.0
  0
ARC
  5
4B0
100
AcDbEntity
  8
0
100
AcDbCircle
 62
7
  6
BYLAYER
 10
247.4023881052
 20
229.7923366052
 40
5.0
100
AcDbArc
 50
0.0
 51
180.0
  0
ARC
  5
4B1
100
AcDbEntity
  8
0
100
AcDbCircle
 62
7
  6
BYLAYER
 10
177.4023881052
 20
227.7923366052
 40
5.0
100
AcDbArc
 50
180.0
 51
360.0
  0
ARC
  5
4B2
100
AcDbEntity
  8
0
100
AcDbCircle
 62
7
  6
BYLAYER
 10
177.4023881052
 20
229.7923366052
 40
5.0
100
AcDbArc
 50
0.0
 51
180.0
  0
ARC
  5
4B3
100
AcDbEntity
  8
0
100
AcDbCircle
 62
7
  6
BYLAYER
 10
212.4023913328
 20
227.7923366052
 40
5.0
100
AcDbArc
 50
180.0
 51
360.0
  0
ARC
  5
4B4
100
AcDbEntity
  8
0
100
AcDbCircle
 62
7
  6
BYLAYER
 10
212.4023913328
 20
229.7923366052
 40
5.0
100
AcDbArc
 50
0.0
 51
180.0
  0
ARC
  5
4B5
100
AcDbEntity
  8
0
100
AcDbCircle
 62
7
  6
BYLAYER
 10
253.4023885772
 20
221.4923365291
 40
3.0
100
AcDbArc
 50
270.0000076291
 51
0.0000800493
  0
ARC
  5
4B6
100
AcDbEntity
  8
0
100
AcDbCircle
 62
7
  6
BYLAYER
 10
241.4023881509
 20
221.4923365291
 40
3.0
100
AcDbArc
 50
180.0585202804
 51
270.058767002
  0
ARC
  5
4B7
100
AcDbEntity
  8
0
100
AcDbCircle
 62
7
  6
BYLAYER
 10
183.4023885772
 20
221.4923365291
 40
3.0
100
AcDbArc
 50
270.0000076291
 51
0.0000800493
  0
ARC
  5
4B8
100
AcDbEntity
  8
0
100
AcDbCircle
 62
7
  6
BYLAYER
 10
171.4023881509
 20
221.4923365291
 40
3.0
100
AcDbArc
 50
180.0585202788
 51
270.058767002
  0
ARC
  5
4B9
100
AcDbEntity
  8
0
100
AcDbCircle
 62
7
  6
BYLAYER
 10
206.4023908609
 20
221.4923365291
 40
3.0
100
AcDbArc
 50
179.9999199286
 51
269.9999923715
  0
ARC
  5
4BA
100
AcDbEntity
  8
0
100
AcDbCircle
 62
7
  6
BYLAYER
 10
218.4023912871
 20
221.4923365291
 40
3.0
100
AcDbArc
 50
269.9412329748
 51
359.9414797134
  0
ARC
  5
4BB
100
AcDbEntity
  8
0
100
AcDbCircle
 62
7
  6
BYLAYER
 10
166.9370052644
 20
273.6923376342
 40
0.1000000925
100
AcDbArc
 50
269.9910382737
 51
29.9940524804
  0
ARC
  5
4BC
100
AcDbEntity
  8
0
100
AcDbCircle
 62
7
  6
BYLAYER
 10
186.4070052649
 20
273.6923376345
 40
0.1000000928
100
AcDbArc
 50
269.9910382796
 51
29.9940523527
  0
ARC
  5
4BD
100
AcDbEntity
  8
0
100
AcDbCircle
 62
7
  6
BYLAYER
 10
203.3977741732
 20
273.6923376345
 40
0.1000000928
100
AcDbArc
 50
150.0061272037
 51
270.0087678869
  0
ARC
  5
4BE
100
AcDbEntity
  8
0
100
AcDbCircle
 62
7
  6
BYLAYER
 10
222.8677741736
 20
273.6923376342
 40
0.1000000925
100
AcDbArc
 50
150.0061269431
 51
270.0087679121
  0
ARC
  5
4BF
100
AcDbEntity
  8
0
100
AcDbCircle
 62
7
  6
BYLAYER
 10
236.9370052644
 20
273.6923376342
 40
0.1000000925
100
AcDbArc
 50
269.9910382604
 51
29.9940524937
  0
ARC
  5
4C0
100
AcDbEntity
  8
0
100
AcDbCircle
 62
7
  6
BYLAYER
 10
256.4070052648
 20
273.6923376345
 40
0.1000000928
100
AcDbArc
 50
269.9910382879
 51
29.9940523444
  0
ARC
  5
4C1
100
AcDbEntity
  8
0
100
AcDbCircle
 62
7
  6
BYLAYER
 10
188.2141849611
 20
274.6923355844
 40
0.1000000538
100
AcDbArc
 50
330.0059385424
 51
90.00897199
  0
ARC
  5
4C2
100
AcDbEntity
  8
0
100
AcDbCircle
 62
7
  6
BYLAYER
 10
201.5905944768
 20
274.6923355844
 40
0.1000000537
100
AcDbArc
 50
89.991177944
 51
209.9939320299
  0
ARC
  5
4C3
100
AcDbEntity
  8
0
100
AcDbCircle
 62
7
  6
BYLAYER
 10
258.2141849611
 20
274.6923355844
 40
0.1000000538
100
AcDbArc
 50
330.0059385408
 51
90.0089719915
  0
ARC
  5
4C4
100
AcDbEntity
  8
0
100
AcDbCircle
 62
7
  6
BYLAYER
 10
168.7441849583
 20
274.692335586
 40
0.1000000521
100
AcDbArc
 50
330.0059368931
 51
90.0089716321
  0
ARC
  5
4C5
100
AcDbEntity
  8
0
100
AcDbCircle
 62
7
  6
BYLAYER
 10
221.0605944797
 20
274.692335586
 40
0.1000000521
100
AcDbArc
 50
89.9911783078
 51
209.9939335188
  0
ARC
  5
4C6
100
AcDbEntity
  8
0
100
AcDbCircle
 62
7
  6
BYLAYER
 10
238.7441849583
 20
274.692335586
 40
0.1000000521
100
AcDbArc
 50
330.0059368927
 51
90.0089716323
  0
ARC
  5
4C7
100
AcDbEntity
  8
0
100
AcDbCircle
 62
7
  6
BYLAYER
 10
168.3977741403
 20
273.6923376168
 40
0.1000000147
100
AcDbArc
 50
150.006011236
 51
270.0088721961
  0
ARC
  5
4C8
100
AcDbEntity
  8
0
100
AcDbCircle
 62
7
  6
BYLAYER
 10
166.5905944632
 20
274.6923355938
 40
0.1000000145
100
AcDbArc
 50
89.9911277485
 51
209.9939890654
  0
ARC
  5
4C9
100
AcDbEntity
  8
0
100
AcDbCircle
 62
7
  6
BYLAYER
 10
221.4070052977
 20
273.6923376168
 40
0.1000000147
100
AcDbArc
 50
269.9909213002
 51
29.994156557
  0
ARC
  5
4CA
100
AcDbEntity
  8
0
100
AcDbCircle
 62
7
  6
BYLAYER
 10
238.3977741403
 20
273.6923376168
 40
0.1000000147
100
AcDbArc
 50
150.0060111804
 51
270.0088722448
  0
ARC
  5
4CB
100
AcDbEntity
  8
0
100
AcDbCircle
 62
7
  6
BYLAYER
 10
186.0605944637
 20
274.6923355941
 40
0.1000000143
100
AcDbArc
 50
89.9911273155
 51
209.9939893714
  0
ARC
  5
4CC
100
AcDbEntity
  8
0
100
AcDbCircle
 62
7
  6
BYLAYER
 10
203.7441849743
 20
274.692335594
 40
0.1000000143
100
AcDbArc
 50
330.0058842949
 51
90.0090317802
  0
ARC
  5
4CD
100
AcDbEntity
  8
0
100
AcDbCircle
 62
7
  6
BYLAYER
 10
223.2141849748
 20
274.6923355938
 40
0.1000000146
100
AcDbArc
 50
330.0058845526
 51
90.0090313238
  0
ARC
  5
4CE
100
AcDbEntity
  8
0
100
AcDbCircle
 62
7
  6
BYLAYER
 10
236.5905944632
 20
274.6923355937
 40
0.1000000146
100
AcDbArc
 50
89.9911277752
 51
209.9939890387
  0
ARC
  5
4CF
100
AcDbEntity
  8
0
100
AcDbCircle
 62
7
  6
BYLAYER
 10
256.0605944637
 20
274.6923355941
 40
0.1000000143
100
AcDbArc
 50
89.9911273183
 51
209.9939893687
  0
ARC
  5
4D0
100
AcDbEntity
  8
0
100
AcDbCircle
 62
7
  6
BYLAYER
 10
187.8677741432
 20
273.6923376152
 40
0.1000000131
100
AcDbArc
 50
150.006009596
 51
270.0088721508
  0
ARC
  5
4D1
100
AcDbEntity
  8
0
100
AcDbCircle
 62
7
  6
BYLAYER
 10
201.9370052948
 20
273.6923376152
 40
0.1000000131
100
AcDbArc
 50
269.9909214374
 51
29.9941580694
  0
ARC
  5
4D2
100
AcDbEntity
  8
0
100
AcDbCircle
 62
7
  6
BYLAYER
 10
257.8677741432
 20
273.6923376152
 40
0.1000000132
100
AcDbArc
 50
150.0060096009
 51
270.008872146
  0
ENDSEC
  0
SECTION
  2
OBJECTS
  0
DICTIONARY
  5
C
100
AcDbDictionary
280
0
281
1
  3
ACAD_GROUP
350
D
  3
ACAD_MLINESTYLE
350
17
  3
ACAD_LAYOUT
350
1A
  3
ACAD_PLOTSETTINGS
350
19
  3
ACAD_PLOTSTYLENAME
350
E
  0
DICTIONARY
  5
D
102
{ACAD_REACTORS
330
C
102
}
100
AcDbDictionary
280
0
281
1
  0
ACDBDICTIONARYWDFLT
  5
E
102
{ACAD_REACTORS
330
C
102
}
100
AcDbDictionary
281
1
  3
Normal
350
F
100
AcDbDictionaryWithDefault
340
F
  0
DICTIONARY
  5
17
102
{ACAD_REACTORS
330
C
102
}
100
AcDbDictionary
280
0
281
1
  3
Standard
350
18
  0
DICTIONARY
  5
19
102
{ACAD_REACTORS
330
C
102
}
100
AcDbDictionary
281
1
  0
DICTIONARY
  5
1A
102
{ACAD_REACTORS
330
C
102
}
100
AcDbDictionary
281
1
  3
Model
350
4D3
  3
Layout1
350
4D4
  0
ACDBPLACEHOLDER
  5
F
102
{ACAD_REACTORS
330
E
102
}
  0
MLINESTYLE
  5
18
102
{ACAD_REACTORS
330
17
102
}
100
AcDbMlineStyle
  2
STANDARD
 70
0
  3

 62
256
 51
90.0
 52
90.0
 71
2
 49
0.5
 62
256
  6
BYLAYER
 49
-0.5
 62
256
  6
BYLAYER
  0
LAYOUT
  5
4D3
102
{ACAD_REACTORS
330
1A
102
}
100
AcDbPlotSettings
  1

  2
none_device
  4

  6

 40
0.0
 41
0.0
 42
0.0
 43
0.0
 44
210.0
 45
297.0
 46
0.0
 47
0.0
 48
0.0
 49
0.0
140
0.0
141
0.0
142
1.0
143
1.0
 70
1024
 72
1
 73
0
 74
0
  7

 75
0
147
1.0
148
0.0
149
0.0
100
AcDbLayout
  1
Model
 70
0
 71
0
 10
0.0
 20
0.0
 11
210.0
 21
297.0
 12
0.0
 22
0.0
 32
0.0
 14
0.0
 24
0.0
 34
0.0
 15
0.0
 25
0.0
 35
0.0
146
0.0
 13
0.0
 23
0.0
 33
0.0
 16
1.0
 26
0.0
 36
0.0
 17
0.0
 27
1.0
 37
0.0
 76
0
330
210
345
0
346
0
  0
LAYOUT
  5
4D4
102
{ACAD_REACTORS
330
1A
102
}
100
AcDbPlotSettings
  1

  2
none_device
  4

  6

 40
0.0
 41
0.0
 42
0.0
 43
0.0
 44
210.0
 45
297.0
 46
0.0
 47
0.0
 48
0.0
 49
0.0
140
0.0
141
0.0
142
1.0
143
1.0
 70
0
 72
1
 73
0
 74
0
  7

 75
0
147
1.0
148
0.0
149
0.0
100
AcDbLayout
  1
Layout1
 70
0
 71
1
 10
0.0
 20
0.0
 11
210.0
 21
297.0
 12
0.0
 22
0.0
 32
0.0
 14
0.0
 24
0.0
 34
0.0
 15
0.0
 25
0.0
 35
0.0
146
0.0
 13
0.0
 23
0.0
 33
0.0
 16
1.0
 26
0.0
 36
0.0
 17
0.0
 27
1.0
 37
0.0
 76
0
330
211
345
0
346
0
  0
ENDSEC
  0
EOF
