999
DXF file: C:\Users\sesa63760\Dev\_Creo\CAD\MCADPD0003950_3D-CAD\drw0001_3.dxf
999
Pro/ENGINEER 2019471 by Parametric Technology Corporation
  0
SECTION
  2
HEADER
  9
$ACADVER
  1
AC1024
  9
$DWGCODEPAGE
  3
ANSI_1252
  9
$EXTMAX
 10
460.1189134231
 20
650.7396061269
 30
0.0
  9
$EXTMIN
 10
0.0
 20
0.0
 30
0.0
  9
$LIMMIN
 10
0.0
 20
0.0
  9
$LIMMAX
 10
460.1189134231
 20
650.7396061269
  9
$VIEWCTR
 10
230.0594567115
 20
325.3698030634
  9
$VIEWSIZE
 40
650.7396061269
  9
$CLAYER
  8
0
  9
$LTSCALE
 40
42.4185817327
  9
$CELTYPE
  6
BYLAYER
  9
$DIMSCALE
 40
1.0
  9
$DIMASZ
 40
5.4776061122
  9
$DIMEXO
 40
1.0
  9
$DIMDLI
 40
29.3073837426
  9
$DIMEXE
 40
1.0
  9
$DIMCEN
 40
6.9412224654
  9
$DIMLFAC
 40
1.0
  9
$DIMBLK
  1
_FILLED
  9
$DIMALT
 70
0
  9
$DIMALTF
 40
0.0393700787
  9
$DIMTXT
 40
7.6686485571
  9
$DIMTOL
 70
1
  9
$DIMLIM
 70
0
  9
$DIMTFAC
 40
1.0
  9
$DIMTP
 40
0.01
  9
$DIMTM
 40
0.01
  9
$DIMGAP
 40
0.625
  9
$DIMDSEP
 70
46
  9
$AUNITS
 70
0
  9
$PDMODE
 70
3
  9
$PDSIZE
 40
0.3125
  9
$HANDSEED
  5
3AC
  9
$TILEMODE
 70
1
  9
$MEASUREMENT
 70
1
  9
$INSUNITS
 70
4
  0
ENDSEC
  0
SECTION
  2
CLASSES
  0
CLASS
  1
ACDBDICTIONARYWDFLT
  2
AcDbDictionaryWithDefault
  3
AutoCAD 2000
 90
0
 91
1
280
0
281
0
  0
CLASS
  1
ACDBPLACEHOLDER
  2
AcDbPlaceHolder
  3
AutoCAD 2000
 90
0
 91
1
280
0
281
0
  0
CLASS
  1
LAYOUT
  2
AcDbLayout
  3
AutoCAD 2000
 90
0
 91
0
280
0
281
0
  0
ENDSEC
  0
SECTION
  2
TABLES
  0
TABLE
  2
VPORT
  5
8
100
AcDbSymbolTable
 70
2
  0
VPORT
  5
1F4
100
AcDbSymbolTableRecord
100
AcDbViewportTableRecord
  2
*ACTIVE
 70
0
 10
0.0
 20
0.0
 11
1.0
 21
1.0
 12
230.0594567115
 22
325.3698030634
 13
0.0
 23
0.0
 14
1.0
 24
1.0
 15
0.0
 25
0.0
 16
0.0
 26
0.0
 36
1.0
 17
0.0
 27
0.0
 37
0.0
 40
650.7396061269
 41
0.7070707071
 42
50.0
 43
0.0
 44
0.0
 50
0.0
 51
0.0
 71
0
 72
100
 73
1
 74
1
 75
0
 76
0
 77
0
 78
0
  0
ENDTAB
  0
TABLE
  2
LTYPE
  5
5
100
AcDbSymbolTable
 70
6
  0
LTYPE
  5
14
100
AcDbSymbolTableRecord
100
AcDbLinetypeTableRecord
  2
BYBLOCK
 70
0
  3

 72
65
 73
0
 40
0.0
  0
LTYPE
  5
15
100
AcDbSymbolTableRecord
100
AcDbLinetypeTableRecord
  2
BYLAYER
 70
0
  3

 72
65
 73
0
 40
0.0
  0
LTYPE
  5
16
100
AcDbSymbolTableRecord
100
AcDbLinetypeTableRecord
  2
CONTINUOUS
 70
64
  3
Solid line
 72
65
 73
0
 40
0.0
  0
LTYPE
  5
1F5
100
AcDbSymbolTableRecord
100
AcDbLinetypeTableRecord
  2
CENTER
 70
64
  3
____ _ ____ _ ____ _ ____ _ ____ _ ____ _ ____
 72
65
 73
4
 40
0.6
 49
0.375
 74
0
 49
-0.075
 74
0
 49
0.075
 74
0
 49
-0.075
 74
0
  0
LTYPE
  5
1F6
100
AcDbSymbolTableRecord
100
AcDbLinetypeTableRecord
  2
HIDDEN
 70
64
  3
- - - - - - - - - - - - - - - - - - - -
 72
65
 73
2
 40
0.2
 49
0.1
 74
0
 49
-0.1
 74
0
  0
LTYPE
  5
1F7
100
AcDbSymbolTableRecord
100
AcDbLinetypeTableRecord
  2
PHANTOM
 70
64
  3
_____ _ _ _____ _ _ _____ _ _ _____
 72
65
 73
6
 40
0.8
 49
0.45
 74
0
 49
-0.05
 74
0
 49
0.1
 74
0
 49
-0.05
 74
0
 49
0.1
 74
0
 49
-0.05
 74
0
  0
LTYPE
  5
1F8
100
AcDbSymbolTableRecord
100
AcDbLinetypeTableRecord
  2
DOT
 70
64
  3
. . . . . . . . . . . . . . . . . . . .
 72
65
 73
2
 40
0.2
 49
0.1
 74
0
 49
-0.1
 74
0
  0
LTYPE
  5
1F9
100
AcDbSymbolTableRecord
100
AcDbLinetypeTableRecord
  2
DASHED
 70
64
  3
- - - - - - - - - - - - - - - - - - - -
 72
65
 73
2
 40
0.2
 49
0.1
 74
0
 49
-0.1
 74
0
  0
ENDTAB
  0
TABLE
  2
LAYER
  5
2
100
AcDbSymbolTable
 70
36
  0
LAYER
  5
10
100
AcDbSymbolTableRecord
100
AcDbLayerTableRecord
  2
0
 70
0
 62
7
  6
CONTINUOUS
370
-3
390
F
  0
LAYER
  5
1FA
100
AcDbSymbolTableRecord
100
AcDbLayerTableRecord
  2
DEFAULT_1
 70
0
 62
7
  6
CENTER
370
-3
390
F
  0
LAYER
  5
1FB
100
AcDbSymbolTableRecord
100
AcDbLayerTableRecord
  2
DEFAULT_2
 70
0
 62
7
  6
HIDDEN
370
-3
390
F
  0
LAYER
  5
1FC
100
AcDbSymbolTableRecord
100
AcDbLayerTableRecord
  2
DEFAULT_3
 70
0
 62
7
  6
PHANTOM
370
-3
390
F
  0
LAYER
  5
1FD
100
AcDbSymbolTableRecord
100
AcDbLayerTableRecord
  2
00_COMPONENTS
 70
0
 62
7
  6
CONTINUOUS
370
-3
390
F
  0
LAYER
  5
1FE
100
AcDbSymbolTableRecord
100
AcDbLayerTableRecord
  2
01_1_DEFAULT_DATUMS
 70
0
 62
7
  6
CONTINUOUS
370
-3
390
F
  0
LAYER
  5
1FF
100
AcDbSymbolTableRecord
100
AcDbLayerTableRecord
  2
01_PLANES
 70
0
 62
7
  6
CONTINUOUS
370
-3
390
F
  0
LAYER
  5
200
100
AcDbSymbolTableRecord
100
AcDbLayerTableRecord
  2
02_COORD_SYS
 70
0
 62
7
  6
CONTINUOUS
370
-3
390
F
  0
LAYER
  5
201
100
AcDbSymbolTableRecord
100
AcDbLayerTableRecord
  2
03_AXES
 70
0
 62
7
  6
CONTINUOUS
370
-3
390
F
  0
LAYER
  5
202
100
AcDbSymbolTableRecord
100
AcDbLayerTableRecord
  2
04_POINTS
 70
0
 62
7
  6
CONTINUOUS
370
-3
390
F
  0
LAYER
  5
203
100
AcDbSymbolTableRecord
100
AcDbLayerTableRecord
  2
05_CURVES
 70
0
 62
7
  6
CONTINUOUS
370
-3
390
F
  0
LAYER
  5
204
100
AcDbSymbolTableRecord
100
AcDbLayerTableRecord
  2
06_SURFS
 70
0
 62
7
  6
CONTINUOUS
370
-3
390
F
  0
LAYER
  5
205
100
AcDbSymbolTableRecord
100
AcDbLayerTableRecord
  2
07_COSMETICS
 70
0
 62
7
  6
CONTINUOUS
370
-3
390
F
  0
LAYER
  5
206
100
AcDbSymbolTableRecord
100
AcDbLayerTableRecord
  2
10_NOTES
 70
0
 62
7
  6
CONTINUOUS
370
-3
390
F
  0
LAYER
  5
207
100
AcDbSymbolTableRecord
100
AcDbLayerTableRecord
  2
11_NOTES_PUB
 70
0
 62
7
  6
CONTINUOUS
370
-3
390
F
  0
LAYER
  5
208
100
AcDbSymbolTableRecord
100
AcDbLayerTableRecord
  2
13_REF_GTOL
 70
0
 62
7
  6
CONTINUOUS
370
-3
390
F
  0
LAYER
  5
209
100
AcDbSymbolTableRecord
100
AcDbLayerTableRecord
  2
16_MISC
 70
0
 62
7
  6
CONTINUOUS
370
-3
390
F
  0
LAYER
  5
20A
100
AcDbSymbolTableRecord
100
AcDbLayerTableRecord
  2
17_NO_PRINT
 70
0
 62
7
  6
CONTINUOUS
370
-3
390
F
  0
LAYER
  5
20B
100
AcDbSymbolTableRecord
100
AcDbLayerTableRecord
  2
18_DATUM_CAMS_JOINTS
 70
0
 62
7
  6
CONTINUOUS
370
-3
390
F
  0
LAYER
  5
20C
100
AcDbSymbolTableRecord
100
AcDbLayerTableRecord
  2
19_DATUM_FUNCTIONAL
 70
0
 62
7
  6
CONTINUOUS
370
-3
390
F
  0
LAYER
  5
20D
100
AcDbSymbolTableRecord
100
AcDbLayerTableRecord
  2
20_DATUM_KINEMATIC_SCHEME
 70
0
 62
7
  6
CONTINUOUS
370
-3
390
F
  0
ENDTAB
  0
TABLE
  2
STYLE
  5
3
100
AcDbSymbolTable
 70
1
  0
STYLE
  5
11
100
AcDbSymbolTableRecord
100
AcDbTextStyleTableRecord
  2
STANDARD
 70
0
 40
0.0
 41
1.0
 50
0.0
 71
0
 42
0.2
  3
ARIAL.TTF
  4

  0
STYLE
  5
20E
100
AcDbSymbolTableRecord
100
AcDbTextStyleTableRecord
  2
TEXTSTYLE_1
 70
0
 40
0.0
 41
0.8
 50
0.0
 71
0
 42
0.2
  3
gdt
  4

  0
ENDTAB
  0
TABLE
  2
VIEW
  5
6
100
AcDbSymbolTable
 70
0
  0
ENDTAB
  0
TABLE
  2
UCS
  5
7
100
AcDbSymbolTable
 70
0
  0
ENDTAB
  0
TABLE
  2
APPID
  5
9
100
AcDbSymbolTable
 70
1
  0
APPID
  5
20F
100
AcDbSymbolTableRecord
100
AcDbRegAppTableRecord
  2
ACAD
 70
0
  0
ENDTAB
  0
TABLE
  2
BLOCK_RECORD
  5
1
100
AcDbSymbolTable
 70
0
  0
BLOCK_RECORD
  5
210
100
AcDbSymbolTableRecord
100
AcDbBlockTableRecord
  2
*Model_Space
  0
BLOCK_RECORD
  5
211
100
AcDbSymbolTableRecord
100
AcDbBlockTableRecord
  2
*Paper_Space
  0
BLOCK_RECORD
  5
212
100
AcDbSymbolTableRecord
100
AcDbBlockTableRecord
  2
_FILLED
  0
ENDTAB
  0
TABLE
  2
DIMSTYLE
  5
A
100
AcDbSymbolTable
 70
1
100
AcDbDimStyleTable
 71
0
  0
DIMSTYLE
105
213
100
AcDbSymbolTableRecord
100
AcDbDimStyleTableRecord
  2
STANDARD
 70
0
  3

  4

 40
1.0
 41
5.4776061122
 42
1.0
 43
0.38
 44
1.0
 45
0.0
 46
0.0
 47
0.01
 48
0.01
140
7.6686485571
141
0.09
142
0.0
143
25.4
144
1.0
145
0.0
146
1.0
147
0.625
 71
1
 72
0
 73
0
 74
0
 75
0
 76
0
 77
1
 78
8
 79
2
170
0
171
1
172
0
173
0
174
0
175
0
176
0
177
0
178
0
270
2
179
2
271
2
272
2
273
2
274
2
275
0
280
0
281
0
282
0
283
1
284
8
285
0
286
0
287
3
288
0
340
11
278
46
341
212
342
212
343
212
344
212
  0
ENDTAB
  0
ENDSEC
  0
SECTION
  2
BLOCKS
  0
BLOCK
  5
20
100
AcDbEntity
  8
0
100
AcDbBlockBegin
  2
*Model_Space
 70
0
 10
0.0
 20
0.0
 30
0.0
  3
*Model_Space
  1

  0
ENDBLK
  5
21
100
AcDbEntity
  8
0
100
AcDbBlockEnd
  0
BLOCK
  5
1C
100
AcDbEntity
  8
0
100
AcDbBlockBegin
  2
*Paper_Space
 70
0
 10
0.0
 20
0.0
 30
0.0
  3
*Paper_Space
  1

  0
ENDBLK
  5
1D
100
AcDbEntity
  8
0
100
AcDbBlockEnd
  0
BLOCK
  5
214
100
AcDbEntity
  8
0
100
AcDbBlockBegin
  2
_FILLED
 70
64
 10
0.0
 20
0.0
  3
_FILLED
  1

  0
SOLID
  5
215
100
AcDbEntity
  8
0
  6
BYBLOCK
 62
0
100
AcDbTrace
 10
0.0
 20
0.0
 11
-1.0
 21
0.25
 12
-1.0
 22
-0.25
 13
-1.0
 23
-0.25
  0
ENDBLK
  5
216
100
AcDbEntity
  8
0
  6
BYBLOCK
 62
0
100
AcDbBlockEnd
  0
ENDSEC
  0
SECTION
  2
ENTITIES
  0
LINE
  5
217
100
AcDbEntity
  8
0
100
AcDbLine
 62
7
  6
BYLAYER
 10
54.4314479588
 20
201.4508736678
 11
54.4314479588
 21
203.9508736678
  0
LINE
  5
218
100
AcDbEntity
  8
0
100
AcDbLine
 62
7
  6
BYLAYER
 10
54.4314479583
 20
204.4508736677
 11
54.4314479583
 21
214.2508736677
  0
LINE
  5
219
100
AcDbEntity
  8
0
100
AcDbLine
 62
7
  6
BYLAYER
 10
56.4314479588
 20
203.9508736678
 11
56.4314479588
 21
201.4508736678
  0
LINE
  5
21A
100
AcDbEntity
  8
0
100
AcDbLine
 62
7
  6
BYLAYER
 10
58.9314479588
 20
203.9508736678
 11
58.9314479588
 21
201.4508736678
  0
LINE
  5
21B
100
AcDbEntity
  8
0
100
AcDbLine
 62
7
  6
BYLAYER
 10
60.9314479588
 20
201.4508736678
 11
60.9314479588
 21
203.9508736678
  0
LINE
  5
21C
100
AcDbEntity
  8
0
100
AcDbLine
 62
7
  6
BYLAYER
 10
69.9203387325
 20
412.7508736677
 11
69.4912991426
 21
425.0369600176
  0
LINE
  5
21D
100
AcDbEntity
  8
0
100
AcDbLine
 62
7
  6
BYLAYER
 10
69.3715967758
 20
428.4647873178
 11
69.0042481486
 21
438.9842698876
  0
LINE
  5
21E
100
AcDbEntity
  8
0
100
AcDbLine
 62
7
  6
BYLAYER
 10
65.4314479584
 20
204.4508736678
 11
65.4314479585
 21
334.7508736678
  0
LINE
  5
21F
100
AcDbEntity
  8
0
100
AcDbLine
 62
7
  6
BYLAYER
 10
66.4314479586
 20
334.9508736679
 11
66.4314479585
 21
436.7508736677
  0
LINE
  5
220
100
AcDbEntity
  8
0
100
AcDbLine
 62
7
  6
BYLAYER
 10
66.7814479596
 20
444.691066454
 11
66.7814479596
 21
441.6583850435
  0
LINE
  5
221
100
AcDbEntity
  8
0
100
AcDbLine
 62
7
  6
BYLAYER
 10
66.7814479596
 20
441.6295098743
 11
66.7814479595
 21
436.7508736677
  0
LINE
  5
222
100
AcDbEntity
  8
0
100
AcDbLine
 62
7
  6
BYLAYER
 10
69.1314479587
 20
432.750873668
 11
69.1314479587
 21
420.750873668
  0
LINE
  5
223
100
AcDbEntity
  8
0
100
AcDbLine
 62
7
  6
BYLAYER
 10
69.9314479588
 20
203.9508736678
 11
69.9314479588
 21
201.4508736678
  0
LINE
  5
224
100
AcDbEntity
  8
0
100
AcDbLine
 62
7
  6
BYLAYER
 10
71.9314479588
 20
201.4508736678
 11
71.9314479588
 21
203.9508736678
  0
LINE
  5
225
100
AcDbEntity
  8
0
100
AcDbLine
 62
7
  6
BYLAYER
 10
71.9314479585
 20
320.9508736678
 11
71.9314479585
 21
334.7508736678
  0
LINE
  5
226
100
AcDbEntity
  8
0
100
AcDbLine
 62
7
  6
BYLAYER
 10
73.1314479585
 20
317.9508736681
 11
73.1314479587
 21
436.7508736678
  0
LINE
  5
227
100
AcDbEntity
  8
0
100
AcDbLine
 62
7
  6
BYLAYER
 10
73.4314479583
 20
204.4508736678
 11
73.4314479585
 21
298.1508736678
  0
LINE
  5
228
100
AcDbEntity
  8
0
100
AcDbLine
 62
7
  6
BYLAYER
 10
75.4314479585
 20
204.4508736678
 11
75.4314479585
 21
298.1508736678
  0
LINE
  5
229
100
AcDbEntity
  8
0
100
AcDbLine
 62
7
  6
BYLAYER
 10
75.6314479586
 20
385.150873668
 11
75.6314479586
 21
389.350873668
  0
LINE
  5
22A
100
AcDbEntity
  8
0
100
AcDbLine
 62
7
  6
BYLAYER
 10
76.2314479587
 20
385.150873668
 11
76.2314479587
 21
389.350873668
  0
LINE
  5
22B
100
AcDbEntity
  8
0
100
AcDbLine
 62
7
  6
BYLAYER
 10
72.8870770501
 20
412.7508736677
 11
73.1015314857
 21
425.0369600176
  0
LINE
  5
22C
100
AcDbEntity
  8
0
100
AcDbLine
 62
7
  6
BYLAYER
 10
73.4077766672
 20
442.5824159978
 11
73.3059424161
 21
436.7478281203
  0
LINE
  5
22D
100
AcDbEntity
  8
0
100
AcDbLine
 62
7
  6
BYLAYER
 10
77.2314479587
 20
389.350873668
 11
77.2314479587
 21
385.150873668
  0
LINE
  5
22E
100
AcDbEntity
  8
0
100
AcDbLine
 62
7
  6
BYLAYER
 10
78.4314479588
 20
203.9508736678
 11
78.4314479583
 21
317.9508736683
  0
LINE
  5
22F
100
AcDbEntity
  8
0
100
AcDbLine
 62
7
  6
BYLAYER
 10
79.4314479584
 20
317.950873668
 11
79.4314479584
 21
224.3240068658
  0
LINE
  5
230
100
AcDbEntity
  8
0
100
AcDbLine
 62
7
  6
BYLAYER
 10
80.9314479588
 20
201.4508736678
 11
80.9314479588
 21
224.3240068658
  0
LINE
  5
231
100
AcDbEntity
  8
0
100
AcDbLine
 62
7
  6
BYLAYER
 10
84.9314479583
 20
201.4508736679
 11
84.9314479592
 21
262.9953925704
  0
LINE
  5
232
100
AcDbEntity
  8
0
100
AcDbLine
 62
7
  6
BYLAYER
 10
87.9314479592
 20
260.4953925703
 11
87.9314479592
 21
253.4953925703
  0
LINE
  5
233
100
AcDbEntity
  8
0
100
AcDbLine
 62
7
  6
BYLAYER
 10
101.1839992446
 20
407.9508736678
 11
101.1839992447
 21
436.7508736677
  0
LINE
  5
234
100
AcDbEntity
  8
0
100
AcDbLine
 62
7
  6
BYLAYER
 10
54.4314479588
 20
201.4508736678
 11
147.4314479583
 21
201.4508736678
  0
LINE
  5
235
100
AcDbEntity
  8
0
100
AcDbLine
 62
7
  6
BYLAYER
 10
173.4314479583
 20
201.4508736676
 11
241.4314479583
 21
201.4508736677
  0
LINE
  5
236
100
AcDbEntity
  8
0
100
AcDbLine
 62
7
  6
BYLAYER
 10
267.4314479583
 20
201.4508736674
 11
360.4314479588
 21
201.4508736674
  0
LINE
  5
237
100
AcDbEntity
  8
0
100
AcDbLine
 62
7
  6
BYLAYER
 10
360.9314479588
 20
201.4508736674
 11
405.9314479588
 21
201.4508736674
  0
LINE
  5
238
100
AcDbEntity
  8
0
100
AcDbLine
 62
7
  6
BYLAYER
 10
360.4314479588
 20
203.9508736674
 11
336.4314479588
 21
203.9508736674
  0
LINE
  5
239
100
AcDbEntity
  8
0
100
AcDbLine
 62
7
  6
BYLAYER
 10
54.4314479588
 20
203.9508736678
 11
78.4314479588
 21
203.9508736678
  0
LINE
  5
23A
100
AcDbEntity
  8
0
100
AcDbLine
 62
7
  6
BYLAYER
 10
360.9314479588
 20
204.4508736674
 11
348.4314479588
 21
204.4508736674
  0
LINE
  5
23B
100
AcDbEntity
  8
0
100
AcDbLine
 62
7
  6
BYLAYER
 10
54.4314479583
 20
204.4508736677
 11
78.4314479588
 21
204.4508736678
  0
LINE
  5
23C
100
AcDbEntity
  8
0
100
AcDbLine
 62
7
  6
BYLAYER
 10
147.4314479583
 20
204.4508736676
 11
173.4314479583
 21
204.4508736674
  0
LINE
  5
23D
100
AcDbEntity
  8
0
100
AcDbLine
 62
7
  6
BYLAYER
 10
241.4314479583
 20
204.4508736676
 11
267.4314479583
 21
204.4508736674
  0
LINE
  5
23E
100
AcDbEntity
  8
0
100
AcDbLine
 62
7
  6
BYLAYER
 10
405.9314479588
 20
204.4508736675
 11
418.4314479588
 21
204.4508736676
  0
LINE
  5
23F
100
AcDbEntity
  8
0
100
AcDbLine
 62
7
  6
BYLAYER
 10
80.9314479588
 20
208.8598626309
 11
78.4314479588
 21
208.8598626309
  0
LINE
  5
240
100
AcDbEntity
  8
0
100
AcDbLine
 62
7
  6
BYLAYER
 10
333.9314479588
 20
208.8598626305
 11
336.4314479588
 21
208.8598626305
  0
LINE
  5
241
100
AcDbEntity
  8
0
100
AcDbLine
 62
7
  6
BYLAYER
 10
241.6314479583
 20
209.2508736676
 11
241.4314479583
 21
209.2508736676
  0
LINE
  5
242
100
AcDbEntity
  8
0
100
AcDbLine
 62
7
  6
BYLAYER
 10
147.6314479583
 20
209.2508736678
 11
147.4314479583
 21
209.2508736678
  0
LINE
  5
243
100
AcDbEntity
  8
0
100
AcDbLine
 62
7
  6
BYLAYER
 10
125.6788966727
 20
436.7508736677
 11
125.6788966727
 21
407.9508736677
  0
LINE
  5
244
100
AcDbEntity
  8
0
100
AcDbLine
 62
7
  6
BYLAYER
 10
65.4314479583
 20
214.2508736678
 11
54.4314479583
 21
214.2508736678
  0
LINE
  5
245
100
AcDbEntity
  8
0
100
AcDbLine
 62
7
  6
BYLAYER
 10
336.4314479588
 20
215.5699633472
 11
333.9314479588
 21
215.5699633472
  0
LINE
  5
246
100
AcDbEntity
  8
0
100
AcDbLine
 62
7
  6
BYLAYER
 10
78.4314479588
 20
215.5699633476
 11
80.9314479588
 21
215.5699633476
  0
LINE
  5
247
100
AcDbEntity
  8
0
100
AcDbLine
 62
7
  6
BYLAYER
 10
80.9314479583
 20
224.3240068658
 11
79.4314479583
 21
224.3240068658
  0
LINE
  5
248
100
AcDbEntity
  8
0
100
AcDbLine
 62
7
  6
BYLAYER
 10
333.9314479583
 20
224.3240068658
 11
335.4314479583
 21
224.3240068658
  0
LINE
  5
249
100
AcDbEntity
  8
0
100
AcDbLine
 62
7
  6
BYLAYER
 10
138.9314479592
 20
260.4953925703
 11
138.9314479592
 21
253.4953925703
  0
LINE
  5
24A
100
AcDbEntity
  8
0
100
AcDbLine
 62
7
  6
BYLAYER
 10
141.9314479583
 20
201.4508736678
 11
141.9314479592
 21
262.9953925704
  0
LINE
  5
24B
100
AcDbEntity
  8
0
100
AcDbLine
 62
7
  6
BYLAYER
 10
147.4314479584
 20
201.4508736678
 11
147.4314479584
 21
317.9508736678
  0
LINE
  5
24C
100
AcDbEntity
  8
0
100
AcDbLine
 62
7
  6
BYLAYER
 10
147.6314479583
 20
204.4508736676
 11
147.6314479583
 21
317.9508736678
  0
LINE
  5
24D
100
AcDbEntity
  8
0
100
AcDbLine
 62
7
  6
BYLAYER
 10
149.6314479586
 20
385.1508736676
 11
149.6314479586
 21
389.3508736676
  0
LINE
  5
24E
100
AcDbEntity
  8
0
100
AcDbLine
 62
7
  6
BYLAYER
 10
335.4314479584
 20
228.952597176
 11
329.9314479583
 21
228.952597176
  0
LINE
  5
24F
100
AcDbEntity
  8
0
100
AcDbLine
 62
7
  6
BYLAYER
 10
241.4314479584
 20
228.9525971762
 11
235.9314479583
 21
228.9525971762
  0
LINE
  5
250
100
AcDbEntity
  8
0
100
AcDbLine
 62
7
  6
BYLAYER
 10
147.4314479584
 20
228.9525971763
 11
141.9314479583
 21
228.9525971763
  0
LINE
  5
251
100
AcDbEntity
  8
0
100
AcDbLine
 62
7
  6
BYLAYER
 10
78.4314479583
 20
228.9508736678
 11
84.9314479583
 21
228.9525971763
  0
LINE
  5
252
100
AcDbEntity
  8
0
100
AcDbLine
 62
7
  6
BYLAYER
 10
173.4314479583
 20
228.9525971762
 11
178.9314479583
 21
228.9525971762
  0
LINE
  5
253
100
AcDbEntity
  8
0
100
AcDbLine
 62
7
  6
BYLAYER
 10
267.4314479583
 20
228.952597176
 11
272.9314479583
 21
228.952597176
  0
LINE
  5
254
100
AcDbEntity
  8
0
100
AcDbLine
 62
7
  6
BYLAYER
 10
272.9314479584
 20
235.952597176
 11
267.4314479583
 21
235.952597176
  0
LINE
  5
255
100
AcDbEntity
  8
0
100
AcDbLine
 62
7
  6
BYLAYER
 10
178.9314479584
 20
235.9525971762
 11
173.4314479583
 21
235.9525971762
  0
LINE
  5
256
100
AcDbEntity
  8
0
100
AcDbLine
 62
7
  6
BYLAYER
 10
84.9314479584
 20
235.9525971764
 11
79.4314479583
 21
235.9525971764
  0
LINE
  5
257
100
AcDbEntity
  8
0
100
AcDbLine
 62
7
  6
BYLAYER
 10
141.9314479583
 20
235.9525971763
 11
147.4314479583
 21
235.9525971763
  0
LINE
  5
258
100
AcDbEntity
  8
0
100
AcDbLine
 62
7
  6
BYLAYER
 10
235.9314479583
 20
235.9525971762
 11
241.4314479583
 21
235.9525971762
  0
LINE
  5
259
100
AcDbEntity
  8
0
100
AcDbLine
 62
7
  6
BYLAYER
 10
329.9314479583
 20
235.952597176
 11
335.4314479583
 21
235.952597176
  0
LINE
  5
25A
100
AcDbEntity
  8
0
100
AcDbLine
 62
7
  6
BYLAYER
 10
153.5569760364
 20
436.747830486
 11
153.4499497397
 21
442.8838707194
  0
LINE
  5
25B
100
AcDbEntity
  8
0
100
AcDbLine
 62
7
  6
BYLAYER
 10
153.9758188688
 20
412.7508736676
 11
153.7613644336
 21
425.0369600175
  0
LINE
  5
25C
100
AcDbEntity
  8
0
100
AcDbLine
 62
7
  6
BYLAYER
 10
150.6314479586
 20
389.3508736676
 11
150.6314479586
 21
385.1508736676
  0
LINE
  5
25D
100
AcDbEntity
  8
0
100
AcDbLine
 62
7
  6
BYLAYER
 10
151.2314479586
 20
389.3508736676
 11
151.2314479586
 21
385.1508736676
  0
LINE
  5
25E
100
AcDbEntity
  8
0
100
AcDbLine
 62
7
  6
BYLAYER
 10
153.7314479585
 20
317.9508736678
 11
153.7314479589
 21
436.7508736676
  0
LINE
  5
25F
100
AcDbEntity
  8
0
100
AcDbLine
 62
7
  6
BYLAYER
 10
153.9314479585
 20
334.7508736677
 11
153.9314479585
 21
317.9508736678
  0
LINE
  5
260
100
AcDbEntity
  8
0
100
AcDbLine
 62
7
  6
BYLAYER
 10
157.7314479587
 20
420.7508736676
 11
157.7314479587
 21
432.7508736676
  0
LINE
  5
261
100
AcDbEntity
  8
0
100
AcDbLine
 62
7
  6
BYLAYER
 10
159.4314479583
 20
204.4508736677
 11
159.4314479585
 21
298.1508736678
  0
LINE
  5
262
100
AcDbEntity
  8
0
100
AcDbLine
 62
7
  6
BYLAYER
 10
160.0814479596
 20
436.7508736676
 11
160.0814479596
 21
441.6323548264
  0
LINE
  5
263
100
AcDbEntity
  8
0
100
AcDbLine
 62
7
  6
BYLAYER
 10
160.0814479596
 20
441.6583850383
 11
160.0814479596
 21
444.6910293787
  0
LINE
  5
264
100
AcDbEntity
  8
0
100
AcDbLine
 62
7
  6
BYLAYER
 10
160.7814479596
 20
444.6910664539
 11
160.7814479596
 21
441.6583850434
  0
LINE
  5
265
100
AcDbEntity
  8
0
100
AcDbLine
 62
7
  6
BYLAYER
 10
160.7814479596
 20
441.6295098742
 11
160.7814479595
 21
436.7508736676
  0
LINE
  5
266
100
AcDbEntity
  8
0
100
AcDbLine
 62
7
  6
BYLAYER
 10
161.4314479585
 20
204.4508736677
 11
161.4314479585
 21
298.1508736678
  0
LINE
  5
267
100
AcDbEntity
  8
0
100
AcDbLine
 62
7
  6
BYLAYER
 10
163.1314479587
 20
432.7508736678
 11
163.1314479587
 21
420.7508736678
  0
LINE
  5
268
100
AcDbEntity
  8
0
100
AcDbLine
 62
7
  6
BYLAYER
 10
157.8586476627
 20
438.9842697151
 11
157.4912991426
 21
428.4647873177
  0
LINE
  5
269
100
AcDbEntity
  8
0
100
AcDbLine
 62
7
  6
BYLAYER
 10
157.3715967755
 20
425.0369600175
 11
156.9425571867
 21
412.7508736676
  0
LINE
  5
26A
100
AcDbEntity
  8
0
100
AcDbLine
 62
7
  6
BYLAYER
 10
84.9314479592
 20
250.9953925704
 11
141.9314479592
 21
250.9953925704
  0
LINE
  5
26B
100
AcDbEntity
  8
0
100
AcDbLine
 62
7
  6
BYLAYER
 10
178.9314479592
 20
250.9953925703
 11
235.9314479592
 21
250.9953925703
  0
LINE
  5
26C
100
AcDbEntity
  8
0
100
AcDbLine
 62
7
  6
BYLAYER
 10
272.9314479592
 20
250.9953925701
 11
329.9314479592
 21
250.9953925701
  0
LINE
  5
26D
100
AcDbEntity
  8
0
100
AcDbLine
 62
7
  6
BYLAYER
 10
326.9314479592
 20
253.49539257
 11
275.9314479592
 21
253.49539257
  0
LINE
  5
26E
100
AcDbEntity
  8
0
100
AcDbLine
 62
7
  6
BYLAYER
 10
232.9314479592
 20
253.4953925702
 11
181.9314479592
 21
253.4953925702
  0
LINE
  5
26F
100
AcDbEntity
  8
0
100
AcDbLine
 62
7
  6
BYLAYER
 10
138.9314479592
 20
253.4953925703
 11
87.9314479592
 21
253.4953925703
  0
LINE
  5
270
100
AcDbEntity
  8
0
100
AcDbLine
 62
7
  6
BYLAYER
 10
163.9203387325
 20
412.7508736676
 11
163.4912991426
 21
425.0369600175
  0
LINE
  5
271
100
AcDbEntity
  8
0
100
AcDbLine
 62
7
  6
BYLAYER
 10
163.3715967758
 20
428.4647873177
 11
163.0042481486
 21
438.9842698875
  0
LINE
  5
272
100
AcDbEntity
  8
0
100
AcDbLine
 62
7
  6
BYLAYER
 10
166.9314479585
 20
317.9508736678
 11
166.9314479585
 21
334.7508736678
  0
LINE
  5
273
100
AcDbEntity
  8
0
100
AcDbLine
 62
7
  6
BYLAYER
 10
167.1314479585
 20
317.9508736678
 11
167.1314479587
 21
436.7508736677
  0
LINE
  5
274
100
AcDbEntity
  8
0
100
AcDbLine
 62
7
  6
BYLAYER
 10
169.6314479586
 20
385.1508736678
 11
169.6314479586
 21
389.3508736678
  0
LINE
  5
275
100
AcDbEntity
  8
0
100
AcDbLine
 62
7
  6
BYLAYER
 10
170.2314479587
 20
385.1508736678
 11
170.2314479587
 21
389.3508736678
  0
LINE
  5
276
100
AcDbEntity
  8
0
100
AcDbLine
 62
7
  6
BYLAYER
 10
171.2314479587
 20
389.3508736678
 11
171.2314479587
 21
385.1508736678
  0
LINE
  5
277
100
AcDbEntity
  8
0
100
AcDbLine
 62
7
  6
BYLAYER
 10
173.4314479584
 20
317.9508736678
 11
173.4314479584
 21
298.1508736678
  0
LINE
  5
278
100
AcDbEntity
  8
0
100
AcDbLine
 62
7
  6
BYLAYER
 10
173.4314479584
 20
235.9525971762
 11
173.4314479584
 21
201.4508736676
  0
LINE
  5
279
100
AcDbEntity
  8
0
100
AcDbLine
 62
7
  6
BYLAYER
 10
178.9314479583
 20
201.4508736676
 11
178.9314479592
 21
262.9953925703
  0
LINE
  5
27A
100
AcDbEntity
  8
0
100
AcDbLine
 62
7
  6
BYLAYER
 10
166.8870770501
 20
412.7508736676
 11
167.1015314857
 21
425.0369600175
  0
LINE
  5
27B
100
AcDbEntity
  8
0
100
AcDbLine
 62
7
  6
BYLAYER
 10
167.4077766672
 20
442.5824159977
 11
167.3059424161
 21
436.7478281203
  0
LINE
  5
27C
100
AcDbEntity
  8
0
100
AcDbLine
 62
7
  6
BYLAYER
 10
326.9314479592
 20
260.4953925701
 11
275.9314479592
 21
260.4953925701
  0
LINE
  5
27D
100
AcDbEntity
  8
0
100
AcDbLine
 62
7
  6
BYLAYER
 10
232.9314479592
 20
260.4953925703
 11
181.9314479592
 21
260.4953925703
  0
LINE
  5
27E
100
AcDbEntity
  8
0
100
AcDbLine
 62
7
  6
BYLAYER
 10
138.9314479592
 20
260.4953925704
 11
87.9314479592
 21
260.4953925704
  0
LINE
  5
27F
100
AcDbEntity
  8
0
100
AcDbLine
 62
7
  6
BYLAYER
 10
84.9314479592
 20
262.9953925704
 11
141.9314479592
 21
262.9953925704
  0
LINE
  5
280
100
AcDbEntity
  8
0
100
AcDbLine
 62
7
  6
BYLAYER
 10
178.9314479592
 20
262.9953925703
 11
235.9314479592
 21
262.9953925703
  0
LINE
  5
281
100
AcDbEntity
  8
0
100
AcDbLine
 62
7
  6
BYLAYER
 10
272.9314479592
 20
262.9953925701
 11
329.9314479592
 21
262.9953925701
  0
LINE
  5
282
100
AcDbEntity
  8
0
100
AcDbLine
 62
7
  6
BYLAYER
 10
181.9314479592
 20
260.4953925702
 11
181.9314479592
 21
253.4953925702
  0
LINE
  5
283
100
AcDbEntity
  8
0
100
AcDbLine
 62
7
  6
BYLAYER
 10
195.1839992446
 20
407.9508736676
 11
195.1839992447
 21
436.7508736676
  0
LINE
  5
284
100
AcDbEntity
  8
0
100
AcDbLine
 62
7
  6
BYLAYER
 10
340.4314479585
 20
297.6508736674
 11
338.4314479584
 21
297.6508736674
  0
LINE
  5
285
100
AcDbEntity
  8
0
100
AcDbLine
 62
7
  6
BYLAYER
 10
75.4314479585
 20
298.1508736678
 11
73.4314479585
 21
298.1508736678
  0
LINE
  5
286
100
AcDbEntity
  8
0
100
AcDbLine
 62
7
  6
BYLAYER
 10
147.6314479585
 20
298.1508736678
 11
173.4314479585
 21
298.1508736678
  0
LINE
  5
287
100
AcDbEntity
  8
0
100
AcDbLine
 62
7
  6
BYLAYER
 10
241.6314479585
 20
298.1508736676
 11
267.4314479585
 21
298.1508736676
  0
LINE
  5
288
100
AcDbEntity
  8
0
100
AcDbLine
 62
7
  6
BYLAYER
 10
219.6788966727
 20
436.7508736675
 11
219.6788966727
 21
407.9508736676
  0
LINE
  5
289
100
AcDbEntity
  8
0
100
AcDbLine
 62
7
  6
BYLAYER
 10
232.9314479592
 20
260.4953925702
 11
232.9314479592
 21
253.4953925702
  0
LINE
  5
28A
100
AcDbEntity
  8
0
100
AcDbLine
 62
7
  6
BYLAYER
 10
235.9314479583
 20
201.4508736677
 11
235.9314479592
 21
262.9953925703
  0
LINE
  5
28B
100
AcDbEntity
  8
0
100
AcDbLine
 62
7
  6
BYLAYER
 10
73.1314479585
 20
317.9508736683
 11
341.7314479585
 21
317.9508736673
  0
LINE
  5
28C
100
AcDbEntity
  8
0
100
AcDbLine
 62
7
  6
BYLAYER
 10
71.9314479585
 20
320.9508736678
 11
65.4314479586
 21
320.9508736678
  0
LINE
  5
28D
100
AcDbEntity
  8
0
100
AcDbLine
 62
7
  6
BYLAYER
 10
247.5569760364
 20
436.747830486
 11
247.4499497397
 21
442.8838707193
  0
LINE
  5
28E
100
AcDbEntity
  8
0
100
AcDbLine
 62
7
  6
BYLAYER
 10
247.9758188688
 20
412.7508736675
 11
247.7613644336
 21
425.0369600174
  0
LINE
  5
28F
100
AcDbEntity
  8
0
100
AcDbLine
 62
7
  6
BYLAYER
 10
241.4314479584
 20
201.4508736677
 11
241.4314479584
 21
317.9508736676
  0
LINE
  5
290
100
AcDbEntity
  8
0
100
AcDbLine
 62
7
  6
BYLAYER
 10
241.6314479583
 20
204.4508736676
 11
241.6314479583
 21
317.9508736677
  0
LINE
  5
291
100
AcDbEntity
  8
0
100
AcDbLine
 62
7
  6
BYLAYER
 10
243.6314479586
 20
385.1508736675
 11
243.6314479586
 21
389.3508736675
  0
LINE
  5
292
100
AcDbEntity
  8
0
100
AcDbLine
 62
7
  6
BYLAYER
 10
244.6314479586
 20
389.3508736675
 11
244.6314479586
 21
385.1508736675
  0
LINE
  5
293
100
AcDbEntity
  8
0
100
AcDbLine
 62
7
  6
BYLAYER
 10
245.2314479586
 20
389.3508736675
 11
245.2314479586
 21
385.1508736675
  0
LINE
  5
294
100
AcDbEntity
  8
0
100
AcDbLine
 62
7
  6
BYLAYER
 10
247.7314479585
 20
317.9508736676
 11
247.7314479589
 21
436.7508736675
  0
LINE
  5
295
100
AcDbEntity
  8
0
100
AcDbLine
 62
7
  6
BYLAYER
 10
247.9314479585
 20
334.7508736676
 11
247.9314479585
 21
317.9508736677
  0
LINE
  5
296
100
AcDbEntity
  8
0
100
AcDbLine
 62
7
  6
BYLAYER
 10
251.7314479587
 20
420.7508736674
 11
251.7314479587
 21
432.7508736674
  0
LINE
  5
297
100
AcDbEntity
  8
0
100
AcDbLine
 62
7
  6
BYLAYER
 10
251.8586476627
 20
438.984269715
 11
251.4912991426
 21
428.4647873176
  0
LINE
  5
298
100
AcDbEntity
  8
0
100
AcDbLine
 62
7
  6
BYLAYER
 10
251.3715967755
 20
425.0369600174
 11
250.9425571867
 21
412.7508736675
  0
LINE
  5
299
100
AcDbEntity
  8
0
100
AcDbLine
 62
7
  6
BYLAYER
 10
341.7314479585
 20
328.9508736673
 11
261.1314479585
 21
328.9508736675
  0
LINE
  5
29A
100
AcDbEntity
  8
0
100
AcDbLine
 62
7
  6
BYLAYER
 10
247.7314479585
 20
328.9508736675
 11
167.1314479585
 21
328.9508736677
  0
LINE
  5
29B
100
AcDbEntity
  8
0
100
AcDbLine
 62
7
  6
BYLAYER
 10
153.7314479585
 20
328.9508736677
 11
73.1314479585
 21
328.9508736679
  0
LINE
  5
29C
100
AcDbEntity
  8
0
100
AcDbLine
 62
7
  6
BYLAYER
 10
153.9314479585
 20
328.9508736678
 11
166.9314479585
 21
328.9508736678
  0
LINE
  5
29D
100
AcDbEntity
  8
0
100
AcDbLine
 62
7
  6
BYLAYER
 10
247.9314479585
 20
328.9508736676
 11
260.9314479585
 21
328.9508736676
  0
LINE
  5
29E
100
AcDbEntity
  8
0
100
AcDbLine
 62
7
  6
BYLAYER
 10
73.1314479585
 20
333.950873668
 11
153.7314479585
 21
333.9508736677
  0
LINE
  5
29F
100
AcDbEntity
  8
0
100
AcDbLine
 62
7
  6
BYLAYER
 10
167.1314479585
 20
333.9508736678
 11
247.7314479585
 21
333.9508736676
  0
LINE
  5
2A0
100
AcDbEntity
  8
0
100
AcDbLine
 62
7
  6
BYLAYER
 10
261.1314479585
 20
333.9508736676
 11
341.7314479585
 21
333.9508736674
  0
LINE
  5
2A1
100
AcDbEntity
  8
0
100
AcDbLine
 62
7
  6
BYLAYER
 10
348.4314479585
 20
334.2508736675
 11
341.7314479585
 21
334.2508736675
  0
LINE
  5
2A2
100
AcDbEntity
  8
0
100
AcDbLine
 62
7
  6
BYLAYER
 10
73.1314479585
 20
334.7508736678
 11
65.4314479585
 21
334.7508736678
  0
LINE
  5
2A3
100
AcDbEntity
  8
0
100
AcDbLine
 62
7
  6
BYLAYER
 10
153.7314479582
 20
334.7508736678
 11
167.1314479583
 21
334.7508736678
  0
LINE
  5
2A4
100
AcDbEntity
  8
0
100
AcDbLine
 62
7
  6
BYLAYER
 10
247.7314479582
 20
334.7508736676
 11
261.1314479583
 21
334.7508736676
  0
LINE
  5
2A5
100
AcDbEntity
  8
0
100
AcDbLine
 62
7
  6
BYLAYER
 10
348.4314479585
 20
334.9508736673
 11
341.7314479585
 21
334.9508736673
  0
LINE
  5
2A6
100
AcDbEntity
  8
0
100
AcDbLine
 62
7
  6
BYLAYER
 10
66.4314479585
 20
334.950873668
 11
73.1314479585
 21
334.9508736679
  0
LINE
  5
2A7
100
AcDbEntity
  8
0
100
AcDbLine
 62
7
  6
BYLAYER
 10
153.7314479585
 20
334.9508736678
 11
167.1314479585
 21
334.9508736678
  0
LINE
  5
2A8
100
AcDbEntity
  8
0
100
AcDbLine
 62
7
  6
BYLAYER
 10
247.7314479585
 20
334.9508736677
 11
261.1314479585
 21
334.9508736676
  0
LINE
  5
2A9
100
AcDbEntity
  8
0
100
AcDbLine
 62
7
  6
BYLAYER
 10
257.9203387325
 20
412.7508736674
 11
257.4912991426
 21
425.0369600173
  0
LINE
  5
2AA
100
AcDbEntity
  8
0
100
AcDbLine
 62
7
  6
BYLAYER
 10
257.3715967758
 20
428.4647873175
 11
257.0042481486
 21
438.9842698873
  0
LINE
  5
2AB
100
AcDbEntity
  8
0
100
AcDbLine
 62
7
  6
BYLAYER
 10
253.4314479583
 20
204.4508736675
 11
253.4314479585
 21
298.1508736676
  0
LINE
  5
2AC
100
AcDbEntity
  8
0
100
AcDbLine
 62
7
  6
BYLAYER
 10
254.0814479596
 20
436.7508736675
 11
254.0814479596
 21
441.6323548263
  0
LINE
  5
2AD
100
AcDbEntity
  8
0
100
AcDbLine
 62
7
  6
BYLAYER
 10
254.0814479596
 20
441.6583850382
 11
254.0814479596
 21
444.6910293786
  0
LINE
  5
2AE
100
AcDbEntity
  8
0
100
AcDbLine
 62
7
  6
BYLAYER
 10
254.7814479596
 20
444.6910664537
 11
254.7814479596
 21
441.6583850432
  0
LINE
  5
2AF
100
AcDbEntity
  8
0
100
AcDbLine
 62
7
  6
BYLAYER
 10
254.7814479596
 20
441.629509874
 11
254.7814479595
 21
436.7508736674
  0
LINE
  5
2B0
100
AcDbEntity
  8
0
100
AcDbLine
 62
7
  6
BYLAYER
 10
255.4314479585
 20
204.4508736675
 11
255.4314479585
 21
298.1508736676
  0
LINE
  5
2B1
100
AcDbEntity
  8
0
100
AcDbLine
 62
7
  6
BYLAYER
 10
257.1314479587
 20
432.7508736676
 11
257.1314479587
 21
420.7508736676
  0
LINE
  5
2B2
100
AcDbEntity
  8
0
100
AcDbLine
 62
7
  6
BYLAYER
 10
260.9314479585
 20
317.9508736676
 11
260.9314479585
 21
334.7508736676
  0
LINE
  5
2B3
100
AcDbEntity
  8
0
100
AcDbLine
 62
7
  6
BYLAYER
 10
261.1314479585
 20
317.9508736676
 11
261.1314479587
 21
436.7508736675
  0
LINE
  5
2B4
100
AcDbEntity
  8
0
100
AcDbLine
 62
7
  6
BYLAYER
 10
263.6314479586
 20
385.1508736676
 11
263.6314479586
 21
389.3508736676
  0
LINE
  5
2B5
100
AcDbEntity
  8
0
100
AcDbLine
 62
7
  6
BYLAYER
 10
264.2314479587
 20
385.1508736676
 11
264.2314479587
 21
389.3508736676
  0
LINE
  5
2B6
100
AcDbEntity
  8
0
100
AcDbLine
 62
7
  6
BYLAYER
 10
265.2314479587
 20
389.3508736676
 11
265.2314479587
 21
385.1508736676
  0
LINE
  5
2B7
100
AcDbEntity
  8
0
100
AcDbLine
 62
7
  6
BYLAYER
 10
267.4314479584
 20
317.9508736676
 11
267.4314479584
 21
298.1508736676
  0
LINE
  5
2B8
100
AcDbEntity
  8
0
100
AcDbLine
 62
7
  6
BYLAYER
 10
267.4314479584
 20
235.952597176
 11
267.4314479584
 21
201.4508736674
  0
LINE
  5
2B9
100
AcDbEntity
  8
0
100
AcDbLine
 62
7
  6
BYLAYER
 10
260.8870770501
 20
412.7508736674
 11
261.1015314857
 21
425.0369600173
  0
LINE
  5
2BA
100
AcDbEntity
  8
0
100
AcDbLine
 62
7
  6
BYLAYER
 10
261.4077766672
 20
442.5824159975
 11
261.3059424161
 21
436.7478281203
  0
LWPOLYLINE
  5
2BB
100
AcDbEntity
  8
0
100
AcDbPolyline
 62
7
  6
BYLAYER
 90
6
 70
0
 10
373.1816380445
 20
369.2467178571
 10
373.0743803495
 20
369.2379268889
 10
372.8439257722
 20
369.1621062457
 10
372.6353912301
 20
369.0021354734
 10
372.4844178067
 20
368.7565817134
 10
372.4357013747
 20
368.4962006691
  0
LINE
  5
2BC
100
AcDbEntity
  8
0
100
AcDbLine
 62
7
  6
BYLAYER
 10
341.7314479585
 20
345.7008736674
 11
261.1314479585
 21
345.7008736676
  0
LINE
  5
2BD
100
AcDbEntity
  8
0
100
AcDbLine
 62
7
  6
BYLAYER
 10
247.7314479585
 20
345.7008736676
 11
167.1314479585
 21
345.7008736678
  0
LINE
  5
2BE
100
AcDbEntity
  8
0
100
AcDbLine
 62
7
  6
BYLAYER
 10
153.7314479585
 20
345.7008736677
 11
73.1314479585
 21
345.700873668
  0
LINE
  5
2BF
100
AcDbEntity
  8
0
100
AcDbLine
 62
7
  6
BYLAYER
 10
418.4314479588
 20
352.4508736674
 11
348.4314479588
 21
352.4508736674
  0
LINE
  5
2C0
100
AcDbEntity
  8
0
100
AcDbLine
 62
7
  6
BYLAYER
 10
374.4207754731
 20
353.2508736673
 11
381.9314479588
 21
353.2508736673
  0
LINE
  5
2C1
100
AcDbEntity
  8
0
100
AcDbLine
 62
7
  6
BYLAYER
 10
394.2314479588
 20
356.2144569349
 11
386.9314479588
 21
356.2144569349
  0
LINE
  5
2C2
100
AcDbEntity
  8
0
100
AcDbLine
 62
7
  6
BYLAYER
 10
381.9314479588
 20
356.7508736673
 11
374.4207754726
 21
356.7508736673
  0
LINE
  5
2C3
100
AcDbEntity
  8
0
100
AcDbLine
 62
7
  6
BYLAYER
 10
394.2314479588
 20
356.9147930266
 11
386.9314479588
 21
356.9147930265
  0
LINE
  5
2C4
100
AcDbEntity
  8
0
100
AcDbLine
 62
7
  6
BYLAYER
 10
384.9314479588
 20
357.5127232694
 11
381.9314479588
 21
357.5127232694
  0
LINE
  5
2C5
100
AcDbEntity
  8
0
100
AcDbLine
 62
7
  6
BYLAYER
 10
381.9314479588
 20
357.6508736674
 11
384.9314479588
 21
357.6508736674
  0
LINE
  5
2C6
100
AcDbEntity
  8
0
100
AcDbLine
 62
7
  6
BYLAYER
 10
418.2314479588
 20
358.1391979945
 11
394.2314479588
 21
358.1391979945
  0
LINE
  5
2C7
100
AcDbEntity
  8
0
100
AcDbLine
 62
7
  6
BYLAYER
 10
272.9314479583
 20
201.4508736674
 11
272.9314479592
 21
262.9953925701
  0
LINE
  5
2C8
100
AcDbEntity
  8
0
100
AcDbLine
 62
7
  6
BYLAYER
 10
275.9314479592
 20
260.49539257
 11
275.9314479592
 21
253.49539257
  0
LINE
  5
2C9
100
AcDbEntity
  8
0
100
AcDbLine
 62
7
  6
BYLAYER
 10
394.2314479588
 20
358.8361701986
 11
418.2314479588
 21
358.8361701986
  0
LINE
  5
2CA
100
AcDbEntity
  8
0
100
AcDbLine
 62
7
  6
BYLAYER
 10
396.2314479589
 20
360.8443890963
 11
416.2314479589
 21
360.8443890963
  0
LINE
  5
2CB
100
AcDbEntity
  8
0
100
AcDbLine
 62
7
  6
BYLAYER
 10
396.2314479588
 20
363.6356418002
 11
416.2314479588
 21
363.6356418002
  0
LINE
  5
2CC
100
AcDbEntity
  8
0
100
AcDbLine
 62
7
  6
BYLAYER
 10
377.4314479588
 20
368.7983135339
 11
389.4314479588
 21
368.7983135339
  0
LINE
  5
2CD
100
AcDbEntity
  8
0
100
AcDbLine
 62
7
  6
BYLAYER
 10
373.1821511603
 20
369.2508736673
 11
377.4314479588
 21
369.2508736673
  0
LINE
  5
2CE
100
AcDbEntity
  8
0
100
AcDbLine
 62
7
  6
BYLAYER
 10
389.4314479588
 20
369.2508736674
 11
393.6801963358
 21
369.2508736674
  0
LINE
  5
2CF
100
AcDbEntity
  8
0
100
AcDbLine
 62
7
  6
BYLAYER
 10
289.1839992446
 20
407.9508736675
 11
289.1839992447
 21
436.7508736675
  0
LINE
  5
2D0
100
AcDbEntity
  8
0
100
AcDbLine
 62
7
  6
BYLAYER
 10
341.7314479586
 20
385.1508736673
 11
337.6314479586
 21
385.1508736673
  0
LINE
  5
2D1
100
AcDbEntity
  8
0
100
AcDbLine
 62
7
  6
BYLAYER
 10
247.7314479586
 20
385.1508736675
 11
243.6314479586
 21
385.1508736675
  0
LINE
  5
2D2
100
AcDbEntity
  8
0
100
AcDbLine
 62
7
  6
BYLAYER
 10
153.7314479586
 20
385.1508736676
 11
149.6314479586
 21
385.1508736676
  0
LINE
  5
2D3
100
AcDbEntity
  8
0
100
AcDbLine
 62
7
  6
BYLAYER
 10
73.1314479586
 20
385.150873668
 11
77.2314479586
 21
385.150873668
  0
LINE
  5
2D4
100
AcDbEntity
  8
0
100
AcDbLine
 62
7
  6
BYLAYER
 10
167.1314479586
 20
385.1508736678
 11
171.2314479586
 21
385.1508736678
  0
LINE
  5
2D5
100
AcDbEntity
  8
0
100
AcDbLine
 62
7
  6
BYLAYER
 10
261.1314479586
 20
385.1508736676
 11
265.2314479586
 21
385.1508736676
  0
LINE
  5
2D6
100
AcDbEntity
  8
0
100
AcDbLine
 62
7
  6
BYLAYER
 10
341.7314479586
 20
389.3508736673
 11
337.6314479586
 21
389.3508736673
  0
LINE
  5
2D7
100
AcDbEntity
  8
0
100
AcDbLine
 62
7
  6
BYLAYER
 10
247.7314479586
 20
389.3508736674
 11
243.6314479586
 21
389.3508736675
  0
LINE
  5
2D8
100
AcDbEntity
  8
0
100
AcDbLine
 62
7
  6
BYLAYER
 10
153.7314479586
 20
389.3508736676
 11
149.6314479586
 21
389.3508736676
  0
LINE
  5
2D9
100
AcDbEntity
  8
0
100
AcDbLine
 62
7
  6
BYLAYER
 10
73.1314479586
 20
389.350873668
 11
77.2314479586
 21
389.350873668
  0
LINE
  5
2DA
100
AcDbEntity
  8
0
100
AcDbLine
 62
7
  6
BYLAYER
 10
167.1314479586
 20
389.3508736678
 11
171.2314479586
 21
389.3508736678
  0
LINE
  5
2DB
100
AcDbEntity
  8
0
100
AcDbLine
 62
7
  6
BYLAYER
 10
261.1314479586
 20
389.3508736676
 11
265.2314479586
 21
389.3508736676
  0
LINE
  5
2DC
100
AcDbEntity
  8
0
100
AcDbLine
 62
7
  6
BYLAYER
 10
313.6788966727
 20
436.7508736674
 11
313.6788966727
 21
407.9508736674
  0
LINE
  5
2DD
100
AcDbEntity
  8
0
100
AcDbLine
 62
7
  6
BYLAYER
 10
101.1839992447
 20
407.9508736679
 11
125.6788966726
 21
407.9508736678
  0
LINE
  5
2DE
100
AcDbEntity
  8
0
100
AcDbLine
 62
7
  6
BYLAYER
 10
195.1839992447
 20
407.9508736677
 11
219.6788966726
 21
407.9508736676
  0
LINE
  5
2DF
100
AcDbEntity
  8
0
100
AcDbLine
 62
7
  6
BYLAYER
 10
289.1839992447
 20
407.9508736675
 11
313.6788966726
 21
407.9508736674
  0
LINE
  5
2E0
100
AcDbEntity
  8
0
100
AcDbLine
 62
7
  6
BYLAYER
 10
344.9425571865
 20
412.7508736673
 11
341.9758188685
 21
412.7508736673
  0
LINE
  5
2E1
100
AcDbEntity
  8
0
100
AcDbLine
 62
7
  6
BYLAYER
 10
260.8870770505
 20
412.7508736674
 11
257.9203387325
 21
412.7508736674
  0
LINE
  5
2E2
100
AcDbEntity
  8
0
100
AcDbLine
 62
7
  6
BYLAYER
 10
250.9425571865
 20
412.7508736675
 11
247.9758188685
 21
412.7508736675
  0
LINE
  5
2E3
100
AcDbEntity
  8
0
100
AcDbLine
 62
7
  6
BYLAYER
 10
166.8870770505
 20
412.7508736676
 11
163.9203387325
 21
412.7508736676
  0
LINE
  5
2E4
100
AcDbEntity
  8
0
100
AcDbLine
 62
7
  6
BYLAYER
 10
156.9425571865
 20
412.7508736676
 11
153.9758188685
 21
412.7508736676
  0
LINE
  5
2E5
100
AcDbEntity
  8
0
100
AcDbLine
 62
7
  6
BYLAYER
 10
72.8870770505
 20
412.7508736677
 11
69.9203387325
 21
412.7508736677
  0
LINE
  5
2E6
100
AcDbEntity
  8
0
100
AcDbLine
 62
7
  6
BYLAYER
 10
69.8155764235
 20
415.7508736677
 11
72.9394422456
 21
415.7508736677
  0
LINE
  5
2E7
100
AcDbEntity
  8
0
100
AcDbLine
 62
7
  6
BYLAYER
 10
153.9234536737
 20
415.7508736676
 11
157.0473194946
 21
415.7508736676
  0
LINE
  5
2E8
100
AcDbEntity
  8
0
100
AcDbLine
 62
7
  6
BYLAYER
 10
163.8155764235
 20
415.7508736676
 11
166.9394422456
 21
415.7508736676
  0
LINE
  5
2E9
100
AcDbEntity
  8
0
100
AcDbLine
 62
7
  6
BYLAYER
 10
247.9234536737
 20
415.7508736675
 11
251.0473194946
 21
415.7508736675
  0
LINE
  5
2EA
100
AcDbEntity
  8
0
100
AcDbLine
 62
7
  6
BYLAYER
 10
257.8155764235
 20
415.7508736674
 11
260.9394422456
 21
415.7508736674
  0
LINE
  5
2EB
100
AcDbEntity
  8
0
100
AcDbLine
 62
7
  6
BYLAYER
 10
341.9234536737
 20
415.7508736673
 11
345.0473194946
 21
415.7508736673
  0
LINE
  5
2EC
100
AcDbEntity
  8
0
100
AcDbLine
 62
7
  6
BYLAYER
 10
373.1823430469
 20
369.2508102726
 11
373.1821511603
 21
369.2508736673
  0
LWPOLYLINE
  5
2ED
100
AcDbEntity
  8
0
100
AcDbPolyline
 62
7
  6
BYLAYER
 90
5
 70
0
 10
152.4618107565
 20
445.5287467317
 10
141.7175204029
 20
449.0850579959
 10
113.7247439099
 20
452.4743689379
 10
85.5259982706
 20
449.1769994197
 10
74.4643540056
 20
445.5357350958
  0
LINE
  5
2EE
100
AcDbEntity
  8
0
100
AcDbLine
 62
7
  6
BYLAYER
 10
326.9314479592
 20
260.49539257
 11
326.9314479592
 21
253.49539257
  0
LINE
  5
2EF
100
AcDbEntity
  8
0
100
AcDbLine
 62
7
  6
BYLAYER
 10
329.9314479583
 20
201.4508736675
 11
329.9314479592
 21
262.9953925701
  0
LINE
  5
2F0
100
AcDbEntity
  8
0
100
AcDbLine
 62
7
  6
BYLAYER
 10
333.9314479588
 20
201.4508736674
 11
333.9314479588
 21
224.3240068658
  0
LINE
  5
2F1
100
AcDbEntity
  8
0
100
AcDbLine
 62
7
  6
BYLAYER
 10
335.4314479584
 20
224.3240068658
 11
335.4314479585
 21
317.9508736674
  0
LINE
  5
2F2
100
AcDbEntity
  8
0
100
AcDbLine
 62
7
  6
BYLAYER
 10
336.4314479588
 20
203.9508736674
 11
336.4314479588
 21
230.6024934068
  0
LINE
  5
2F3
100
AcDbEntity
  8
0
100
AcDbLine
 62
7
  6
BYLAYER
 10
337.6314479586
 20
385.1508736673
 11
337.6314479586
 21
389.3508736673
  0
LINE
  5
2F4
100
AcDbEntity
  8
0
100
AcDbLine
 62
7
  6
BYLAYER
 10
338.4314479583
 20
203.9508736674
 11
338.4314479585
 21
297.6508736674
  0
LINE
  5
2F5
100
AcDbEntity
  8
0
100
AcDbLine
 62
7
  6
BYLAYER
 10
338.6314479586
 20
389.3508736673
 11
338.6314479586
 21
385.1508736673
  0
LINE
  5
2F6
100
AcDbEntity
  8
0
100
AcDbLine
 62
7
  6
BYLAYER
 10
339.2314479586
 20
389.3508736673
 11
339.2314479586
 21
385.1508736673
  0
LINE
  5
2F7
100
AcDbEntity
  8
0
100
AcDbLine
 62
7
  6
BYLAYER
 10
340.4314479583
 20
203.9508736675
 11
340.4314479583
 21
297.6508736674
  0
LINE
  5
2F8
100
AcDbEntity
  8
0
100
AcDbLine
 62
7
  6
BYLAYER
 10
345.7314479587
 20
420.7508736673
 11
345.2220141529
 21
420.7508736673
  0
LINE
  5
2F9
100
AcDbEntity
  8
0
100
AcDbLine
 62
7
  6
BYLAYER
 10
341.8361783491
 20
420.7508736673
 11
341.7314479587
 21
420.7508736673
  0
LINE
  5
2FA
100
AcDbEntity
  8
0
100
AcDbLine
 62
7
  6
BYLAYER
 10
251.7314479587
 20
420.7508736674
 11
251.2220141529
 21
420.7508736674
  0
LINE
  5
2FB
100
AcDbEntity
  8
0
100
AcDbLine
 62
7
  6
BYLAYER
 10
247.8361783491
 20
420.7508736675
 11
247.7314479587
 21
420.7508736675
  0
LINE
  5
2FC
100
AcDbEntity
  8
0
100
AcDbLine
 62
7
  6
BYLAYER
 10
157.7314479587
 20
420.7508736676
 11
157.2220141529
 21
420.7508736676
  0
LINE
  5
2FD
100
AcDbEntity
  8
0
100
AcDbLine
 62
7
  6
BYLAYER
 10
153.8361783491
 20
420.7508736676
 11
153.7314479587
 21
420.7508736676
  0
LINE
  5
2FE
100
AcDbEntity
  8
0
100
AcDbLine
 62
7
  6
BYLAYER
 10
69.1314479587
 20
420.750873668
 11
69.6409007637
 21
420.750873668
  0
LINE
  5
2FF
100
AcDbEntity
  8
0
100
AcDbLine
 62
7
  6
BYLAYER
 10
73.0267175702
 20
420.750873668
 11
73.1314479587
 21
420.750873668
  0
LINE
  5
300
100
AcDbEntity
  8
0
100
AcDbLine
 62
7
  6
BYLAYER
 10
163.1314479587
 20
420.7508736678
 11
163.6409007637
 21
420.7508736678
  0
LINE
  5
301
100
AcDbEntity
  8
0
100
AcDbLine
 62
7
  6
BYLAYER
 10
167.0267175702
 20
420.7508736678
 11
167.1314479587
 21
420.7508736678
  0
LINE
  5
302
100
AcDbEntity
  8
0
100
AcDbLine
 62
7
  6
BYLAYER
 10
257.1314479587
 20
420.7508736676
 11
257.6409007637
 21
420.7508736676
  0
LINE
  5
303
100
AcDbEntity
  8
0
100
AcDbLine
 62
7
  6
BYLAYER
 10
261.0267175702
 20
420.7508736676
 11
261.1314479587
 21
420.7508736676
  0
LINE
  5
304
100
AcDbEntity
  8
0
100
AcDbLine
 62
7
  6
BYLAYER
 10
345.3715967755
 20
425.0369600172
 11
341.7613644336
 21
425.0369600172
  0
LINE
  5
305
100
AcDbEntity
  8
0
100
AcDbLine
 62
7
  6
BYLAYER
 10
261.1015314857
 20
425.0369600173
 11
257.4912991426
 21
425.0369600173
  0
LINE
  5
306
100
AcDbEntity
  8
0
100
AcDbLine
 62
7
  6
BYLAYER
 10
251.3715967755
 20
425.0369600174
 11
247.7613644336
 21
425.0369600174
  0
LINE
  5
307
100
AcDbEntity
  8
0
100
AcDbLine
 62
7
  6
BYLAYER
 10
167.1015314857
 20
425.0369600175
 11
163.4912991426
 21
425.0369600175
  0
LINE
  5
308
100
AcDbEntity
  8
0
100
AcDbLine
 62
7
  6
BYLAYER
 10
157.3715967755
 20
425.0369600175
 11
153.7613644336
 21
425.0369600175
  0
LINE
  5
309
100
AcDbEntity
  8
0
100
AcDbLine
 62
7
  6
BYLAYER
 10
73.1015314857
 20
425.0369600176
 11
69.4912991426
 21
425.0369600176
  0
LINE
  5
30A
100
AcDbEntity
  8
0
100
AcDbLine
 62
7
  6
BYLAYER
 10
69.3715967758
 20
428.4647873178
 11
73.1314479596
 21
428.4647873178
  0
LINE
  5
30B
100
AcDbEntity
  8
0
100
AcDbLine
 62
7
  6
BYLAYER
 10
153.7314479596
 20
428.4647873177
 11
157.4912991426
 21
428.4647873177
  0
LINE
  5
30C
100
AcDbEntity
  8
0
100
AcDbLine
 62
7
  6
BYLAYER
 10
163.3715967758
 20
428.4647873177
 11
167.1314479596
 21
428.4647873177
  0
LINE
  5
30D
100
AcDbEntity
  8
0
100
AcDbLine
 62
7
  6
BYLAYER
 10
247.7314479596
 20
428.4647873176
 11
251.4912991426
 21
428.4647873176
  0
LINE
  5
30E
100
AcDbEntity
  8
0
100
AcDbLine
 62
7
  6
BYLAYER
 10
257.3715967758
 20
428.4647873175
 11
261.1314479596
 21
428.4647873175
  0
LINE
  5
30F
100
AcDbEntity
  8
0
100
AcDbLine
 62
7
  6
BYLAYER
 10
341.7314479596
 20
428.4647873174
 11
345.4912991426
 21
428.4647873174
  0
LINE
  5
310
100
AcDbEntity
  8
0
100
AcDbLine
 62
7
  6
BYLAYER
 10
348.4314479587
 20
429.7508736673
 11
345.7314479587
 21
429.7508736673
  0
LINE
  5
311
100
AcDbEntity
  8
0
100
AcDbLine
 62
7
  6
BYLAYER
 10
257.1314479587
 20
429.7508736676
 11
251.7314479587
 21
429.7508736676
  0
LINE
  5
312
100
AcDbEntity
  8
0
100
AcDbLine
 62
7
  6
BYLAYER
 10
163.1314479587
 20
429.7508736677
 11
157.7314479587
 21
429.7508736677
  0
LINE
  5
313
100
AcDbEntity
  8
0
100
AcDbLine
 62
7
  6
BYLAYER
 10
69.1314479587
 20
429.750873668
 11
66.4314479587
 21
429.750873668
  0
LINE
  5
314
100
AcDbEntity
  8
0
100
AcDbLine
 62
7
  6
BYLAYER
 10
159.6829067466
 20
441.6844248994
 11
159.988348218
 21
441.6323548264
  0
LINE
  5
315
100
AcDbEntity
  8
0
100
AcDbLine
 62
7
  6
BYLAYER
 10
341.5569760364
 20
436.747830486
 11
341.4499497397
 21
442.8838707191
  0
LINE
  5
316
100
AcDbEntity
  8
0
100
AcDbLine
 62
7
  6
BYLAYER
 10
341.9758188688
 20
412.7508736673
 11
341.7613644336
 21
425.0369600172
  0
LINE
  5
317
100
AcDbEntity
  8
0
100
AcDbLine
 62
7
  6
BYLAYER
 10
341.7314479585
 20
317.9508736673
 11
341.7314479589
 21
436.7508736674
  0
LINE
  5
318
100
AcDbEntity
  8
0
100
AcDbLine
 62
7
  6
BYLAYER
 10
342.9314479588
 20
201.4508736674
 11
342.9314479588
 21
203.9508736674
  0
LINE
  5
319
100
AcDbEntity
  8
0
100
AcDbLine
 62
7
  6
BYLAYER
 10
344.9314479588
 20
203.9508736674
 11
344.9314479588
 21
201.4508736674
  0
LINE
  5
31A
100
AcDbEntity
  8
0
100
AcDbLine
 62
7
  6
BYLAYER
 10
345.7314479587
 20
420.7508736673
 11
345.7314479587
 21
432.7508736673
  0
LINE
  5
31B
100
AcDbEntity
  8
0
100
AcDbLine
 62
7
  6
BYLAYER
 10
348.0814479596
 20
436.7508736673
 11
348.0814479596
 21
441.6323548261
  0
LINE
  5
31C
100
AcDbEntity
  8
0
100
AcDbLine
 62
7
  6
BYLAYER
 10
348.0814479596
 20
441.658385038
 11
348.0814479596
 21
444.6910293784
  0
LINE
  5
31D
100
AcDbEntity
  8
0
100
AcDbLine
 62
7
  6
BYLAYER
 10
348.4314479584
 20
203.9508736675
 11
348.4314479585
 21
436.7508736674
  0
LINE
  5
31E
100
AcDbEntity
  8
0
100
AcDbLine
 62
7
  6
BYLAYER
 10
353.9314479588
 20
201.4508736674
 11
353.9314479588
 21
203.9508736674
  0
LINE
  5
31F
100
AcDbEntity
  8
0
100
AcDbLine
 62
7
  6
BYLAYER
 10
355.9314479588
 20
203.9508736674
 11
355.9314479588
 21
201.4508736674
  0
LINE
  5
320
100
AcDbEntity
  8
0
100
AcDbLine
 62
7
  6
BYLAYER
 10
345.8586476627
 20
438.9842697148
 11
345.4912991426
 21
428.4647873174
  0
LINE
  5
321
100
AcDbEntity
  8
0
100
AcDbLine
 62
7
  6
BYLAYER
 10
345.3715967755
 20
425.0369600172
 11
344.9425571867
 21
412.7508736673
  0
LINE
  5
322
100
AcDbEntity
  8
0
100
AcDbLine
 62
7
  6
BYLAYER
 10
379.0070092061
 20
367.294762039
 11
379.0136745604
 21
367.3112323497
  0
LINE
  5
323
100
AcDbEntity
  8
0
100
AcDbLine
 62
7
  6
BYLAYER
 10
254.8843100346
 20
441.629509874
 11
255.1627734062
 21
441.6770528149
  0
LINE
  5
324
100
AcDbEntity
  8
0
100
AcDbLine
 62
7
  6
BYLAYER
 10
345.7314479587
 20
432.7508736669
 11
345.6408815615
 21
432.7508736669
  0
LINE
  5
325
100
AcDbEntity
  8
0
100
AcDbLine
 62
7
  6
BYLAYER
 10
251.7314479587
 20
432.7508736671
 11
251.6408815615
 21
432.7508736671
  0
LINE
  5
326
100
AcDbEntity
  8
0
100
AcDbLine
 62
7
  6
BYLAYER
 10
157.7314479587
 20
432.7508736673
 11
157.6408815615
 21
432.7508736673
  0
LINE
  5
327
100
AcDbEntity
  8
0
100
AcDbLine
 62
7
  6
BYLAYER
 10
69.1314479587
 20
432.750873668
 11
69.2219983603
 21
432.750873668
  0
LINE
  5
328
100
AcDbEntity
  8
0
100
AcDbLine
 62
7
  6
BYLAYER
 10
163.1314479587
 20
432.7508736678
 11
163.2219983603
 21
432.7508736678
  0
LINE
  5
329
100
AcDbEntity
  8
0
100
AcDbLine
 62
7
  6
BYLAYER
 10
257.1314479587
 20
432.7508736676
 11
257.2219983603
 21
432.7508736676
  0
LINE
  5
32A
100
AcDbEntity
  8
0
100
AcDbLine
 62
7
  6
BYLAYER
 10
341.7314479587
 20
436.7508736675
 11
261.1314479587
 21
436.7508736675
  0
LINE
  5
32B
100
AcDbEntity
  8
0
100
AcDbLine
 62
7
  6
BYLAYER
 10
247.7314479587
 20
436.7508736675
 11
167.1314479587
 21
436.7508736675
  0
LINE
  5
32C
100
AcDbEntity
  8
0
100
AcDbLine
 62
7
  6
BYLAYER
 10
153.7314479587
 20
436.7508736675
 11
73.1314479587
 21
436.7508736675
  0
LINE
  5
32D
100
AcDbEntity
  8
0
100
AcDbLine
 62
7
  6
BYLAYER
 10
66.4314479587
 20
436.7508736675
 11
68.3058842027
 21
436.7508146542
  0
LINE
  5
32E
100
AcDbEntity
  8
0
100
AcDbLine
 62
7
  6
BYLAYER
 10
346.5570109466
 20
436.7508154224
 11
348.4314479587
 21
436.7508736675
  0
LINE
  5
32F
100
AcDbEntity
  8
0
100
AcDbLine
 62
7
  6
BYLAYER
 10
256.3058842027
 20
436.7508146539
 11
252.5570109466
 21
436.7508154226
  0
LINE
  5
330
100
AcDbEntity
  8
0
100
AcDbLine
 62
7
  6
BYLAYER
 10
162.3058842027
 20
436.7508146541
 11
158.5570109466
 21
436.7508154227
  0
LINE
  5
331
100
AcDbEntity
  8
0
100
AcDbLine
 62
7
  6
BYLAYER
 10
159.6784783773
 20
441.6591481403
 11
159.988348218
 21
441.6323548264
  0
LINE
  5
332
100
AcDbEntity
  8
0
100
AcDbLine
 62
7
  6
BYLAYER
 10
253.6784783773
 20
441.6591481402
 11
253.988348218
 21
441.6323548263
  0
LINE
  5
333
100
AcDbEntity
  8
0
100
AcDbLine
 62
7
  6
BYLAYER
 10
253.6829067466
 20
441.6844248993
 11
253.988348218
 21
441.6323548263
  0
LWPOLYLINE
  5
334
100
AcDbEntity
  8
0
100
AcDbPolyline
 62
7
  6
BYLAYER
 90
5
 70
0
 10
246.4618107565
 20
445.5287467316
 10
235.7175204029
 20
449.0850579958
 10
207.7247439099
 20
452.4743689378
 10
179.5259982706
 20
449.1769994196
 10
168.4643540056
 20
445.5357350957
  0
LINE
  5
335
100
AcDbEntity
  8
0
100
AcDbLine
 62
7
  6
BYLAYER
 10
358.4314479588
 20
201.4508736674
 11
358.4314479588
 21
203.9508736674
  0
LINE
  5
336
100
AcDbEntity
  8
0
100
AcDbLine
 62
7
  6
BYLAYER
 10
360.4314479588
 20
203.9508736674
 11
360.4314479588
 21
201.4508736674
  0
LINE
  5
337
100
AcDbEntity
  8
0
100
AcDbLine
 62
7
  6
BYLAYER
 10
360.9314479588
 20
201.4508736674
 11
360.9314479588
 21
204.4508736674
  0
LINE
  5
338
100
AcDbEntity
  8
0
100
AcDbLine
 62
7
  6
BYLAYER
 10
379.0070092061
 20
367.294762039
 11
378.9557643876
 21
367.1246252526
  0
LINE
  5
339
100
AcDbEntity
  8
0
100
AcDbLine
 62
7
  6
BYLAYER
 10
160.8843100346
 20
441.6295098742
 11
161.1627734062
 21
441.6770528151
  0
LINE
  5
33A
100
AcDbEntity
  8
0
100
AcDbLine
 62
7
  6
BYLAYER
 10
347.6784783773
 20
441.65914814
 11
347.988348218
 21
441.6323548261
  0
LINE
  5
33B
100
AcDbEntity
  8
0
100
AcDbLine
 62
7
  6
BYLAYER
 10
347.6829067466
 20
441.6844248991
 11
347.988348218
 21
441.6323548261
  0
LINE
  5
33C
100
AcDbEntity
  8
0
100
AcDbLine
 62
7
  6
BYLAYER
 10
372.4314479588
 20
368.496196961
 11
372.4314479588
 21
352.4508736674
  0
LINE
  5
33D
100
AcDbEntity
  8
0
100
AcDbLine
 62
7
  6
BYLAYER
 10
374.4207754718
 20
356.7508736673
 11
374.4207754718
 21
353.2508736673
  0
LINE
  5
33E
100
AcDbEntity
  8
0
100
AcDbLine
 62
7
  6
BYLAYER
 10
377.4314479588
 20
368.7983135339
 11
377.4314479588
 21
369.2508736673
  0
LINE
  5
33F
100
AcDbEntity
  8
0
100
AcDbLine
 62
7
  6
BYLAYER
 10
378.9314479588
 20
366.9005779206
 11
378.9314479588
 21
365.9075340975
  0
LINE
  5
340
100
AcDbEntity
  8
0
100
AcDbLine
 62
7
  6
BYLAYER
 10
381.9314479588
 20
357.6508736674
 11
381.9314479588
 21
352.4508736674
  0
LINE
  5
341
100
AcDbEntity
  8
0
100
AcDbLine
 62
7
  6
BYLAYER
 10
384.9314479588
 20
357.3816837542
 11
384.9314479588
 21
357.6508736674
  0
LINE
  5
342
100
AcDbEntity
  8
0
100
AcDbLine
 62
7
  6
BYLAYER
 10
378.9314664628
 20
366.9048021229
 11
378.9314479588
 21
366.9005779206
  0
LINE
  5
343
100
AcDbEntity
  8
0
100
AcDbLine
 62
7
  6
BYLAYER
 10
378.9658295225
 20
367.1034362622
 11
378.9658909639
 21
367.1045355965
  0
LINE
  5
344
100
AcDbEntity
  8
0
100
AcDbLine
 62
7
  6
BYLAYER
 10
378.9557643876
 20
367.1246252526
 11
378.9323979908
 21
366.9042025701
  0
LINE
  5
345
100
AcDbEntity
  8
0
100
AcDbLine
 62
7
  6
BYLAYER
 10
66.8843100346
 20
441.6295098743
 11
67.1627734062
 21
441.6770528152
  0
LWPOLYLINE
  5
346
100
AcDbEntity
  8
0
100
AcDbPolyline
 62
7
  6
BYLAYER
 90
5
 70
0
 10
340.4618107565
 20
445.5287467314
 10
329.7175204029
 20
449.0850579956
 10
301.7247439099
 20
452.4743689376
 10
273.5259982706
 20
449.1769994194
 10
262.4643540056
 20
445.5357350955
  0
LINE
  5
347
100
AcDbEntity
  8
0
100
AcDbLine
 62
7
  6
BYLAYER
 10
387.9300452157
 20
366.9065946645
 11
387.9089615661
 21
367.115226758
  0
LWPOLYLINE
  5
348
100
AcDbEntity
  8
0
100
AcDbPolyline
 62
7
  6
BYLAYER
 90
3
 70
0
 10
394.4285857276
 20
368.4971815195
 10
394.4203306108
 20
368.6009614354
 10
394.2911939646
 20
368.924471139
  0
LINE
  5
349
100
AcDbEntity
  8
0
100
AcDbLine
 62
7
  6
BYLAYER
 10
387.9314479588
 20
366.9005170729
 11
387.931404862
 21
366.906964887
  0
LINE
  5
34A
100
AcDbEntity
  8
0
100
AcDbLine
 62
7
  6
BYLAYER
 10
386.9314479588
 20
356.214456935
 11
386.9314479588
 21
352.4508736674
  0
LINE
  5
34B
100
AcDbEntity
  8
0
100
AcDbLine
 62
7
  6
BYLAYER
 10
387.9314479588
 20
366.9005170729
 11
387.9314479588
 21
365.9145513188
  0
LINE
  5
34C
100
AcDbEntity
  8
0
100
AcDbLine
 62
7
  6
BYLAYER
 10
389.4314479588
 20
369.2508736673
 11
389.4314479588
 21
368.7983135339
  0
LINE
  5
34D
100
AcDbEntity
  8
0
100
AcDbLine
 62
7
  6
BYLAYER
 10
394.2314479588
 20
362.9026393468
 11
394.2314479588
 21
356.214456935
  0
LINE
  5
34E
100
AcDbEntity
  8
0
100
AcDbLine
 62
7
  6
BYLAYER
 10
394.4314479588
 20
368.4971721918
 11
394.4314479588
 21
363.1280433943
  0
LINE
  5
34F
100
AcDbEntity
  8
0
100
AcDbLine
 62
7
  6
BYLAYER
 10
396.2314479588
 20
363.6356418002
 11
396.2314479588
 21
360.8443890963
  0
LINE
  5
350
100
AcDbEntity
  8
0
100
AcDbLine
 62
7
  6
BYLAYER
 10
387.8491269568
 20
367.3114569525
 11
387.8559779159
 21
367.2945277337
  0
LINE
  5
351
100
AcDbEntity
  8
0
100
AcDbLine
 62
7
  6
BYLAYER
 10
387.9089615661
 20
367.115226758
 11
387.8559779159
 21
367.2945277337
  0
LINE
  5
352
100
AcDbEntity
  8
0
100
AcDbLine
 62
7
  6
BYLAYER
 10
405.9314479588
 20
201.4508736675
 11
405.9314479588
 21
204.4508736675
  0
LINE
  5
353
100
AcDbEntity
  8
0
100
AcDbLine
 62
7
  6
BYLAYER
 10
416.2314479588
 20
360.8443890963
 11
416.2314479588
 21
363.6356418002
  0
LINE
  5
354
100
AcDbEntity
  8
0
100
AcDbLine
 62
7
  6
BYLAYER
 10
418.2314479588
 20
352.4508736674
 11
418.2314479588
 21
362.9026393468
  0
LINE
  5
355
100
AcDbEntity
  8
0
100
AcDbLine
 62
7
  6
BYLAYER
 10
418.4314479586
 20
352.4508736674
 11
418.4314479588
 21
204.4508736675
  0
ARC
  5
356
100
AcDbEntity
  8
0
100
AcDbCircle
 62
7
  6
BYLAYER
 10
115.6423816121
 20
158.7840552016
 40
287.0169341879
100
AcDbArc
 50
98.7083114914
 51
99.7243647088
  0
ARC
  5
357
100
AcDbEntity
  8
0
100
AcDbCircle
 62
7
  6
BYLAYER
 10
303.6423816121
 20
158.7840552015
 40
287.0169341876
100
AcDbArc
 50
98.7083114914
 51
99.7243647088
  0
ARC
  5
358
100
AcDbEntity
  8
0
100
AcDbCircle
 62
7
  6
BYLAYER
 10
209.6423816119
 20
158.7840552027
 40
287.0169341866
100
AcDbArc
 50
98.7083114914
 51
99.7243647088
  0
ARC
  5
359
100
AcDbEntity
  8
0
100
AcDbCircle
 62
7
  6
BYLAYER
 10
112.4614456885
 20
163.8030392442
 40
281.8650934013
100
AcDbArc
 50
80.3556369092
 51
81.6215515229
  0
ARC
  5
35A
100
AcDbEntity
  8
0
100
AcDbCircle
 62
7
  6
BYLAYER
 10
206.4614456888
 20
163.8030392456
 40
281.8650933997
100
AcDbArc
 50
80.3556369092
 51
81.6215515229
  0
ARC
  5
35B
100
AcDbEntity
  8
0
100
AcDbCircle
 62
7
  6
BYLAYER
 10
300.4614456888
 20
163.8030392454
 40
281.8650933997
100
AcDbArc
 50
80.3556369092
 51
81.6215515229
  0
ARC
  5
35C
100
AcDbEntity
  8
0
100
AcDbCircle
 62
7
  6
BYLAYER
 10
300.5082875541
 20
177.6104021511
 40
267.9332179468
100
AcDbArc
 50
98.3943422029
 51
98.6553690098
  0
ARC
  5
35D
100
AcDbEntity
  8
0
100
AcDbCircle
 62
7
  6
BYLAYER
 10
206.5082875521
 20
177.6104021641
 40
267.9332179338
100
AcDbArc
 50
98.3943422029
 51
98.6553690098
  0
ARC
  5
35E
100
AcDbEntity
  8
0
100
AcDbCircle
 62
7
  6
BYLAYER
 10
112.508287552
 20
177.6104021655
 40
267.9332179326
100
AcDbArc
 50
98.3943422029
 51
98.6553690098
  0
ARC
  5
35F
100
AcDbEntity
  8
0
100
AcDbCircle
 62
7
  6
BYLAYER
 10
113.4314479664
 20
191.4899209615
 40
257.4622149749
100
AcDbArc
 50
79.5608230932
 51
100.4391769099
  0
ARC
  5
360
100
AcDbEntity
  8
0
100
AcDbCircle
 62
7
  6
BYLAYER
 10
207.4314479664
 20
191.4899209614
 40
257.4622149749
100
AcDbArc
 50
79.5608230932
 51
100.4391769099
  0
ARC
  5
361
100
AcDbEntity
  8
0
100
AcDbCircle
 62
7
  6
BYLAYER
 10
301.4314479664
 20
191.4899209612
 40
257.4622149749
100
AcDbArc
 50
79.5608230932
 51
100.4391769099
  0
ARC
  5
362
100
AcDbEntity
  8
0
100
AcDbCircle
 62
7
  6
BYLAYER
 10
113.4318909868
 20
216.2671291617
 40
224.9536633988
100
AcDbArc
 50
79.7284234936
 51
100.2718140921
  0
ARC
  5
363
100
AcDbEntity
  8
0
100
AcDbCircle
 62
7
  6
BYLAYER
 10
207.4318909868
 20
216.2671291616
 40
224.9536633988
100
AcDbArc
 50
79.7284234936
 51
100.2718140921
  0
ARC
  5
364
100
AcDbEntity
  8
0
100
AcDbCircle
 62
7
  6
BYLAYER
 10
301.4318909868
 20
216.2671291614
 40
224.9536633988
100
AcDbArc
 50
79.7284234936
 51
100.2718140921
  0
ARC
  5
365
100
AcDbEntity
  8
0
100
AcDbCircle
 62
7
  6
BYLAYER
 10
113.4314479593
 20
332.8498257391
 40
118.1900650402
100
AcDbArc
 50
76.0398140636
 51
103.9600483944
  0
ARC
  5
366
100
AcDbEntity
  8
0
100
AcDbCircle
 62
7
  6
BYLAYER
 10
207.4314479593
 20
332.849825739
 40
118.1900650402
100
AcDbArc
 50
76.0398140636
 51
103.9600483944
  0
ARC
  5
367
100
AcDbEntity
  8
0
100
AcDbCircle
 62
7
  6
BYLAYER
 10
301.4314479593
 20
332.8498257388
 40
118.1900650402
100
AcDbArc
 50
76.0398140636
 51
103.9600483944
  0
ARC
  5
368
100
AcDbEntity
  8
0
100
AcDbCircle
 62
7
  6
BYLAYER
 10
66.0226409338
 20
438.7576355713
 40
2.9983554912
100
AcDbArc
 50
73.298800806
 51
75.3404858254
  0
ARC
  5
369
100
AcDbEntity
  8
0
100
AcDbCircle
 62
7
  6
BYLAYER
 10
160.0226409338
 20
438.7576355709
 40
2.9983554914
100
AcDbArc
 50
73.298800806
 51
75.3404858253
  0
ARC
  5
36A
100
AcDbEntity
  8
0
100
AcDbCircle
 62
7
  6
BYLAYER
 10
254.0226409339
 20
438.7576355712
 40
2.998355491
100
AcDbArc
 50
73.2988008059
 51
75.3404858254
  0
ARC
  5
36B
100
AcDbEntity
  8
0
100
AcDbCircle
 62
7
  6
BYLAYER
 10
378.7490584393
 20
367.1160574777
 40
0.217101156
100
AcDbArc
 50
356.9636706259
 51
5.0128523628
  0
SPLINE
  5
36C
100
AcDbEntity
  8
0
100
AcDbSpline
 62
7
  6
BYLAYER
 70
0
 71
3
 72
9
 73
5
 74
0
 42
0.0000001
 43
0.0000001
 44
0.0000000001
 40
0.0
 40
0.0
 40
0.0
 40
0.0
 40
0.2472294934
 40
1.0
 40
1.0
 40
1.0
 40
1.0
 10
69.1474528227
 20
434.8835639779
 30
0.0
 10
69.1443574398
 20
434.9718297913
 30
0.0
 10
69.1087769471
 20
435.3278440688
 30
0.0
 10
68.9793637246
 20
435.6730450967
 30
0.0
 10
68.841718419
 20
435.9040673472
 30
0.0
  0
SPLINE
  5
36D
100
AcDbEntity
  8
0
100
AcDbSpline
 62
7
  6
BYLAYER
 70
0
 71
3
 72
8
 73
4
 74
0
 42
0.0000001
 43
0.0000001
 44
0.0000000001
 40
0.0
 40
0.0
 40
0.0
 40
0.0
 40
1.0
 40
1.0
 40
1.0
 40
1.0
 10
160.0814479703
 20
441.6583850497
 30
0.0
 10
160.0502822008
 20
441.6501970522
 30
0.0
 10
160.0192023879
 20
441.641648302
 30
0.0
 10
159.988348218
 20
441.6323548264
 30
0.0
  0
SPLINE
  5
36E
100
AcDbEntity
  8
0
100
AcDbSpline
 62
7
  6
BYLAYER
 70
0
 71
3
 72
9
 73
5
 74
0
 42
0.0000001
 43
0.0000001
 44
0.0000000001
 40
0.0
 40
0.0
 40
0.0
 40
0.0
 40
0.4998926602
 40
1.0
 40
1.0
 40
1.0
 40
1.0
 10
67.1691315634
 20
441.6911032449
 30
0.0
 10
67.6905799327
 20
441.4673721426
 30
0.0
 10
68.6215515183
 20
440.6987935863
 30
0.0
 10
68.9841950698
 20
439.5515779848
 30
0.0
 10
69.0042481486
 20
438.9842698876
 30
0.0
  0
SPLINE
  5
36F
100
AcDbEntity
  8
0
100
AcDbSpline
 62
7
  6
BYLAYER
 70
0
 71
3
 72
10
 73
6
 74
0
 42
0.0000001
 43
0.0000001
 44
0.0000000001
 40
0.0
 40
0.0
 40
0.0
 40
0.0
 40
0.49981688
 40
0.7499180948
 40
1.0
 40
1.0
 40
1.0
 40
1.0
 10
73.3939656377
 20
442.6731854695
 30
0.0
 10
86.6421062587
 20
444.6281734505
 30
0.0
 10
106.7775812313
 20
446.0772283352
 30
0.0
 10
133.5676016787
 20
445.1117584223
 30
0.0
 10
146.9033036049
 20
443.6360329958
 30
0.0
 10
153.5322644838
 20
442.6598460852
 30
0.0
  0
SPLINE
  5
370
100
AcDbEntity
  8
0
100
AcDbSpline
 62
7
  6
BYLAYER
 70
0
 71
3
 72
8
 73
4
 74
0
 42
0.0000001
 43
0.0000001
 44
0.0000000001
 40
0.0
 40
0.0
 40
0.0
 40
0.0
 40
1.0
 40
1.0
 40
1.0
 40
1.0
 10
68.3058842026
 20
436.7508146542
 30
0.0
 10
68.5249315149
 20
436.4986628466
 30
0.0
 10
68.7054744205
 20
436.2090411717
 30
0.0
 10
68.8416758116
 20
435.9040634017
 30
0.0
  0
SPLINE
  5
371
100
AcDbEntity
  8
0
100
AcDbSpline
 62
7
  6
BYLAYER
 70
0
 71
3
 72
9
 73
5
 74
0
 42
0.0000001
 43
0.0000001
 44
0.0000000001
 40
0.0
 40
0.0
 40
0.0
 40
0.0
 40
0.2558800107
 40
1.0
 40
1.0
 40
1.0
 40
1.0
 10
158.0212288692
 20
435.9040672729
 30
0.0
 10
157.9744421645
 20
435.8255437055
 30
0.0
 10
157.8096913858
 20
435.5082904364
 30
0.0
 10
157.7247688946
 20
435.1492107851
 30
0.0
 10
157.7154674173
 20
434.8835592125
 30
0.0
  0
SPLINE
  5
372
100
AcDbEntity
  8
0
100
AcDbSpline
 62
7
  6
BYLAYER
 70
0
 71
3
 72
9
 73
5
 74
0
 42
0.0000001
 43
0.0000001
 44
0.0000000001
 40
0.0
 40
0.0
 40
0.0
 40
0.0
 40
0.5000927135
 40
1.0
 40
1.0
 40
1.0
 40
1.0
 10
157.8586476627
 20
438.9842697151
 30
0.0
 10
157.8783293575
 20
439.5472729455
 30
0.0
 10
158.235892863
 20
440.6854985341
 30
0.0
 10
159.1536572577
 20
441.4536570505
 30
0.0
 10
159.6691296668
 20
441.6804011814
 30
0.0
  0
SPLINE
  5
373
100
AcDbEntity
  8
0
100
AcDbSpline
 62
7
  6
BYLAYER
 70
0
 71
3
 72
8
 73
4
 74
0
 42
0.0000001
 43
0.0000001
 44
0.0000000001
 40
0.0
 40
0.0
 40
0.0
 40
0.0
 40
1.0
 40
1.0
 40
1.0
 40
1.0
 10
158.0212183396
 20
435.9040633367
 30
0.0
 10
158.1574237165
 20
436.2090397785
 30
0.0
 10
158.3379647512
 20
436.4986620983
 30
0.0
 10
158.5570109466
 20
436.7508154227
 30
0.0
  0
SPLINE
  5
374
100
AcDbEntity
  8
0
100
AcDbSpline
 62
7
  6
BYLAYER
 70
0
 71
3
 72
9
 73
5
 74
0
 42
0.0000001
 43
0.0000001
 44
0.0000000001
 40
0.0
 40
0.0
 40
0.0
 40
0.0
 40
0.500163745
 40
1.0
 40
1.0
 40
1.0
 40
1.0
 10
158.5570109466
 20
436.7508154227
 30
0.0
 10
158.7557141243
 20
436.9795510404
 30
0.0
 10
159.2193642109
 20
437.3843269266
 30
0.0
 10
159.7872674497
 20
437.6280733458
 30
0.0
 10
160.0814086656
 20
437.6999322438
 30
0.0
  0
SPLINE
  5
375
100
AcDbEntity
  8
0
100
AcDbSpline
 62
7
  6
BYLAYER
 70
0
 71
3
 72
9
 73
5
 74
0
 42
0.0000001
 43
0.0000001
 44
0.0000000001
 40
0.0
 40
0.0
 40
0.0
 40
0.0
 40
0.2504184889
 40
1.0
 40
1.0
 40
1.0
 40
1.0
 10
160.0814479596
 20
443.7676353583
 30
0.0
 10
152.3852479176
 20
445.0898923249
 30
0.0
 10
121.4360032383
 20
449.0226066681
 30
0.0
 10
89.8186044202
 20
447.7255522915
 30
0.0
 10
66.781447959
 20
443.7676353583
 30
0.0
  0
SPLINE
  5
376
100
AcDbEntity
  8
0
100
AcDbSpline
 62
7
  6
BYLAYER
 70
0
 71
3
 72
9
 73
5
 74
0
 42
0.0000001
 43
0.0000001
 44
0.0000000001
 40
0.0
 40
0.0
 40
0.0
 40
0.0
 40
0.4998660233
 40
1.0
 40
1.0
 40
1.0
 40
1.0
 10
66.7814872486
 20
437.6999317124
 30
0.0
 10
67.0756449746
 20
437.6280682931
 30
0.0
 10
67.6435318704
 20
437.3842892434
 30
0.0
 10
68.1071921976
 20
436.9795348686
 30
0.0
 10
68.3058842027
 20
436.7508146542
 30
0.0
  0
SPLINE
  5
377
100
AcDbEntity
  8
0
100
AcDbSpline
 62
7
  6
BYLAYER
 70
0
 71
3
 72
9
 73
5
 74
0
 42
0.0000001
 43
0.0000001
 44
0.0000000001
 40
0.0
 40
0.0
 40
0.0
 40
0.0
 40
0.4999999956
 40
1.0
 40
1.0
 40
1.0
 40
1.0
 10
84.6655933767
 20
447.1469414474
 30
0.0
 10
94.04757473
 20
449.5078689625
 30
0.0
 10
113.4697852386
 20
451.9199437537
 30
0.0
 10
132.8904384002
 20
449.4953636601
 30
0.0
 10
142.2708979983
 20
447.1283964358
 30
0.0
  0
SPLINE
  5
378
100
AcDbEntity
  8
0
100
AcDbSpline
 62
7
  6
BYLAYER
 70
0
 71
3
 72
9
 73
5
 74
0
 42
0.0000001
 43
0.0000001
 44
0.0000000001
 40
0.0
 40
0.0
 40
0.0
 40
0.0
 40
0.2472294934
 40
1.0
 40
1.0
 40
1.0
 40
1.0
 10
163.1474528227
 20
434.8835639778
 30
0.0
 10
163.1443574398
 20
434.9718297912
 30
0.0
 10
163.1087769471
 20
435.3278440687
 30
0.0
 10
162.9793637246
 20
435.6730450966
 30
0.0
 10
162.841718419
 20
435.9040673471
 30
0.0
  0
SPLINE
  5
379
100
AcDbEntity
  8
0
100
AcDbSpline
 62
7
  6
BYLAYER
 70
0
 71
3
 72
8
 73
4
 74
0
 42
0.0000001
 43
0.0000001
 44
0.0000000001
 40
0.0
 40
0.0
 40
0.0
 40
0.0
 40
1.0
 40
1.0
 40
1.0
 40
1.0
 10
254.0814479703
 20
441.6583850496
 30
0.0
 10
254.0502822008
 20
441.6501970521
 30
0.0
 10
254.0192023879
 20
441.6416483019
 30
0.0
 10
253.988348218
 20
441.6323548263
 30
0.0
  0
SPLINE
  5
37A
100
AcDbEntity
  8
0
100
AcDbSpline
 62
7
  6
BYLAYER
 70
0
 71
3
 72
9
 73
5
 74
0
 42
0.0000001
 43
0.0000001
 44
0.0000000001
 40
0.0
 40
0.0
 40
0.0
 40
0.0
 40
0.4998926602
 40
1.0
 40
1.0
 40
1.0
 40
1.0
 10
161.1691315634
 20
441.6911032448
 30
0.0
 10
161.6905799327
 20
441.4673721425
 30
0.0
 10
162.6215515183
 20
440.6987935862
 30
0.0
 10
162.9841950698
 20
439.5515779847
 30
0.0
 10
163.0042481486
 20
438.9842698875
 30
0.0
  0
SPLINE
  5
37B
100
AcDbEntity
  8
0
100
AcDbSpline
 62
7
  6
BYLAYER
 70
0
 71
3
 72
10
 73
6
 74
0
 42
0.0000001
 43
0.0000001
 44
0.0000000001
 40
0.0
 40
0.0
 40
0.0
 40
0.0
 40
0.49981688
 40
0.7499180948
 40
1.0
 40
1.0
 40
1.0
 40
1.0
 10
167.3939656377
 20
442.6731854694
 30
0.0
 10
180.6421062587
 20
444.6281734504
 30
0.0
 10
200.7775812313
 20
446.0772283351
 30
0.0
 10
227.5676016787
 20
445.1117584222
 30
0.0
 10
240.9033036049
 20
443.6360329957
 30
0.0
 10
247.5322644838
 20
442.6598460851
 30
0.0
  0
SPLINE
  5
37C
100
AcDbEntity
  8
0
100
AcDbSpline
 62
7
  6
BYLAYER
 70
0
 71
3
 72
8
 73
4
 74
0
 42
0.0000001
 43
0.0000001
 44
0.0000000001
 40
0.0
 40
0.0
 40
0.0
 40
0.0
 40
1.0
 40
1.0
 40
1.0
 40
1.0
 10
162.3058842026
 20
436.7508146541
 30
0.0
 10
162.5249315149
 20
436.4986628465
 30
0.0
 10
162.7054744205
 20
436.2090411716
 30
0.0
 10
162.8416758116
 20
435.9040634016
 30
0.0
  0
SPLINE
  5
37D
100
AcDbEntity
  8
0
100
AcDbSpline
 62
7
  6
BYLAYER
 70
0
 71
3
 72
9
 73
5
 74
0
 42
0.0000001
 43
0.0000001
 44
0.0000000001
 40
0.0
 40
0.0
 40
0.0
 40
0.0
 40
0.2558800107
 40
1.0
 40
1.0
 40
1.0
 40
1.0
 10
252.0212288692
 20
435.9040672728
 30
0.0
 10
251.9744421645
 20
435.8255437054
 30
0.0
 10
251.8096913858
 20
435.5082904363
 30
0.0
 10
251.7247688946
 20
435.149210785
 30
0.0
 10
251.7154674173
 20
434.8835592124
 30
0.0
  0
SPLINE
  5
37E
100
AcDbEntity
  8
0
100
AcDbSpline
 62
7
  6
BYLAYER
 70
0
 71
3
 72
9
 73
5
 74
0
 42
0.0000001
 43
0.0000001
 44
0.0000000001
 40
0.0
 40
0.0
 40
0.0
 40
0.0
 40
0.5000927135
 40
1.0
 40
1.0
 40
1.0
 40
1.0
 10
251.8586476627
 20
438.984269715
 30
0.0
 10
251.8783293575
 20
439.5472729454
 30
0.0
 10
252.235892863
 20
440.685498534
 30
0.0
 10
253.1536572577
 20
441.4536570504
 30
0.0
 10
253.6691296668
 20
441.6804011813
 30
0.0
  0
SPLINE
  5
37F
100
AcDbEntity
  8
0
100
AcDbSpline
 62
7
  6
BYLAYER
 70
0
 71
3
 72
8
 73
4
 74
0
 42
0.0000001
 43
0.0000001
 44
0.0000000001
 40
0.0
 40
0.0
 40
0.0
 40
0.0
 40
1.0
 40
1.0
 40
1.0
 40
1.0
 10
252.0212183396
 20
435.9040633366
 30
0.0
 10
252.1574237165
 20
436.2090397784
 30
0.0
 10
252.3379647512
 20
436.4986620982
 30
0.0
 10
252.5570109466
 20
436.7508154226
 30
0.0
  0
SPLINE
  5
380
100
AcDbEntity
  8
0
100
AcDbSpline
 62
7
  6
BYLAYER
 70
0
 71
3
 72
9
 73
5
 74
0
 42
0.0000001
 43
0.0000001
 44
0.0000000001
 40
0.0
 40
0.0
 40
0.0
 40
0.0
 40
0.500163745
 40
1.0
 40
1.0
 40
1.0
 40
1.0
 10
252.5570109466
 20
436.7508154226
 30
0.0
 10
252.7557141243
 20
436.9795510403
 30
0.0
 10
253.2193642109
 20
437.3843269265
 30
0.0
 10
253.7872674497
 20
437.6280733457
 30
0.0
 10
254.0814086656
 20
437.6999322437
 30
0.0
  0
SPLINE
  5
381
100
AcDbEntity
  8
0
100
AcDbSpline
 62
7
  6
BYLAYER
 70
0
 71
3
 72
9
 73
5
 74
0
 42
0.0000001
 43
0.0000001
 44
0.0000000001
 40
0.0
 40
0.0
 40
0.0
 40
0.0
 40
0.2504184889
 40
1.0
 40
1.0
 40
1.0
 40
1.0
 10
254.0814479596
 20
443.7676353582
 30
0.0
 10
246.3852479176
 20
445.0898923248
 30
0.0
 10
215.4360032383
 20
449.022606668
 30
0.0
 10
183.8186044202
 20
447.7255522914
 30
0.0
 10
160.781447959
 20
443.7676353582
 30
0.0
  0
SPLINE
  5
382
100
AcDbEntity
  8
0
100
AcDbSpline
 62
7
  6
BYLAYER
 70
0
 71
3
 72
9
 73
5
 74
0
 42
0.0000001
 43
0.0000001
 44
0.0000000001
 40
0.0
 40
0.0
 40
0.0
 40
0.0
 40
0.4998660233
 40
1.0
 40
1.0
 40
1.0
 40
1.0
 10
160.7814872486
 20
437.6999317123
 30
0.0
 10
161.0756449746
 20
437.628068293
 30
0.0
 10
161.6435318704
 20
437.3842892433
 30
0.0
 10
162.1071921976
 20
436.9795348685
 30
0.0
 10
162.3058842027
 20
436.7508146541
 30
0.0
  0
SPLINE
  5
383
100
AcDbEntity
  8
0
100
AcDbSpline
 62
7
  6
BYLAYER
 70
0
 71
3
 72
9
 73
5
 74
0
 42
0.0000001
 43
0.0000001
 44
0.0000000001
 40
0.0
 40
0.0
 40
0.0
 40
0.0
 40
0.4999999956
 40
1.0
 40
1.0
 40
1.0
 40
1.0
 10
178.6655933767
 20
447.1469414473
 30
0.0
 10
188.04757473
 20
449.5078689624
 30
0.0
 10
207.4697852386
 20
451.9199437536
 30
0.0
 10
226.8904384002
 20
449.49536366
 30
0.0
 10
236.2708979983
 20
447.1283964357
 30
0.0
  0
SPLINE
  5
384
100
AcDbEntity
  8
0
100
AcDbSpline
 62
7
  6
BYLAYER
 70
0
 71
3
 72
9
 73
5
 74
0
 42
0.0000001
 43
0.0000001
 44
0.0000000001
 40
0.0
 40
0.0
 40
0.0
 40
0.0
 40
0.2472294934
 40
1.0
 40
1.0
 40
1.0
 40
1.0
 10
257.1474528227
 20
434.8835639776
 30
0.0
 10
257.1443574398
 20
434.971829791
 30
0.0
 10
257.1087769471
 20
435.3278440685
 30
0.0
 10
256.9793637246
 20
435.6730450964
 30
0.0
 10
256.841718419
 20
435.9040673469
 30
0.0
  0
SPLINE
  5
385
100
AcDbEntity
  8
0
100
AcDbSpline
 62
7
  6
BYLAYER
 70
0
 71
3
 72
8
 73
4
 74
0
 42
0.0000001
 43
0.0000001
 44
0.0000000001
 40
0.0
 40
0.0
 40
0.0
 40
0.0
 40
1.0
 40
1.0
 40
1.0
 40
1.0
 10
348.0814479703
 20
441.6583850494
 30
0.0
 10
348.0502822008
 20
441.6501970519
 30
0.0
 10
348.0192023879
 20
441.6416483017
 30
0.0
 10
347.988348218
 20
441.6323548261
 30
0.0
  0
SPLINE
  5
386
100
AcDbEntity
  8
0
100
AcDbSpline
 62
7
  6
BYLAYER
 70
0
 71
3
 72
9
 73
5
 74
0
 42
0.0000001
 43
0.0000001
 44
0.0000000001
 40
0.0
 40
0.0
 40
0.0
 40
0.0
 40
0.4998926602
 40
1.0
 40
1.0
 40
1.0
 40
1.0
 10
255.1691315634
 20
441.6911032446
 30
0.0
 10
255.6905799327
 20
441.4673721423
 30
0.0
 10
256.6215515183
 20
440.698793586
 30
0.0
 10
256.9841950698
 20
439.5515779845
 30
0.0
 10
257.0042481486
 20
438.9842698873
 30
0.0
  0
SPLINE
  5
387
100
AcDbEntity
  8
0
100
AcDbSpline
 62
7
  6
BYLAYER
 70
0
 71
3
 72
10
 73
6
 74
0
 42
0.0000001
 43
0.0000001
 44
0.0000000001
 40
0.0
 40
0.0
 40
0.0
 40
0.0
 40
0.49981688
 40
0.7499180948
 40
1.0
 40
1.0
 40
1.0
 40
1.0
 10
261.3939656377
 20
442.6731854692
 30
0.0
 10
274.6421062587
 20
444.6281734502
 30
0.0
 10
294.7775812313
 20
446.0772283349
 30
0.0
 10
321.5676016787
 20
445.111758422
 30
0.0
 10
334.9033036049
 20
443.6360329955
 30
0.0
 10
341.5322644838
 20
442.6598460849
 30
0.0
  0
SPLINE
  5
388
100
AcDbEntity
  8
0
100
AcDbSpline
 62
7
  6
BYLAYER
 70
0
 71
3
 72
8
 73
4
 74
0
 42
0.0000001
 43
0.0000001
 44
0.0000000001
 40
0.0
 40
0.0
 40
0.0
 40
0.0
 40
1.0
 40
1.0
 40
1.0
 40
1.0
 10
256.3058842026
 20
436.7508146539
 30
0.0
 10
256.5249315149
 20
436.4986628463
 30
0.0
 10
256.7054744205
 20
436.2090411714
 30
0.0
 10
256.8416758116
 20
435.9040634014
 30
0.0
  0
SPLINE
  5
389
100
AcDbEntity
  8
0
100
AcDbSpline
 62
7
  6
BYLAYER
 70
0
 71
3
 72
9
 73
5
 74
0
 42
0.0000001
 43
0.0000001
 44
0.0000000001
 40
0.0
 40
0.0
 40
0.0
 40
0.0
 40
0.2558800107
 40
1.0
 40
1.0
 40
1.0
 40
1.0
 10
346.0212288692
 20
435.9040672726
 30
0.0
 10
345.9744421645
 20
435.8255437052
 30
0.0
 10
345.8096913858
 20
435.5082904361
 30
0.0
 10
345.7247688946
 20
435.1492107848
 30
0.0
 10
345.7154674173
 20
434.8835592122
 30
0.0
  0
SPLINE
  5
38A
100
AcDbEntity
  8
0
100
AcDbSpline
 62
7
  6
BYLAYER
 70
0
 71
3
 72
9
 73
5
 74
0
 42
0.0000001
 43
0.0000001
 44
0.0000000001
 40
0.0
 40
0.0
 40
0.0
 40
0.0
 40
0.5000927135
 40
1.0
 40
1.0
 40
1.0
 40
1.0
 10
345.8586476627
 20
438.9842697148
 30
0.0
 10
345.8783293575
 20
439.5472729452
 30
0.0
 10
346.235892863
 20
440.6854985338
 30
0.0
 10
347.1536572577
 20
441.4536570502
 30
0.0
 10
347.6691296668
 20
441.6804011811
 30
0.0
  0
SPLINE
  5
38B
100
AcDbEntity
  8
0
100
AcDbSpline
 62
7
  6
BYLAYER
 70
0
 71
3
 72
8
 73
4
 74
0
 42
0.0000001
 43
0.0000001
 44
0.0000000001
 40
0.0
 40
0.0
 40
0.0
 40
0.0
 40
1.0
 40
1.0
 40
1.0
 40
1.0
 10
346.0212183396
 20
435.9040633364
 30
0.0
 10
346.1574237165
 20
436.2090397782
 30
0.0
 10
346.3379647512
 20
436.498662098
 30
0.0
 10
346.5570109466
 20
436.7508154224
 30
0.0
  0
SPLINE
  5
38C
100
AcDbEntity
  8
0
100
AcDbSpline
 62
7
  6
BYLAYER
 70
0
 71
3
 72
9
 73
5
 74
0
 42
0.0000001
 43
0.0000001
 44
0.0000000001
 40
0.0
 40
0.0
 40
0.0
 40
0.0
 40
0.500163745
 40
1.0
 40
1.0
 40
1.0
 40
1.0
 10
346.5570109466
 20
436.7508154224
 30
0.0
 10
346.7557141243
 20
436.9795510401
 30
0.0
 10
347.2193642109
 20
437.3843269263
 30
0.0
 10
347.7872674497
 20
437.6280733455
 30
0.0
 10
348.0814086656
 20
437.6999322435
 30
0.0
  0
SPLINE
  5
38D
100
AcDbEntity
  8
0
100
AcDbSpline
 62
7
  6
BYLAYER
 70
0
 71
3
 72
9
 73
5
 74
0
 42
0.0000001
 43
0.0000001
 44
0.0000000001
 40
0.0
 40
0.0
 40
0.0
 40
0.0
 40
0.2504184889
 40
1.0
 40
1.0
 40
1.0
 40
1.0
 10
348.0814479596
 20
443.767635358
 30
0.0
 10
340.3852479176
 20
445.0898923246
 30
0.0
 10
309.4360032383
 20
449.0226066678
 30
0.0
 10
277.8186044202
 20
447.7255522912
 30
0.0
 10
254.781447959
 20
443.767635358
 30
0.0
  0
SPLINE
  5
38E
100
AcDbEntity
  8
0
100
AcDbSpline
 62
7
  6
BYLAYER
 70
0
 71
3
 72
9
 73
5
 74
0
 42
0.0000001
 43
0.0000001
 44
0.0000000001
 40
0.0
 40
0.0
 40
0.0
 40
0.0
 40
0.4998660233
 40
1.0
 40
1.0
 40
1.0
 40
1.0
 10
254.7814872486
 20
437.6999317121
 30
0.0
 10
255.0756449746
 20
437.6280682928
 30
0.0
 10
255.6435318704
 20
437.3842892431
 30
0.0
 10
256.1071921976
 20
436.9795348683
 30
0.0
 10
256.3058842027
 20
436.7508146539
 30
0.0
  0
SPLINE
  5
38F
100
AcDbEntity
  8
0
100
AcDbSpline
 62
7
  6
BYLAYER
 70
0
 71
3
 72
9
 73
5
 74
0
 42
0.0000001
 43
0.0000001
 44
0.0000000001
 40
0.0
 40
0.0
 40
0.0
 40
0.0
 40
0.4999999956
 40
1.0
 40
1.0
 40
1.0
 40
1.0
 10
272.6655933767
 20
447.1469414471
 30
0.0
 10
282.04757473
 20
449.5078689622
 30
0.0
 10
301.4697852386
 20
451.9199437534
 30
0.0
 10
320.8904384002
 20
449.4953636598
 30
0.0
 10
330.2708979983
 20
447.1283964355
 30
0.0
  0
SPLINE
  5
390
100
AcDbEntity
  8
0
100
AcDbSpline
 62
7
  6
BYLAYER
 70
0
 71
3
 72
12
 73
8
 74
0
 42
0.0000001
 43
0.0000001
 44
0.0000000001
 40
0.0
 40
0.0
 40
0.0
 40
0.0
 40
0.3409494601
 40
0.6376322796
 40
0.7586578987
 40
0.8581970027
 40
1.0
 40
1.0
 40
1.0
 40
1.0
 10
396.2314479587
 20
363.6356418002
 30
0.0
 10
395.97561549
 20
363.6356418002
 30
0.0
 10
395.4966369368
 20
363.6022442833
 30
0.0
 10
394.9375564024
 20
363.478890579
 30
0.0
 10
394.5789729088
 20
363.3226019288
 30
0.0
 10
394.3520741998
 20
363.1791272961
 30
0.0
 10
394.2314479588
 20
363.0090416589
 30
0.0
 10
394.2314479588
 20
362.9026393468
 30
0.0
  0
SPLINE
  5
391
100
AcDbEntity
  8
0
100
AcDbSpline
 62
7
  6
BYLAYER
 70
0
 71
3
 72
12
 73
8
 74
0
 42
0.0000001
 43
0.0000001
 44
0.0000000001
 40
0.0
 40
0.0
 40
0.0
 40
0.0
 40
0.1418031614
 40
0.2413423752
 40
0.3623680439
 40
0.659050853
 40
1.0
 40
1.0
 40
1.0
 40
1.0
 10
418.2314479588
 20
362.9026393468
 30
0.0
 10
418.2314479588
 20
363.0090417811
 30
0.0
 10
418.1108214598
 20
363.1791275705
 30
0.0
 10
417.8839224833
 20
363.3226021982
 30
0.0
 10
417.5253388402
 20
363.4788907798
 30
0.0
 10
416.9662584944
 20
363.6022443261
 30
0.0
 10
416.4872801903
 20
363.6356418003
 30
0.0
 10
416.2314479589
 20
363.6356418003
 30
0.0
  0
SPLINE
  5
392
100
AcDbEntity
  8
0
100
AcDbSpline
 62
7
  6
BYLAYER
 70
0
 71
3
 72
12
 73
8
 74
0
 42
0.0000001
 43
0.0000001
 44
0.0000000001
 40
0.0
 40
0.0
 40
0.0
 40
0.0
 40
0.1108542632
 40
0.2060721462
 40
0.328193373
 40
0.6381814514
 40
1.0
 40
1.0
 40
1.0
 40
1.0
 10
384.9314479588
 20
357.3816837542
 30
0.0
 10
384.9314479588
 20
357.3034249165
 30
0.0
 10
385.0777562262
 20
357.1944757081
 30
0.0
 10
385.2825204574
 20
357.1133144365
 30
0.0
 10
385.6469032994
 20
357.0122380017
 30
0.0
 10
386.2007169689
 20
356.9362663275
 30
0.0
 10
386.6760180071
 20
356.9147930265
 30
0.0
 10
386.9314479587
 20
356.9147930265
 30
0.0
  0
SPLINE
  5
393
100
AcDbEntity
  8
0
100
AcDbSpline
 62
7
  6
BYLAYER
 70
0
 71
3
 72
22
 73
18
 74
0
 42
0.0000001
 43
0.0000001
 44
0.0000000001
 40
0.0
 40
0.0
 40
0.0
 40
0.0
 40
0.2131433238
 40
0.4077001109
 40
0.5797580185
 40
0.7260983334
 40
0.7886624586
 40
0.8436550126
 40
0.8907487517
 40
0.9296938875
 40
0.9602469561
 40
0.9723075608
 40
0.9822056782
 40
0.9899319049
 40
0.9954771015
 40
0.9988330931
 40
1.0
 40
1.0
 40
1.0
 40
1.0
 10
388.2976901555
 20
367.4092445097
 30
0.0
 10
388.7374998342
 20
367.4613993955
 30
0.0
 10
389.5782352992
 20
367.5659101413
 30
0.0
 10
390.7700541712
 20
367.7426686877
 30
0.0
 10
391.8192528932
 20
367.9311704117
 30
0.0
 10
392.5954298398
 20
368.0868553889
 30
0.0
 10
393.1318006869
 20
368.2008868523
 30
0.0
 10
393.4660476085
 20
368.2738726997
 30
0.0
 10
393.7521374891
 20
368.3374481048
 30
0.0
 10
393.9883696043
 20
368.3909555148
 30
0.0
 10
394.1536652979
 20
368.4288777706
 30
0.0
 10
394.2597183484
 20
368.4537626307
 30
0.0
 10
394.3201956499
 20
368.4677090644
 30
0.0
 10
394.3658351646
 20
368.4796192429
 30
0.0
 10
394.4019952127
 20
368.4866130239
 30
0.0
 10
394.4175025281
 20
368.4945342914
 30
0.0
 10
394.4314479588
 20
368.4947474718
 30
0.0
 10
394.4314479588
 20
368.4971721918
 30
0.0
  0
SPLINE
  5
394
100
AcDbEntity
  8
0
100
AcDbSpline
 62
7
  6
BYLAYER
 70
0
 71
3
 72
20
 73
16
 74
0
 42
0.0000001
 43
0.0000001
 44
0.0000000001
 40
0.0
 40
0.0
 40
0.0
 40
0.0
 40
0.0046017622
 40
0.0101528116
 40
0.0178576694
 40
0.0396834897
 40
0.0699864959
 40
0.108691279
 40
0.1557420367
 40
0.21082586
 40
0.2734989475
 40
0.4198115731
 40
0.5915472279
 40
0.7858870599
 40
1.0
 40
1.0
 40
1.0
 40
1.0
 10
372.4357201285
 20
368.496506346
 30
0.0
 10
372.4427012945
 20
368.4899822211
 30
0.0
 10
372.4665459913
 20
368.4907571041
 30
0.0
 10
372.5008602379
 20
368.4789882852
 30
0.0
 10
372.5726550486
 20
368.4636845173
 30
0.0
 10
372.6929113411
 20
368.4340974203
 30
0.0
 10
372.8770430631
 20
368.3923486701
 30
0.0
 10
373.1119347704
 20
368.338840719
 30
0.0
 10
373.3973377344
 20
368.2749428535
 30
0.0
 10
373.7315562777
 20
368.2014627545
 30
0.0
 10
374.2678382581
 20
368.0871751502
 30
0.0
 10
375.0431665812
 20
367.9326250104
 30
0.0
 10
376.0907541216
 20
367.7463557342
 30
0.0
 10
377.2816562794
 20
367.5636820102
 30
0.0
 10
378.1232997066
 20
367.4579461291
 30
0.0
 10
378.5651855459
 20
367.4090172628
 30
0.0
  0
SPLINE
  5
395
100
AcDbEntity
  8
0
100
AcDbSpline
 62
7
  6
BYLAYER
 70
0
 71
3
 72
10
 73
6
 74
0
 42
0.0000001
 43
0.0000001
 44
0.0000000001
 40
0.0
 40
0.0
 40
0.0
 40
0.0
 40
0.1721750872
 40
0.4138773381
 40
1.0
 40
1.0
 40
1.0
 40
1.0
 10
378.8969947885
 20
368.1383845
 30
0.0
 10
378.8540208371
 20
368.1185301438
 30
0.0
 10
378.7672013656
 20
368.0382829796
 30
0.0
 10
378.6319937997
 20
367.7973972114
 30
0.0
 10
378.5805407136
 20
367.5696649157
 30
0.0
 10
378.5652056995
 20
367.409244517
 30
0.0
  0
SPLINE
  5
396
100
AcDbEntity
  8
0
100
AcDbSpline
 62
7
  6
BYLAYER
 70
0
 71
3
 72
13
 73
9
 74
0
 42
0.0000001
 43
0.0000001
 44
0.0000000001
 40
0.0
 40
0.0
 40
0.0
 40
0.0
 40
0.4095670223
 40
0.727527266
 40
0.8447059203
 40
0.9302902397
 40
0.9824471286
 40
1.0
 40
1.0
 40
1.0
 40
1.0
 10
387.9659011428
 20
368.1383852741
 30
0.0
 10
388.7554774586
 20
368.234411233
 30
0.0
 10
390.1533183618
 20
368.4468243566
 30
0.0
 10
391.7605659777
 20
368.7780559526
 30
0.0
 10
392.7444441735
 20
369.0116540426
 30
0.0
 10
393.2252877563
 20
369.1298712125
 30
0.0
 10
393.5160395283
 20
369.2096740822
 30
0.0
 10
393.648020789
 20
369.2405120391
 30
0.0
 10
393.6805067245
 20
369.2508405083
 30
0.0
  0
SPLINE
  5
397
100
AcDbEntity
  8
0
100
AcDbSpline
 62
7
  6
BYLAYER
 70
0
 71
3
 72
19
 73
15
 74
0
 42
0.0000001
 43
0.0000001
 44
0.0000000001
 40
0.0
 40
0.0
 40
0.0
 40
0.0
 40
0.0665341815
 40
0.1155101961
 40
0.1761487741
 40
0.2473136217
 40
0.3265723306
 40
0.5001072308
 40
0.6737133016
 40
0.7529388295
 40
0.8238677282
 40
0.8842373454
 40
0.9331921851
 40
1.0
 40
1.0
 40
1.0
 40
1.0
 10
378.9324207746
 20
366.8999938443
 30
0.0
 10
378.9346209074
 20
366.6768693078
 30
0.0
 10
379.2121752472
 20
366.3261763332
 30
0.0
 10
379.6995011279
 20
366.0123949868
 30
0.0
 10
380.2576714546
 20
365.7605301032
 30
0.0
 10
380.9345372308
 20
365.553199564
 30
0.0
 10
382.0000817843
 20
365.3328342407
 30
0.0
 10
383.4321796989
 20
365.219679049
 30
0.0
 10
384.8641251296
 20
365.3333588737
 30
0.0
 10
385.9289550772
 20
365.5538247188
 30
0.0
 10
386.6042124681
 20
365.7601671451
 30
0.0
 10
387.1608740757
 20
366.0111783952
 30
0.0
 10
387.6475155918
 20
366.3258903247
 30
0.0
 10
387.9266905636
 20
366.6759372537
 30
0.0
 10
387.9299940483
 20
366.8999659654
 30
0.0
  0
SPLINE
  5
398
100
AcDbEntity
  8
0
100
AcDbSpline
 62
7
  6
BYLAYER
 70
0
 71
3
 72
10
 73
6
 74
0
 42
0.0000001
 43
0.0000001
 44
0.0000000001
 40
0.0
 40
0.0
 40
0.0
 40
0.0
 40
0.5861226618
 40
0.8278249127
 40
1.0
 40
1.0
 40
1.0
 40
1.0
 10
388.2976902326
 20
367.409244519
 30
0.0
 10
388.2823552188
 20
367.5696649176
 30
0.0
 10
388.2309021322
 20
367.7973972133
 30
0.0
 10
388.0956945659
 20
368.0382829814
 30
0.0
 10
388.0088750942
 20
368.1185301455
 30
0.0
 10
387.9659011428
 20
368.1383845017
 30
0.0
  0
SPLINE
  5
399
100
AcDbEntity
  8
0
100
AcDbSpline
 62
7
  6
BYLAYER
 70
0
 71
3
 72
9
 73
5
 74
0
 42
0.0000001
 43
0.0000001
 44
0.0000000001
 40
0.0
 40
0.0
 40
0.0
 40
0.0
 40
0.3131354435
 40
1.0
 40
1.0
 40
1.0
 40
1.0
 10
388.2976902413
 20
367.4092445233
 30
0.0
 10
388.2543812765
 20
367.4021780611
 30
0.0
 10
388.1200079867
 20
367.3719835108
 30
0.0
 10
387.9774019634
 20
367.3046647018
 30
0.0
 10
387.9270729709
 20
367.2226161493
 30
0.0
  0
SPLINE
  5
39A
100
AcDbEntity
  8
0
100
AcDbSpline
 62
7
  6
BYLAYER
 70
0
 71
3
 72
8
 73
4
 74
0
 42
0.0000001
 43
0.0000001
 44
0.0000000001
 40
0.0
 40
0.0
 40
0.0
 40
0.0
 40
1.0
 40
1.0
 40
1.0
 40
1.0
 10
387.9270729709
 20
367.2226161493
 30
0.0
 10
387.9106217174
 20
367.1957965872
 30
0.0
 10
387.9001124768
 20
367.1643352225
 30
0.0
 10
387.8974928705
 20
367.1329812704
 30
0.0
  0
SPLINE
  5
39B
100
AcDbEntity
  8
0
100
AcDbSpline
 62
7
  6
BYLAYER
 70
0
 71
3
 72
15
 73
11
 74
0
 42
0.0000001
 43
0.0000001
 44
0.0000000001
 40
0.0
 40
0.0
 40
0.0
 40
0.0
 40
0.2516546554
 40
0.3774114316
 40
0.5028430809
 40
0.6275779145
 40
0.7518241489
 40
0.8137789288
 40
0.8756912347
 40
1.0
 40
1.0
 40
1.0
 40
1.0
 10
388.2976901555
 20
367.4092445097
 30
0.0
 10
388.3497431881
 20
366.5118060807
 30
0.0
 10
388.3833512563
 20
365.1596356874
 30
0.0
 10
388.2091716254
 20
363.3698644705
 30
0.0
 10
387.9602634445
 20
362.0476571658
 30
0.0
 10
387.5470101894
 20
360.7712281091
 30
0.0
 10
387.0380559533
 20
359.7761482316
 30
0.0
 10
386.5102094176
 20
359.0608604824
 30
0.0
 10
385.8814128784
 20
358.4324670485
 30
0.0
 10
385.3050371614
 20
358.0734362878
 30
0.0
 10
384.8961047705
 20
357.9003649729
 30
0.0
  0
SPLINE
  5
39C
100
AcDbEntity
  8
0
100
AcDbSpline
 62
7
  6
BYLAYER
 70
0
 71
3
 72
8
 73
4
 74
0
 42
0.0000001
 43
0.0000001
 44
0.0000000001
 40
0.0
 40
0.0
 40
0.0
 40
0.0
 40
1.0
 40
1.0
 40
1.0
 40
1.0
 10
383.0490726072
 20
357.6176003826
 30
0.0
 10
382.6934954409
 20
357.654980787
 30
0.0
 10
382.3401874525
 20
357.7457218413
 30
0.0
 10
382.0094308315
 20
357.8814880868
 30
0.0
  0
SPLINE
  5
39D
100
AcDbEntity
  8
0
100
AcDbSpline
 62
7
  6
BYLAYER
 70
0
 71
3
 72
17
 73
13
 74
0
 42
0.0000001
 43
0.0000001
 44
0.0000000001
 40
0.0
 40
0.0
 40
0.0
 40
0.0
 40
0.1242364767
 40
0.1861732462
 40
0.2480146632
 40
0.3101454392
 40
0.3724243985
 40
0.4347341941
 40
0.4971791152
 40
0.6226015519
 40
0.7483555296
 40
1.0
 40
1.0
 40
1.0
 40
1.0
 10
382.0094308315
 20
357.8814880868
 30
0.0
 10
381.5970156053
 20
358.0507728821
 30
0.0
 10
381.0186538754
 20
358.4114204826
 30
0.0
 10
380.3759070446
 20
359.0297424357
 30
0.0
 10
379.9714375769
 20
359.563760148
 30
0.0
 10
379.6395104269
 20
360.1451130787
 30
0.0
 10
379.3562899114
 20
360.7529833891
 30
0.0
 10
379.1181588547
 20
361.3811505121
 30
0.0
 10
378.8644775081
 20
362.2431308047
 30
0.0
 10
378.6576789407
 20
363.3519408337
 30
0.0
 10
378.4807953953
 20
365.149311539
 30
0.0
 10
378.5132565869
 20
366.5077459746
 30
0.0
 10
378.5652057617
 20
367.4092445094
 30
0.0
  0
SPLINE
  5
39E
100
AcDbEntity
  8
0
100
AcDbSpline
 62
7
  6
BYLAYER
 70
0
 71
3
 72
9
 73
5
 74
0
 42
0.0000001
 43
0.0000001
 44
0.0000000001
 40
0.0
 40
0.0
 40
0.0
 40
0.0
 40
0.4923322563
 40
1.0
 40
1.0
 40
1.0
 40
1.0
 10
387.1575005044
 20
367.743105809
 30
0.0
 10
387.2975306042
 20
367.7472913502
 30
0.0
 10
387.591251821
 20
367.6759049175
 30
0.0
 10
387.7931308722
 20
367.4446187777
 30
0.0
 10
387.8491269568
 20
367.3114569525
 30
0.0
  0
SPLINE
  5
39F
100
AcDbEntity
  8
0
100
AcDbSpline
 62
7
  6
BYLAYER
 70
0
 71
3
 72
22
 73
18
 74
0
 42
0.0000001
 43
0.0000001
 44
0.0000000001
 40
0.0
 40
0.0
 40
0.0
 40
0.0
 40
0.0264972867
 40
0.0592879948
 40
0.1045747403
 40
0.1634630425
 40
0.23500631
 40
0.317077871
 40
0.4066510585
 40
0.5001584637
 40
0.6830616659
 40
0.7652551302
 40
0.8368192644
 40
0.8955466706
 40
0.9407095185
 40
0.9735194538
 40
1.0
 40
1.0
 40
1.0
 40
1.0
 10
379.7053954048
 20
367.7431057918
 30
0.0
 10
379.6770520488
 20
367.672974586
 30
0.0
 10
379.6722347265
 20
367.4881150773
 30
0.0
 10
379.8585502917
 20
367.2387778546
 30
0.0
 10
380.1767146716
 20
367.0094505188
 30
0.0
 10
380.6316705017
 20
366.7922119259
 30
0.0
 10
381.2092214072
 20
366.6032412422
 30
0.0
 10
381.8885762122
 20
366.4551673658
 30
0.0
 10
382.6405336074
 20
366.3601332487
 30
0.0
 10
383.6852709374
 20
366.3177163462
 30
0.0
 10
384.7115969207
 20
366.3997454954
 30
0.0
 10
385.652180599
 20
366.6028911951
 30
0.0
 10
386.2300436933
 20
366.7911930745
 30
0.0
 10
386.6837227492
 20
367.0092810315
 30
0.0
 10
387.0006948063
 20
367.239321998
 30
0.0
 10
387.1859264905
 20
367.4882108494
 30
0.0
 10
387.1842007346
 20
367.6723837831
 30
0.0
 10
387.1575005128
 20
367.7431057918
 30
0.0
  0
SPLINE
  5
3A0
100
AcDbEntity
  8
0
100
AcDbSpline
 62
7
  6
BYLAYER
 70
0
 71
3
 72
12
 73
8
 74
0
 42
0.0000001
 43
0.0000001
 44
0.0000000001
 40
0.0
 40
0.0
 40
0.0
 40
0.0
 40
0.3409494601
 40
0.6376322796
 40
0.7586578987
 40
0.8581970027
 40
1.0
 40
1.0
 40
1.0
 40
1.0
 10
416.2314479589
 20
360.8443890963
 30
0.0
 10
416.4872804275
 20
360.8443890963
 30
0.0
 10
416.9662589808
 20
360.8109915794
 30
0.0
 10
417.5253395152
 20
360.687637875
 30
0.0
 10
417.8839230088
 20
360.5313492249
 30
0.0
 10
418.1108217178
 20
360.3878745922
 30
0.0
 10
418.2314479588
 20
360.2177889549
 30
0.0
 10
418.2314479588
 20
360.1113866429
 30
0.0
  0
SPLINE
  5
3A1
100
AcDbEntity
  8
0
100
AcDbSpline
 62
7
  6
BYLAYER
 70
0
 71
3
 72
13
 73
9
 74
0
 42
0.0000001
 43
0.0000001
 44
0.0000000001
 40
0.0
 40
0.0
 40
0.0
 40
0.0
 40
0.3864068154
 40
0.6750397408
 40
0.7822273202
 40
0.8666413819
 40
0.9346049848
 40
1.0
 40
1.0
 40
1.0
 40
1.0
 10
387.9659010606
 20
368.1383853113
 30
0.0
 10
387.8405139864
 20
368.123200542
 30
0.0
 10
387.6227202138
 20
368.0868983055
 30
0.0
 10
387.3762015088
 20
368.0111606166
 30
0.0
 10
387.2391422024
 20
367.9331756385
 30
0.0
 10
387.1754426848
 20
367.8755373307
 30
0.0
 10
387.1431154454
 20
367.8088230381
 30
0.0
 10
387.1496176424
 20
367.7629745032
 30
0.0
 10
387.1575006667
 20
367.7431057963
 30
0.0
  0
SPLINE
  5
3A2
100
AcDbEntity
  8
0
100
AcDbSpline
 62
7
  6
BYLAYER
 70
0
 71
3
 72
13
 73
9
 74
0
 42
0.0000001
 43
0.0000001
 44
0.0000000001
 40
0.0
 40
0.0
 40
0.0
 40
0.0
 40
0.0653567197
 40
0.1333096511
 40
0.217727228
 40
0.3249223032
 40
0.61357104
 40
1.0
 40
1.0
 40
1.0
 40
1.0
 10
379.7053952507
 20
367.7431057963
 30
0.0
 10
379.7132731779
 20
367.762961648
 30
0.0
 10
379.7197601914
 20
367.8087940397
 30
0.0
 10
379.687423917
 20
367.8754797249
 30
0.0
 10
379.6237303329
 20
367.9331135522
 30
0.0
 10
379.4866802312
 20
368.0111131343
 30
0.0
 10
379.2401735964
 20
368.0868863342
 30
0.0
 10
379.0223814196
 20
368.1232006012
 30
0.0
 10
378.896994857
 20
368.1383853113
 30
0.0
  0
SPLINE
  5
3A3
100
AcDbEntity
  8
0
100
AcDbSpline
 62
7
  6
BYLAYER
 70
0
 71
3
 72
19
 73
15
 74
0
 42
0.0000001
 43
0.0000001
 44
0.0000000001
 40
0.0
 40
0.0
 40
0.0
 40
0.0
 40
0.1254837325
 40
0.2506517702
 40
0.3130700657
 40
0.3752455149
 40
0.4374942612
 40
0.5000699452
 40
0.5626376039
 40
0.624858526
 40
0.6870290227
 40
0.7493842021
 40
0.8745612425
 40
1.0
 40
1.0
 40
1.0
 40
1.0
 10
387.9318830944
 20
365.9146454057
 30
0.0
 10
387.9321754059
 20
365.0701307936
 30
0.0
 10
387.841187505
 20
363.3824887123
 30
0.0
 10
387.3699638301
 20
361.3042800299
 30
0.0
 10
386.6104131602
 20
359.7933849178
 30
0.0
 10
385.7934255565
 20
358.8169269551
 30
0.0
 10
384.7036901374
 20
358.136993408
 30
0.0
 10
383.4352893788
 20
357.8948210515
 30
0.0
 10
382.1662279277
 20
358.1357691114
 30
0.0
 10
381.0786092572
 20
358.8180319184
 30
0.0
 10
380.2583578156
 20
359.7900888543
 30
0.0
 10
379.4926674659
 20
361.2979134927
 30
0.0
 10
379.0226070256
 20
363.376261139
 30
0.0
 10
378.9308974209
 20
365.0634086969
 30
0.0
 10
378.9310837411
 20
365.9076206546
 30
0.0
  0
SPLINE
  5
3A4
100
AcDbEntity
  8
0
100
AcDbSpline
 62
7
  6
BYLAYER
 70
0
 71
3
 72
12
 73
8
 74
0
 42
0.0000001
 43
0.0000001
 44
0.0000000001
 40
0.0
 40
0.0
 40
0.0
 40
0.0
 40
0.1418031614
 40
0.2413423752
 40
0.3623680439
 40
0.659050853
 40
1.0
 40
1.0
 40
1.0
 40
1.0
 10
394.2314479588
 20
360.1113866428
 30
0.0
 10
394.2314479588
 20
360.2177890771
 30
0.0
 10
394.3520744578
 20
360.3878748666
 30
0.0
 10
394.5789734343
 20
360.5313494942
 30
0.0
 10
394.9375570775
 20
360.6876380758
 30
0.0
 10
395.4966374233
 20
360.8109916221
 30
0.0
 10
395.9756157275
 20
360.8443890963
 30
0.0
 10
396.2314479589
 20
360.8443890963
 30
0.0
  0
SPLINE
  5
3A5
100
AcDbEntity
  8
0
100
AcDbSpline
 62
7
  6
BYLAYER
 70
0
 71
3
 72
11
 73
7
 74
0
 42
0.0000001
 43
0.0000001
 44
0.0000000001
 40
0.0
 40
0.0
 40
0.0
 40
0.0
 40
0.0697792732
 40
0.272457663
 40
0.5903995229
 40
1.0
 40
1.0
 40
1.0
 40
1.0
 10
373.1820339926
 20
369.2508335049
 30
0.0
 10
373.3134500203
 20
369.2177291455
 30
0.0
 10
373.8243313831
 20
369.0797547396
 30
0.0
 10
374.9398215891
 20
368.8133812722
 30
0.0
 10
376.7091385705
 20
368.4461883903
 30
0.0
 10
378.1071959699
 20
368.2334841799
 30
0.0
 10
378.8969947748
 20
368.1383852741
 30
0.0
  0
SPLINE
  5
3A6
100
AcDbEntity
  8
0
100
AcDbSpline
 62
7
  6
BYLAYER
 70
0
 71
3
 72
9
 73
5
 74
0
 42
0.0000001
 43
0.0000001
 44
0.0000000001
 40
0.0
 40
0.0
 40
0.0
 40
0.0
 40
0.4469585094
 40
1.0
 40
1.0
 40
1.0
 40
1.0
 10
378.96532921
 20
367.1350276037
 30
0.0
 10
378.9616460007
 20
367.1765355669
 30
0.0
 10
378.9206514284
 20
367.2678798516
 30
0.0
 10
378.8385344166
 20
367.319383614
 30
0.0
 10
378.7920708922
 20
367.3417380963
 30
0.0
  0
SPLINE
  5
3A7
100
AcDbEntity
  8
0
100
AcDbSpline
 62
7
  6
BYLAYER
 70
0
 71
3
 72
9
 73
5
 74
0
 42
0.0000001
 43
0.0000001
 44
0.0000000001
 40
0.0
 40
0.0
 40
0.0
 40
0.0
 40
0.2258282285
 40
1.0
 40
1.0
 40
1.0
 40
1.0
 10
378.7920708922
 20
367.3417380963
 30
0.0
 10
378.7759837933
 20
367.3494779045
 30
0.0
 10
378.7031248741
 20
367.3803586488
 30
0.0
 10
378.6256094079
 20
367.3994057688
 30
0.0
 10
378.5652056869
 20
367.4092445212
 30
0.0
  0
SPLINE
  5
3A8
100
AcDbEntity
  8
0
100
AcDbSpline
 62
7
  6
BYLAYER
 70
0
 71
3
 72
13
 73
9
 74
0
 42
0.0000001
 43
0.0000001
 44
0.0000000001
 40
0.0
 40
0.0
 40
0.0
 40
0.0
 40
0.3617405878
 40
0.5262032911
 40
0.6718926709
 40
0.7939679233
 40
0.8891684573
 40
1.0
 40
1.0
 40
1.0
 40
1.0
 10
386.9314479588
 20
356.2144569349
 30
0.0
 10
386.2929060842
 20
356.2144569349
 30
0.0
 10
385.3634912581
 20
356.2537239651
 30
0.0
 10
384.1844200314
 20
356.3981029866
 30
0.0
 10
383.4367707958
 20
356.5358028087
 30
0.0
 10
382.808965134
 20
356.7109992069
 30
0.0
 10
382.2972476082
 20
356.9136281709
 30
0.0
 10
381.9314479588
 20
357.1860447149
 30
0.0
 10
381.9314479588
 20
357.3816837542
 30
0.0
  0
SPLINE
  5
3A9
100
AcDbEntity
  8
0
100
AcDbSpline
 62
7
  6
BYLAYER
 70
0
 71
3
 72
9
 73
5
 74
0
 42
0.0000001
 43
0.0000001
 44
0.0000000001
 40
0.0
 40
0.0
 40
0.0
 40
0.0
 40
0.5076577745
 40
1.0
 40
1.0
 40
1.0
 40
1.0
 10
379.0136745604
 20
367.3112323497
 30
0.0
 10
379.069636771
 20
367.4444479706
 30
0.0
 10
379.2715175283
 20
367.6758609596
 30
0.0
 10
379.5653243684
 20
367.7472925554
 30
0.0
 10
379.7053954059
 20
367.7431057911
 30
0.0
  0
ENDSEC
  0
SECTION
  2
OBJECTS
  0
DICTIONARY
  5
C
100
AcDbDictionary
280
0
281
1
  3
ACAD_GROUP
350
D
  3
ACAD_MLINESTYLE
350
17
  3
ACAD_LAYOUT
350
1A
  3
ACAD_PLOTSETTINGS
350
19
  3
ACAD_PLOTSTYLENAME
350
E
  0
DICTIONARY
  5
D
102
{ACAD_REACTORS
330
C
102
}
100
AcDbDictionary
280
0
281
1
  0
ACDBDICTIONARYWDFLT
  5
E
102
{ACAD_REACTORS
330
C
102
}
100
AcDbDictionary
281
1
  3
Normal
350
F
100
AcDbDictionaryWithDefault
340
F
  0
DICTIONARY
  5
17
102
{ACAD_REACTORS
330
C
102
}
100
AcDbDictionary
280
0
281
1
  3
Standard
350
18
  0
DICTIONARY
  5
19
102
{ACAD_REACTORS
330
C
102
}
100
AcDbDictionary
281
1
  0
DICTIONARY
  5
1A
102
{ACAD_REACTORS
330
C
102
}
100
AcDbDictionary
281
1
  3
Model
350
3AA
  3
Layout1
350
3AB
  0
ACDBPLACEHOLDER
  5
F
102
{ACAD_REACTORS
330
E
102
}
  0
MLINESTYLE
  5
18
102
{ACAD_REACTORS
330
17
102
}
100
AcDbMlineStyle
  2
STANDARD
 70
0
  3

 62
256
 51
90.0
 52
90.0
 71
2
 49
0.5
 62
256
  6
BYLAYER
 49
-0.5
 62
256
  6
BYLAYER
  0
LAYOUT
  5
3AA
102
{ACAD_REACTORS
330
1A
102
}
100
AcDbPlotSettings
  1

  2
none_device
  4

  6

 40
0.0
 41
0.0
 42
0.0
 43
0.0
 44
210.0
 45
297.0
 46
0.0
 47
0.0
 48
0.0
 49
0.0
140
0.0
141
0.0
142
1.0
143
1.0
 70
1024
 72
1
 73
0
 74
0
  7

 75
0
147
1.0
148
0.0
149
0.0
100
AcDbLayout
  1
Model
 70
0
 71
0
 10
0.0
 20
0.0
 11
210.0
 21
297.0
 12
0.0
 22
0.0
 32
0.0
 14
0.0
 24
0.0
 34
0.0
 15
0.0
 25
0.0
 35
0.0
146
0.0
 13
0.0
 23
0.0
 33
0.0
 16
1.0
 26
0.0
 36
0.0
 17
0.0
 27
1.0
 37
0.0
 76
0
330
210
345
0
346
0
  0
LAYOUT
  5
3AB
102
{ACAD_REACTORS
330
1A
102
}
100
AcDbPlotSettings
  1

  2
none_device
  4

  6

 40
0.0
 41
0.0
 42
0.0
 43
0.0
 44
210.0
 45
297.0
 46
0.0
 47
0.0
 48
0.0
 49
0.0
140
0.0
141
0.0
142
1.0
143
1.0
 70
0
 72
1
 73
0
 74
0
  7

 75
0
147
1.0
148
0.0
149
0.0
100
AcDbLayout
  1
Layout1
 70
0
 71
1
 10
0.0
 20
0.0
 11
210.0
 21
297.0
 12
0.0
 22
0.0
 32
0.0
 14
0.0
 24
0.0
 34
0.0
 15
0.0
 25
0.0
 35
0.0
146
0.0
 13
0.0
 23
0.0
 33
0.0
 16
1.0
 26
0.0
 36
0.0
 17
0.0
 27
1.0
 37
0.0
 76
0
330
211
345
0
346
0
  0
ENDSEC
  0
EOF
