999
DXF file: C:\Users\sesa63760\Dev\_Creo\CAD\MCADID0000873_3D-CAD\drw0001_3.dxf
999
Pro/ENGINEER 2019471 by Parametric Technology Corporation
  0
SECTION
  2
HEADER
  9
$ACADVER
  1
AC1024
  9
$DWGCODEPAGE
  3
ANSI_1252
  9
$EXTMAX
 10
460.4669887279
 20
651.231884058
 30
0.0
  9
$EXTMIN
 10
0.0
 20
0.0
 30
0.0
  9
$LIMMIN
 10
0.0
 20
0.0
  9
$LIMMAX
 10
460.4669887279
 20
651.231884058
  9
$VIEWCTR
 10
230.2334943639
 20
325.615942029
  9
$VIEWSIZE
 40
651.231884058
  9
$CLAYER
  8
0
  9
$LTSCALE
 40
42.4506709608
  9
$CELTYPE
  6
BYLAYER
  9
$DIMSCALE
 40
1.0
  9
$DIMASZ
 40
5.4817498658
  9
$DIMEXO
 40
1.0
  9
$DIMDLI
 40
29.329554482
  9
$DIMEXE
 40
1.0
  9
$DIMCEN
 40
6.94647343
  9
$DIMLFAC
 40
1.0
  9
$DIMBLK
  1
_FILLED
  9
$DIMALT
 70
0
  9
$DIMALTF
 40
0.0393700787
  9
$DIMTXT
 40
7.6744498121
  9
$DIMTOL
 70
1
  9
$DIMLIM
 70
0
  9
$DIMTFAC
 40
1.0
  9
$DIMTP
 40
0.01
  9
$DIMTM
 40
0.01
  9
$DIMGAP
 40
0.625
  9
$DIMDSEP
 70
46
  9
$AUNITS
 70
0
  9
$PDMODE
 70
3
  9
$PDSIZE
 40
0.3125
  9
$HANDSEED
  5
486
  9
$TILEMODE
 70
1
  9
$MEASUREMENT
 70
1
  9
$INSUNITS
 70
4
  0
ENDSEC
  0
SECTION
  2
CLASSES
  0
CLASS
  1
ACDBDICTIONARYWDFLT
  2
AcDbDictionaryWithDefault
  3
AutoCAD 2000
 90
0
 91
1
280
0
281
0
  0
CLASS
  1
ACDBPLACEHOLDER
  2
AcDbPlaceHolder
  3
AutoCAD 2000
 90
0
 91
1
280
0
281
0
  0
CLASS
  1
LAYOUT
  2
AcDbLayout
  3
AutoCAD 2000
 90
0
 91
0
280
0
281
0
  0
ENDSEC
  0
SECTION
  2
TABLES
  0
TABLE
  2
VPORT
  5
8
100
AcDbSymbolTable
 70
2
  0
VPORT
  5
1F4
100
AcDbSymbolTableRecord
100
AcDbViewportTableRecord
  2
*ACTIVE
 70
0
 10
0.0
 20
0.0
 11
1.0
 21
1.0
 12
230.2334943639
 22
325.615942029
 13
0.0
 23
0.0
 14
1.0
 24
1.0
 15
0.0
 25
0.0
 16
0.0
 26
0.0
 36
1.0
 17
0.0
 27
0.0
 37
0.0
 40
651.231884058
 41
0.7070707071
 42
50.0
 43
0.0
 44
0.0
 50
0.0
 51
0.0
 71
0
 72
100
 73
1
 74
1
 75
0
 76
0
 77
0
 78
0
  0
ENDTAB
  0
TABLE
  2
LTYPE
  5
5
100
AcDbSymbolTable
 70
6
  0
LTYPE
  5
14
100
AcDbSymbolTableRecord
100
AcDbLinetypeTableRecord
  2
BYBLOCK
 70
0
  3

 72
65
 73
0
 40
0.0
  0
LTYPE
  5
15
100
AcDbSymbolTableRecord
100
AcDbLinetypeTableRecord
  2
BYLAYER
 70
0
  3

 72
65
 73
0
 40
0.0
  0
LTYPE
  5
16
100
AcDbSymbolTableRecord
100
AcDbLinetypeTableRecord
  2
CONTINUOUS
 70
64
  3
Solid line
 72
65
 73
0
 40
0.0
  0
LTYPE
  5
1F5
100
AcDbSymbolTableRecord
100
AcDbLinetypeTableRecord
  2
CENTER
 70
64
  3
____ _ ____ _ ____ _ ____ _ ____ _ ____ _ ____
 72
65
 73
4
 40
0.6
 49
0.375
 74
0
 49
-0.075
 74
0
 49
0.075
 74
0
 49
-0.075
 74
0
  0
LTYPE
  5
1F6
100
AcDbSymbolTableRecord
100
AcDbLinetypeTableRecord
  2
HIDDEN
 70
64
  3
- - - - - - - - - - - - - - - - - - - -
 72
65
 73
2
 40
0.2
 49
0.1
 74
0
 49
-0.1
 74
0
  0
LTYPE
  5
1F7
100
AcDbSymbolTableRecord
100
AcDbLinetypeTableRecord
  2
PHANTOM
 70
64
  3
_____ _ _ _____ _ _ _____ _ _ _____
 72
65
 73
6
 40
0.8
 49
0.45
 74
0
 49
-0.05
 74
0
 49
0.1
 74
0
 49
-0.05
 74
0
 49
0.1
 74
0
 49
-0.05
 74
0
  0
LTYPE
  5
1F8
100
AcDbSymbolTableRecord
100
AcDbLinetypeTableRecord
  2
DOT
 70
64
  3
. . . . . . . . . . . . . . . . . . . .
 72
65
 73
2
 40
0.2
 49
0.1
 74
0
 49
-0.1
 74
0
  0
LTYPE
  5
1F9
100
AcDbSymbolTableRecord
100
AcDbLinetypeTableRecord
  2
DASHED
 70
64
  3
- - - - - - - - - - - - - - - - - - - -
 72
65
 73
2
 40
0.2
 49
0.1
 74
0
 49
-0.1
 74
0
  0
ENDTAB
  0
TABLE
  2
LAYER
  5
2
100
AcDbSymbolTable
 70
36
  0
LAYER
  5
10
100
AcDbSymbolTableRecord
100
AcDbLayerTableRecord
  2
0
 70
0
 62
7
  6
CONTINUOUS
370
-3
390
F
  0
LAYER
  5
1FA
100
AcDbSymbolTableRecord
100
AcDbLayerTableRecord
  2
DEFAULT_1
 70
0
 62
7
  6
CENTER
370
-3
390
F
  0
LAYER
  5
1FB
100
AcDbSymbolTableRecord
100
AcDbLayerTableRecord
  2
DEFAULT_2
 70
0
 62
8
  6
HIDDEN
370
-3
390
F
  0
LAYER
  5
1FC
100
AcDbSymbolTableRecord
100
AcDbLayerTableRecord
  2
DEFAULT_3
 70
0
 62
7
  6
PHANTOM
370
-3
390
F
  0
LAYER
  5
1FD
100
AcDbSymbolTableRecord
100
AcDbLayerTableRecord
  2
00_COMPONENTS
 70
0
 62
7
  6
CONTINUOUS
370
-3
390
F
  0
LAYER
  5
1FE
100
AcDbSymbolTableRecord
100
AcDbLayerTableRecord
  2
01_1_DEFAULT_DATUMS
 70
0
 62
7
  6
CONTINUOUS
370
-3
390
F
  0
LAYER
  5
1FF
100
AcDbSymbolTableRecord
100
AcDbLayerTableRecord
  2
01_PLANES
 70
0
 62
7
  6
CONTINUOUS
370
-3
390
F
  0
LAYER
  5
200
100
AcDbSymbolTableRecord
100
AcDbLayerTableRecord
  2
02_COORD_SYS
 70
0
 62
7
  6
CONTINUOUS
370
-3
390
F
  0
LAYER
  5
201
100
AcDbSymbolTableRecord
100
AcDbLayerTableRecord
  2
03_AXES
 70
0
 62
7
  6
CONTINUOUS
370
-3
390
F
  0
LAYER
  5
202
100
AcDbSymbolTableRecord
100
AcDbLayerTableRecord
  2
04_POINTS
 70
0
 62
7
  6
CONTINUOUS
370
-3
390
F
  0
LAYER
  5
203
100
AcDbSymbolTableRecord
100
AcDbLayerTableRecord
  2
05_CURVES
 70
0
 62
7
  6
CONTINUOUS
370
-3
390
F
  0
LAYER
  5
204
100
AcDbSymbolTableRecord
100
AcDbLayerTableRecord
  2
06_SURFS
 70
0
 62
7
  6
CONTINUOUS
370
-3
390
F
  0
LAYER
  5
205
100
AcDbSymbolTableRecord
100
AcDbLayerTableRecord
  2
07_COSMETICS
 70
0
 62
7
  6
CONTINUOUS
370
-3
390
F
  0
LAYER
  5
206
100
AcDbSymbolTableRecord
100
AcDbLayerTableRecord
  2
10_NOTES
 70
0
 62
7
  6
CONTINUOUS
370
-3
390
F
  0
LAYER
  5
207
100
AcDbSymbolTableRecord
100
AcDbLayerTableRecord
  2
11_NOTES_PUB
 70
0
 62
7
  6
CONTINUOUS
370
-3
390
F
  0
LAYER
  5
208
100
AcDbSymbolTableRecord
100
AcDbLayerTableRecord
  2
13_REF_GTOL
 70
0
 62
7
  6
CONTINUOUS
370
-3
390
F
  0
LAYER
  5
209
100
AcDbSymbolTableRecord
100
AcDbLayerTableRecord
  2
16_MISC
 70
0
 62
7
  6
CONTINUOUS
370
-3
390
F
  0
LAYER
  5
20A
100
AcDbSymbolTableRecord
100
AcDbLayerTableRecord
  2
17_NO_PRINT
 70
0
 62
7
  6
CONTINUOUS
370
-3
390
F
  0
LAYER
  5
20B
100
AcDbSymbolTableRecord
100
AcDbLayerTableRecord
  2
18_DATUM_CAMS_JOINTS
 70
0
 62
7
  6
CONTINUOUS
370
-3
390
F
  0
LAYER
  5
20C
100
AcDbSymbolTableRecord
100
AcDbLayerTableRecord
  2
19_DATUM_FUNCTIONAL
 70
0
 62
7
  6
CONTINUOUS
370
-3
390
F
  0
LAYER
  5
20D
100
AcDbSymbolTableRecord
100
AcDbLayerTableRecord
  2
20_DATUM_KINEMATIC_SCHEME
 70
0
 62
7
  6
CONTINUOUS
370
-3
390
F
  0
ENDTAB
  0
TABLE
  2
STYLE
  5
3
100
AcDbSymbolTable
 70
1
  0
STYLE
  5
11
100
AcDbSymbolTableRecord
100
AcDbTextStyleTableRecord
  2
STANDARD
 70
0
 40
0.0
 41
0.8
 50
0.0
 71
0
 42
0.2
  3
txt
  4

  0
STYLE
  5
20E
100
AcDbSymbolTableRecord
100
AcDbTextStyleTableRecord
  2
TEXTSTYLE_1
 70
0
 40
0.0
 41
0.8
 50
0.0
 71
0
 42
0.2
  3
gdt
  4

  0
ENDTAB
  0
TABLE
  2
VIEW
  5
6
100
AcDbSymbolTable
 70
0
  0
ENDTAB
  0
TABLE
  2
UCS
  5
7
100
AcDbSymbolTable
 70
0
  0
ENDTAB
  0
TABLE
  2
APPID
  5
9
100
AcDbSymbolTable
 70
1
  0
APPID
  5
20F
100
AcDbSymbolTableRecord
100
AcDbRegAppTableRecord
  2
ACAD
 70
0
  0
ENDTAB
  0
TABLE
  2
BLOCK_RECORD
  5
1
100
AcDbSymbolTable
 70
0
  0
BLOCK_RECORD
  5
210
100
AcDbSymbolTableRecord
100
AcDbBlockTableRecord
  2
*Model_Space
  0
BLOCK_RECORD
  5
211
100
AcDbSymbolTableRecord
100
AcDbBlockTableRecord
  2
*Paper_Space
  0
BLOCK_RECORD
  5
212
100
AcDbSymbolTableRecord
100
AcDbBlockTableRecord
  2
_FILLED
  0
ENDTAB
  0
TABLE
  2
DIMSTYLE
  5
A
100
AcDbSymbolTable
 70
1
100
AcDbDimStyleTable
 71
0
  0
DIMSTYLE
105
213
100
AcDbSymbolTableRecord
100
AcDbDimStyleTableRecord
  2
STANDARD
 70
0
  3

  4

 40
1.0
 41
5.4817498658
 42
1.0
 43
0.38
 44
1.0
 45
0.0
 46
0.0
 47
0.01
 48
0.01
140
7.6744498121
141
0.09
142
0.0
143
25.4
144
1.0
145
0.0
146
1.0
147
0.625
 71
1
 72
0
 73
0
 74
0
 75
0
 76
0
 77
1
 78
8
 79
2
170
0
171
1
172
0
173
0
174
0
175
0
176
0
177
0
178
0
270
2
179
2
271
2
272
2
273
2
274
2
275
0
280
0
281
0
282
0
283
1
284
8
285
0
286
0
287
3
288
0
340
11
278
46
341
212
342
212
343
212
344
212
  0
ENDTAB
  0
ENDSEC
  0
SECTION
  2
BLOCKS
  0
BLOCK
  5
20
100
AcDbEntity
  8
0
100
AcDbBlockBegin
  2
*Model_Space
 70
0
 10
0.0
 20
0.0
 30
0.0
  3
*Model_Space
  1

  0
ENDBLK
  5
21
100
AcDbEntity
  8
0
100
AcDbBlockEnd
  0
BLOCK
  5
1C
100
AcDbEntity
  8
0
100
AcDbBlockBegin
  2
*Paper_Space
 70
0
 10
0.0
 20
0.0
 30
0.0
  3
*Paper_Space
  1

  0
ENDBLK
  5
1D
100
AcDbEntity
  8
0
100
AcDbBlockEnd
  0
BLOCK
  5
214
100
AcDbEntity
  8
0
100
AcDbBlockBegin
  2
_FILLED
 70
64
 10
0.0
 20
0.0
  3
_FILLED
  1

  0
SOLID
  5
215
100
AcDbEntity
  8
0
  6
BYBLOCK
 62
0
100
AcDbTrace
 10
0.0
 20
0.0
 11
-1.0
 21
0.25
 12
-1.0
 22
-0.25
 13
-1.0
 23
-0.25
  0
ENDBLK
  5
216
100
AcDbEntity
  8
0
  6
BYBLOCK
 62
0
100
AcDbBlockEnd
  0
ENDSEC
  0
SECTION
  2
ENTITIES
  0
LINE
  5
217
100
AcDbEntity
  8
0
100
AcDbLine
 62
7
  6
CONTINUOUS
 10
342.8782551506
 20
69.4254854095
 11
342.8380627717
 21
69.4144572327
  0
LINE
  5
218
100
AcDbEntity
  8
0
100
AcDbLine
 62
7
  6
CONTINUOUS
 10
351.0103059581
 20
52.2101449275
 11
122.2103059581
 21
52.2101449275
  0
LINE
  5
219
100
AcDbEntity
  8
0
100
AcDbLine
 62
7
  6
CONTINUOUS
 10
130.3825491446
 20
69.4144565934
 11
130.3423567657
 21
69.4254853976
  0
LINE
  5
21A
100
AcDbEntity
  8
0
100
AcDbLine
 62
7
  6
CONTINUOUS
 10
137.6159894393
 20
69.1622322937
 11
140.20133188
 21
69.1622322937
  0
LINE
  5
21B
100
AcDbEntity
  8
0
100
AcDbLine
 62
7
  6
CONTINUOUS
 10
333.0192800363
 20
69.1622322937
 11
335.604622477
 21
69.1622322937
  0
LINE
  5
21C
100
AcDbEntity
  8
0
100
AcDbLine
 62
7
  6
CONTINUOUS
 10
335.7231192
 20
69.2101449275
 11
335.6729481687
 21
69.2101449275
  0
LINE
  5
21D
100
AcDbEntity
  8
0
100
AcDbLine
 62
7
  6
CONTINUOUS
 10
137.5476637476
 20
69.2101449275
 11
137.4974927163
 21
69.2101449275
  0
LINE
  5
21E
100
AcDbEntity
  8
0
100
AcDbLine
 62
7
  6
CONTINUOUS
 10
336.1103059581
 20
70.0003726989
 11
332.7693227725
 21
70.0003726989
  0
LINE
  5
21F
100
AcDbEntity
  8
0
100
AcDbLine
 62
7
  6
CONTINUOUS
 10
140.4512891437
 20
70.0003726989
 11
137.1103059581
 21
70.0003726989
  0
LINE
  5
220
100
AcDbEntity
  8
0
100
AcDbLine
 62
7
  6
CONTINUOUS
 10
126.7210516461
 20
70.1622322937
 11
132.104622477
 21
70.1622322937
  0
LINE
  5
221
100
AcDbEntity
  8
0
100
AcDbLine
 62
7
  6
CONTINUOUS
 10
341.1159894393
 20
70.1622322937
 11
346.4995602701
 21
70.1622322937
  0
LINE
  5
222
100
AcDbEntity
  8
0
100
AcDbLine
 62
7
  6
CONTINUOUS
 10
355.6103059581
 20
70.2101449275
 11
351.0103059581
 21
70.2101449275
  0
LINE
  5
223
100
AcDbEntity
  8
0
100
AcDbLine
 62
7
  6
CONTINUOUS
 10
341.0476637476
 20
70.2101449275
 11
336.1103059581
 21
70.2101449275
  0
LINE
  5
224
100
AcDbEntity
  8
0
100
AcDbLine
 62
7
  6
CONTINUOUS
 10
137.1103059581
 20
70.2101449275
 11
132.1729481687
 21
70.2101449275
  0
LINE
  5
225
100
AcDbEntity
  8
0
100
AcDbLine
 62
7
  6
CONTINUOUS
 10
122.2103059581
 20
70.2101449275
 11
117.6103059581
 21
70.2101449275
  0
LINE
  5
226
100
AcDbEntity
  8
0
100
AcDbLine
 62
7
  6
CONTINUOUS
 10
346.7495175339
 20
71.0003726989
 11
340.6103059581
 21
71.0003726989
  0
LINE
  5
227
100
AcDbEntity
  8
0
100
AcDbLine
 62
7
  6
CONTINUOUS
 10
132.6103059581
 20
71.0003726989
 11
126.4710943824
 21
71.0003726989
  0
LINE
  5
228
100
AcDbEntity
  8
0
100
AcDbLine
 62
7
  6
CONTINUOUS
 10
117.6103059581
 20
71.2101449275
 11
122.2103059581
 21
71.2101449275
  0
LINE
  5
229
100
AcDbEntity
  8
0
100
AcDbLine
 62
7
  6
CONTINUOUS
 10
126.4085343483
 20
71.2101449275
 11
140.812077568
 21
71.2101449275
  0
LINE
  5
22A
100
AcDbEntity
  8
0
100
AcDbLine
 62
7
  6
CONTINUOUS
 10
332.4085343483
 20
71.2101449275
 11
346.812077568
 21
71.2101449275
  0
LINE
  5
22B
100
AcDbEntity
  8
0
100
AcDbLine
 62
7
  6
CONTINUOUS
 10
351.0103059581
 20
71.2101449275
 11
355.6103059581
 21
71.2101449275
  0
LINE
  5
22C
100
AcDbEntity
  8
0
100
AcDbLine
 62
7
  6
CONTINUOUS
 10
117.6103059581
 20
72.2101449275
 11
122.2103059581
 21
72.2101449275
  0
LINE
  5
22D
100
AcDbEntity
  8
0
100
AcDbLine
 62
7
  6
CONTINUOUS
 10
126.1103059581
 20
72.2101449275
 11
141.1103059581
 21
72.2101449275
  0
LINE
  5
22E
100
AcDbEntity
  8
0
100
AcDbLine
 62
7
  6
CONTINUOUS
 10
332.1103059581
 20
72.2101449275
 11
347.1103059581
 21
72.2101449275
  0
LINE
  5
22F
100
AcDbEntity
  8
0
100
AcDbLine
 62
7
  6
CONTINUOUS
 10
351.0103059581
 20
72.2101449275
 11
355.6103059581
 21
72.2101449275
  0
LINE
  5
230
100
AcDbEntity
  8
0
100
AcDbLine
 62
7
  6
CONTINUOUS
 10
117.6103059581
 20
73.2101449275
 11
122.2103059581
 21
73.2101449275
  0
LINE
  5
231
100
AcDbEntity
  8
0
100
AcDbLine
 62
7
  6
CONTINUOUS
 10
126.2539868315
 20
73.2101449275
 11
140.812077568
 21
73.2101449275
  0
LINE
  5
232
100
AcDbEntity
  8
0
100
AcDbLine
 62
7
  6
CONTINUOUS
 10
332.2539868315
 20
73.2101449275
 11
346.812077568
 21
73.2101449275
  0
LINE
  5
233
100
AcDbEntity
  8
0
100
AcDbLine
 62
7
  6
CONTINUOUS
 10
351.0103059581
 20
73.2101449275
 11
355.6103059581
 21
73.2101449275
  0
LINE
  5
234
100
AcDbEntity
  8
0
100
AcDbLine
 62
7
  6
CONTINUOUS
 10
117.9103059581
 20
74.2101449275
 11
119.1103059581
 21
74.2101449275
  0
LINE
  5
235
100
AcDbEntity
  8
0
100
AcDbLine
 62
7
  6
CONTINUOUS
 10
354.1103059581
 20
74.2101449275
 11
355.3103059581
 21
74.2101449275
  0
LINE
  5
236
100
AcDbEntity
  8
0
100
AcDbLine
 62
7
  6
CONTINUOUS
 10
117.6103059581
 20
74.7101449275
 11
119.1103059581
 21
74.7101449275
  0
LINE
  5
237
100
AcDbEntity
  8
0
100
AcDbLine
 62
7
  6
CONTINUOUS
 10
354.1103059581
 20
74.7101449275
 11
355.6103059581
 21
74.7101449275
  0
LINE
  5
238
100
AcDbEntity
  8
0
100
AcDbLine
 62
7
  6
CONTINUOUS
 10
353.8103059581
 20
75.0101449275
 11
351.0103059581
 21
75.0101449275
  0
LINE
  5
239
100
AcDbEntity
  8
0
100
AcDbLine
 62
7
  6
CONTINUOUS
 10
346.2752664657
 20
75.0101449275
 11
332.8529795309
 21
75.0101449275
  0
LINE
  5
23A
100
AcDbEntity
  8
0
100
AcDbLine
 62
7
  6
CONTINUOUS
 10
140.2752664657
 20
75.0101449275
 11
126.8529795309
 21
75.0101449275
  0
LINE
  5
23B
100
AcDbEntity
  8
0
100
AcDbLine
 62
7
  6
CONTINUOUS
 10
122.2103059581
 20
75.0101449275
 11
119.4103059581
 21
75.0101449275
  0
LINE
  5
23C
100
AcDbEntity
  8
0
100
AcDbLine
 62
7
  6
CONTINUOUS
 10
356.6103059581
 20
75.2101449275
 11
355.6103059581
 21
75.2101449275
  0
LINE
  5
23D
100
AcDbEntity
  8
0
100
AcDbLine
 62
7
  6
CONTINUOUS
 10
116.6103059581
 20
75.2101449275
 11
117.6103059581
 21
75.2101449275
  0
LINE
  5
23E
100
AcDbEntity
  8
0
100
AcDbLine
 62
7
  6
CONTINUOUS
 10
126.9805896461
 20
75.2101449275
 11
140.2156207876
 21
75.2101449275
  0
LINE
  5
23F
100
AcDbEntity
  8
0
100
AcDbLine
 62
7
  6
CONTINUOUS
 10
332.9805896461
 20
75.2101449275
 11
346.2156207876
 21
75.2101449275
  0
LINE
  5
240
100
AcDbEntity
  8
0
100
AcDbLine
 62
7
  6
CONTINUOUS
 10
356.6103059581
 20
78.2101449275
 11
355.6103059581
 21
78.2101449275
  0
LINE
  5
241
100
AcDbEntity
  8
0
100
AcDbLine
 62
7
  6
CONTINUOUS
 10
116.6103059581
 20
78.2101449275
 11
117.6103059581
 21
78.2101449275
  0
LINE
  5
242
100
AcDbEntity
  8
0
100
AcDbLine
 62
7
  6
CONTINUOUS
 10
139.3782551506
 20
68.4254854095
 11
139.3380627717
 21
68.4144572327
  0
LINE
  5
243
100
AcDbEntity
  8
0
100
AcDbLine
 62
7
  6
CONTINUOUS
 10
126.8782551506
 20
69.4254854095
 11
126.8380627717
 21
69.4144572327
  0
LINE
  5
244
100
AcDbEntity
  8
0
100
AcDbLine
 62
7
  6
CONTINUOUS
 10
333.8825491446
 20
68.4144565934
 11
333.8423567657
 21
68.4254853976
  0
LINE
  5
245
100
AcDbEntity
  8
0
100
AcDbLine
 62
7
  6
CONTINUOUS
 10
346.3825491446
 20
69.4144565934
 11
346.3423567657
 21
69.4254853976
  0
LINE
  5
246
100
AcDbEntity
  8
0
100
AcDbLine
 62
7
  6
CONTINUOUS
 10
113.7437279446
 20
135.1003373064
 11
113.7845583092
 21
135.0601449275
  0
LINE
  5
247
100
AcDbEntity
  8
0
100
AcDbLine
 62
7
  6
CONTINUOUS
 10
113.784560031
 20
506.8601449275
 11
113.7437279446
 21
506.8199525487
  0
LINE
  5
248
100
AcDbEntity
  8
0
100
AcDbLine
 62
7
  6
CONTINUOUS
 10
148.2103059581
 20
128.6959206569
 11
186.2103059581
 21
128.6959206569
  0
LINE
  5
249
100
AcDbEntity
  8
0
100
AcDbLine
 62
7
  6
CONTINUOUS
 10
287.0103059581
 20
128.6959206569
 11
325.0103059581
 21
128.6959206569
  0
LINE
  5
24A
100
AcDbEntity
  8
0
100
AcDbLine
 62
7
  6
CONTINUOUS
 10
116.6103059581
 20
132.2101449275
 11
115.4005337295
 21
132.2101449275
  0
LINE
  5
24B
100
AcDbEntity
  8
0
100
AcDbLine
 62
7
  6
CONTINUOUS
 10
356.6103059581
 20
132.2101449275
 11
357.8200781868
 21
132.2101449275
  0
LINE
  5
24C
100
AcDbEntity
  8
0
100
AcDbLine
 62
7
  6
CONTINUOUS
 10
148.2103059581
 20
133.6679991136
 11
186.2103059581
 21
133.6679991136
  0
LINE
  5
24D
100
AcDbEntity
  8
0
100
AcDbLine
 62
7
  6
CONTINUOUS
 10
287.0103059581
 20
133.6679991136
 11
325.0103059581
 21
133.6679991136
  0
LINE
  5
24E
100
AcDbEntity
  8
0
100
AcDbLine
 62
7
  6
CONTINUOUS
 10
325.033135844
 20
133.7572386762
 11
287.0103059581
 21
133.7572386762
  0
LINE
  5
24F
100
AcDbEntity
  8
0
100
AcDbLine
 62
7
  6
CONTINUOUS
 10
186.233135844
 20
133.7572386762
 11
148.2103059581
 21
133.7572386762
  0
LINE
  5
250
100
AcDbEntity
  8
0
100
AcDbLine
 62
7
  6
CONTINUOUS
 10
359.4768839717
 20
135.1003373064
 11
359.4063750169
 21
135.1003373064
  0
LINE
  5
251
100
AcDbEntity
  8
0
100
AcDbLine
 62
7
  6
CONTINUOUS
 10
113.7437279446
 20
135.1003373064
 11
113.8141449576
 21
135.1003373064
  0
LINE
  5
252
100
AcDbEntity
  8
0
100
AcDbLine
 62
7
  6
CONTINUOUS
 10
113.666072012
 20
135.1916403852
 11
113.823816432
 21
135.1916403852
  0
LINE
  5
253
100
AcDbEntity
  8
0
100
AcDbLine
 62
7
  6
CONTINUOUS
 10
359.3968012364
 20
135.1916403852
 11
359.5545407555
 21
135.1916403852
  0
LINE
  5
254
100
AcDbEntity
  8
0
100
AcDbLine
 62
7
  6
CONTINUOUS
 10
113.7487796127
 20
135.6101449275
 11
114.6103059581
 21
135.6101449275
  0
LINE
  5
255
100
AcDbEntity
  8
0
100
AcDbLine
 62
7
  6
CONTINUOUS
 10
358.6103059581
 20
135.6101449275
 11
359.4718323036
 21
135.6101449275
  0
LINE
  5
256
100
AcDbEntity
  8
0
100
AcDbLine
 62
7
  6
CONTINUOUS
 10
359.4718323036
 20
136.8101449275
 11
358.6103059581
 21
136.8101449275
  0
LINE
  5
257
100
AcDbEntity
  8
0
100
AcDbLine
 62
7
  6
CONTINUOUS
 10
114.6103059581
 20
136.8101449275
 11
113.7487796127
 21
136.8101449275
  0
LINE
  5
258
100
AcDbEntity
  8
0
100
AcDbLine
 62
7
  6
CONTINUOUS
 10
359.5545399043
 20
137.2286494699
 11
359.3962585974
 21
137.2286494699
  0
LINE
  5
259
100
AcDbEntity
  8
0
100
AcDbLine
 62
7
  6
CONTINUOUS
 10
113.8238106799
 20
137.2286494699
 11
113.6660711608
 21
137.2286494699
  0
LINE
  5
25A
100
AcDbEntity
  8
0
100
AcDbLine
 62
7
  6
CONTINUOUS
 10
359.4768839717
 20
137.3199525487
 11
359.4061697619
 21
137.3199525487
  0
LINE
  5
25B
100
AcDbEntity
  8
0
100
AcDbLine
 62
7
  6
CONTINUOUS
 10
113.7437279446
 20
137.3199525487
 11
113.8142368993
 21
137.3199525487
  0
LINE
  5
25C
100
AcDbEntity
  8
0
100
AcDbLine
 62
7
  6
CONTINUOUS
 10
148.1874760723
 20
137.6630511788
 11
186.2103059581
 21
137.6630511788
  0
LINE
  5
25D
100
AcDbEntity
  8
0
100
AcDbLine
 62
7
  6
CONTINUOUS
 10
286.9874760723
 20
137.6630511788
 11
325.0103059581
 21
137.6630511788
  0
LINE
  5
25E
100
AcDbEntity
  8
0
100
AcDbLine
 62
7
  6
CONTINUOUS
 10
325.0103059581
 20
137.7522907415
 11
287.0103059581
 21
137.7522907415
  0
LINE
  5
25F
100
AcDbEntity
  8
0
100
AcDbLine
 62
7
  6
CONTINUOUS
 10
186.2103059581
 20
137.7522907415
 11
148.2103059581
 21
137.7522907415
  0
LINE
  5
260
100
AcDbEntity
  8
0
100
AcDbLine
 62
7
  6
CONTINUOUS
 10
116.6103059581
 20
140.2101449275
 11
115.4005337295
 21
140.2101449275
  0
LINE
  5
261
100
AcDbEntity
  8
0
100
AcDbLine
 62
7
  6
CONTINUOUS
 10
356.6103059581
 20
140.2101449275
 11
357.8200781868
 21
140.2101449275
  0
LINE
  5
262
100
AcDbEntity
  8
0
100
AcDbLine
 62
7
  6
CONTINUOUS
 10
148.2103059578
 20
142.7243691981
 11
186.2103059584
 21
142.7243691981
  0
LINE
  5
263
100
AcDbEntity
  8
0
100
AcDbLine
 62
7
  6
CONTINUOUS
 10
287.0103059578
 20
142.7243691981
 11
325.0103059584
 21
142.7243691981
  0
LINE
  5
264
100
AcDbEntity
  8
0
100
AcDbLine
 62
7
  6
CONTINUOUS
 10
113.7853013682
 20
507.5628916742
 11
113.8256478659
 21
507.7101449275
  0
LINE
  5
265
100
AcDbEntity
  8
0
100
AcDbLine
 62
7
  6
CONTINUOUS
 10
113.8256475197
 20
134.2101449275
 11
113.7853071921
 21
134.3573762793
  0
LINE
  5
266
100
AcDbEntity
  8
0
100
AcDbLine
 62
7
  6
CONTINUOUS
 10
114.5623933243
 20
505.1101449275
 11
114.5623933243
 21
502.1646903821
  0
LINE
  5
267
100
AcDbEntity
  8
0
100
AcDbLine
 62
7
  6
CONTINUOUS
 10
114.5623933243
 20
320.3601449275
 11
114.5623933243
 21
317.4146903821
  0
LINE
  5
268
100
AcDbEntity
  8
0
100
AcDbLine
 62
7
  6
CONTINUOUS
 10
114.5623933243
 20
135.6101449275
 11
114.5623933243
 21
132.6646903821
  0
LINE
  5
269
100
AcDbEntity
  8
0
100
AcDbLine
 62
7
  6
CONTINUOUS
 10
114.5623933243
 20
136.8101449275
 11
114.5623933243
 21
139.755599473
  0
LINE
  5
26A
100
AcDbEntity
  8
0
100
AcDbLine
 62
7
  6
CONTINUOUS
 10
114.5623933243
 20
321.5601449275
 11
114.5623933243
 21
324.505599473
  0
LINE
  5
26B
100
AcDbEntity
  8
0
100
AcDbLine
 62
7
  6
CONTINUOUS
 10
114.5623933243
 20
506.3101449275
 11
114.5623933243
 21
509.255599473
  0
LINE
  5
26C
100
AcDbEntity
  8
0
100
AcDbLine
 62
7
  6
CONTINUOUS
 10
114.6103059581
 20
135.6101449275
 11
114.6103059581
 21
136.8101449275
  0
LINE
  5
26D
100
AcDbEntity
  8
0
100
AcDbLine
 62
7
  6
CONTINUOUS
 10
114.6103059581
 20
320.3601449275
 11
114.6103059581
 21
321.5601449275
  0
LINE
  5
26E
100
AcDbEntity
  8
0
100
AcDbLine
 62
7
  6
CONTINUOUS
 10
114.6103059581
 20
505.1101449275
 11
114.6103059581
 21
506.3101449275
  0
LINE
  5
26F
100
AcDbEntity
  8
0
100
AcDbLine
 62
7
  6
CONTINUOUS
 10
115.4005337295
 20
132.2101449275
 11
115.4005337295
 21
140.2101449275
  0
LINE
  5
270
100
AcDbEntity
  8
0
100
AcDbLine
 62
7
  6
CONTINUOUS
 10
115.4005337295
 20
316.9601449275
 11
115.4005337295
 21
324.9601449275
  0
LINE
  5
271
100
AcDbEntity
  8
0
100
AcDbLine
 62
7
  6
CONTINUOUS
 10
115.4005337295
 20
501.7101449275
 11
115.4005337295
 21
509.7101449275
  0
LINE
  5
272
100
AcDbEntity
  8
0
100
AcDbLine
 62
7
  6
CONTINUOUS
 10
116.6103059581
 20
74.5101449275
 11
116.6103059581
 21
577.4101449275
  0
LINE
  5
273
100
AcDbEntity
  8
0
100
AcDbLine
 62
7
  6
CONTINUOUS
 10
117.6103059581
 20
70.2101449275
 11
117.6103059581
 21
73.2101449275
  0
LINE
  5
274
100
AcDbEntity
  8
0
100
AcDbLine
 62
7
  6
CONTINUOUS
 10
117.6103059581
 20
74.5101449275
 11
117.6103059581
 21
577.4101449275
  0
LINE
  5
275
100
AcDbEntity
  8
0
100
AcDbLine
 62
7
  6
CONTINUOUS
 10
117.9103059581
 20
577.4101449275
 11
117.9103059581
 21
577.2101449276
  0
LINE
  5
276
100
AcDbEntity
  8
0
100
AcDbLine
 62
7
  6
CONTINUOUS
 10
117.9103059867
 20
74.7101449276
 11
117.9103059867
 21
74.2101449351
  0
LINE
  5
277
100
AcDbEntity
  8
0
100
AcDbLine
 62
7
  6
CONTINUOUS
 10
118.6103059581
 20
577.2101449275
 11
118.6103059581
 21
577.6651103691
  0
LINE
  5
278
100
AcDbEntity
  8
0
100
AcDbLine
 62
7
  6
CONTINUOUS
 10
113.8256475197
 20
318.9601449275
 11
113.7853013682
 21
319.1073981809
  0
LINE
  5
279
100
AcDbEntity
  8
0
100
AcDbLine
 62
7
  6
CONTINUOUS
 10
119.1103059581
 20
578.7101449275
 11
119.1103059581
 21
577.2101449275
  0
LINE
  5
27A
100
AcDbEntity
  8
0
100
AcDbLine
 62
7
  6
CONTINUOUS
 10
119.1103059581
 20
74.7101449275
 11
119.1103059581
 21
73.2101449275
  0
LINE
  5
27B
100
AcDbEntity
  8
0
100
AcDbLine
 62
7
  6
CONTINUOUS
 10
119.4103059581
 20
75.0101449275
 11
119.4103059581
 21
576.9101449275
  0
LINE
  5
27C
100
AcDbEntity
  8
0
100
AcDbLine
 62
7
  6
CONTINUOUS
 10
119.6103059581
 20
70.2101449275
 11
119.6103059581
 21
71.2101449275
  0
LINE
  5
27D
100
AcDbEntity
  8
0
100
AcDbLine
 62
7
  6
CONTINUOUS
 10
120.6103059581
 20
71.2101449275
 11
120.6103059581
 21
73.2101449275
  0
LINE
  5
27E
100
AcDbEntity
  8
0
100
AcDbLine
 62
7
  6
CONTINUOUS
 10
122.2103059581
 20
602.2101449275
 11
122.2103059581
 21
52.2101449275
  0
LINE
  5
27F
100
AcDbEntity
  8
0
100
AcDbLine
 62
7
  6
CONTINUOUS
 10
124.5103059581
 20
52.2101449275
 11
124.5103059581
 21
602.2101449275
  0
LINE
  5
280
100
AcDbEntity
  8
0
100
AcDbLine
 62
7
  6
CONTINUOUS
 10
126.9722315322
 20
69.3486185821
 11
126.9722315322
 21
69.416115583
  0
LINE
  5
281
100
AcDbEntity
  8
0
100
AcDbLine
 62
7
  6
CONTINUOUS
 10
130.2483803841
 20
69.4161060354
 11
130.2483803841
 21
69.3486185821
  0
LINE
  5
282
100
AcDbEntity
  8
0
100
AcDbLine
 62
7
  6
CONTINUOUS
 10
130.6103059581
 20
602.2101449275
 11
130.6103059581
 21
591.2101449275
  0
LINE
  5
283
100
AcDbEntity
  8
0
100
AcDbLine
 62
7
  6
CONTINUOUS
 10
130.6103059581
 20
65.3362813851
 11
130.6103059581
 21
62.2101449275
  0
LINE
  5
284
100
AcDbEntity
  8
0
100
AcDbLine
 62
7
  6
CONTINUOUS
 10
132.6103059581
 20
71.0003726989
 11
132.6103059581
 21
71.2101449275
  0
LINE
  5
285
100
AcDbEntity
  8
0
100
AcDbLine
 62
7
  6
CONTINUOUS
 10
136.6103059581
 20
62.2101449275
 11
136.6103059581
 21
65.3362813851
  0
LINE
  5
286
100
AcDbEntity
  8
0
100
AcDbLine
 62
7
  6
CONTINUOUS
 10
136.6103059581
 20
591.2101449275
 11
136.6103059581
 21
602.2101449275
  0
LINE
  5
287
100
AcDbEntity
  8
0
100
AcDbLine
 62
7
  6
CONTINUOUS
 10
137.1103059581
 20
70.0003726989
 11
137.1103059581
 21
71.2101449275
  0
LINE
  5
288
100
AcDbEntity
  8
0
100
AcDbLine
 62
7
  6
CONTINUOUS
 10
113.7853013682
 20
322.8128916742
 11
113.8256478659
 21
322.9601449275
  0
LINE
  5
289
100
AcDbEntity
  8
0
100
AcDbLine
 62
7
  6
CONTINUOUS
 10
139.4722315322
 20
68.3486185821
 11
139.4722315322
 21
68.416115583
  0
LINE
  5
28A
100
AcDbEntity
  8
0
100
AcDbLine
 62
7
  6
CONTINUOUS
 10
148.2103059581
 20
128.6959206569
 11
148.2103059581
 21
133.7572386762
  0
LINE
  5
28B
100
AcDbEntity
  8
0
100
AcDbLine
 62
7
  6
CONTINUOUS
 10
148.2103059581
 20
137.6630511788
 11
148.2103059581
 21
142.7243691982
  0
LINE
  5
28C
100
AcDbEntity
  8
0
100
AcDbLine
 62
7
  6
CONTINUOUS
 10
113.784560031
 20
322.1101449275
 11
113.7437279446
 21
322.0699525487
  0
LINE
  5
28D
100
AcDbEntity
  8
0
100
AcDbLine
 62
7
  6
CONTINUOUS
 10
113.7437279446
 20
319.8503373064
 11
113.7845583092
 21
319.8101449275
  0
LINE
  5
28E
100
AcDbEntity
  8
0
100
AcDbLine
 62
7
  6
CONTINUOUS
 10
113.7853013682
 20
138.0628916741
 11
113.8256478659
 21
138.2101449275
  0
LINE
  5
28F
100
AcDbEntity
  8
0
100
AcDbLine
 62
7
  6
CONTINUOUS
 10
113.8256475197
 20
503.7101449275
 11
113.7853013682
 21
503.8573981809
  0
LINE
  5
290
100
AcDbEntity
  8
0
100
AcDbLine
 62
7
  6
CONTINUOUS
 10
186.2103059581
 20
142.7243691982
 11
186.2103059581
 21
137.6630511788
  0
LINE
  5
291
100
AcDbEntity
  8
0
100
AcDbLine
 62
7
  6
CONTINUOUS
 10
186.2103059581
 20
133.7572386762
 11
186.2103059581
 21
128.6959206569
  0
LINE
  5
292
100
AcDbEntity
  8
0
100
AcDbLine
 62
7
  6
CONTINUOUS
 10
359.4360518853
 20
504.5601449275
 11
359.4768839717
 21
504.6003373064
  0
LINE
  5
293
100
AcDbEntity
  8
0
100
AcDbLine
 62
7
  6
CONTINUOUS
 10
217.6103059581
 20
283.6959206569
 11
255.6103059581
 21
283.6959206569
  0
LINE
  5
294
100
AcDbEntity
  8
0
100
AcDbLine
 62
7
  6
CONTINUOUS
 10
217.6103059581
 20
288.6679991136
 11
255.6103059581
 21
288.6679991136
  0
LINE
  5
295
100
AcDbEntity
  8
0
100
AcDbLine
 62
7
  6
CONTINUOUS
 10
255.633135844
 20
288.7572386762
 11
217.6103059581
 21
288.7572386762
  0
LINE
  5
296
100
AcDbEntity
  8
0
100
AcDbLine
 62
7
  6
CONTINUOUS
 10
217.6103059581
 20
283.6959206569
 11
217.6103059581
 21
288.7572386762
  0
LINE
  5
297
100
AcDbEntity
  8
0
100
AcDbLine
 62
7
  6
CONTINUOUS
 10
217.6103059581
 20
292.6630511788
 11
217.6103059581
 21
297.7243691982
  0
LINE
  5
298
100
AcDbEntity
  8
0
100
AcDbLine
 62
7
  6
CONTINUOUS
 10
217.5874760723
 20
292.6630511788
 11
255.6103059581
 21
292.6630511788
  0
LINE
  5
299
100
AcDbEntity
  8
0
100
AcDbLine
 62
7
  6
CONTINUOUS
 10
255.6103059581
 20
292.7522907415
 11
217.6103059581
 21
292.7522907415
  0
LINE
  5
29A
100
AcDbEntity
  8
0
100
AcDbLine
 62
7
  6
CONTINUOUS
 10
217.6103059578
 20
297.7243691981
 11
255.6103059584
 21
297.7243691981
  0
LINE
  5
29B
100
AcDbEntity
  8
0
100
AcDbLine
 62
7
  6
CONTINUOUS
 10
116.6103059581
 20
316.9601449275
 11
115.4005337295
 21
316.9601449275
  0
LINE
  5
29C
100
AcDbEntity
  8
0
100
AcDbLine
 62
7
  6
CONTINUOUS
 10
356.6103059581
 20
316.9601449275
 11
357.8200781868
 21
316.9601449275
  0
LINE
  5
29D
100
AcDbEntity
  8
0
100
AcDbLine
 62
7
  6
CONTINUOUS
 10
359.4768839717
 20
319.8503373064
 11
359.4063750169
 21
319.8503373064
  0
LINE
  5
29E
100
AcDbEntity
  8
0
100
AcDbLine
 62
7
  6
CONTINUOUS
 10
113.7437279446
 20
319.8503373064
 11
113.8141449576
 21
319.8503373064
  0
LINE
  5
29F
100
AcDbEntity
  8
0
100
AcDbLine
 62
7
  6
CONTINUOUS
 10
113.666072012
 20
319.9416403852
 11
113.823816432
 21
319.9416403852
  0
LINE
  5
2A0
100
AcDbEntity
  8
0
100
AcDbLine
 62
7
  6
CONTINUOUS
 10
359.3968012364
 20
319.9416403852
 11
359.5545407555
 21
319.9416403852
  0
LINE
  5
2A1
100
AcDbEntity
  8
0
100
AcDbLine
 62
7
  6
CONTINUOUS
 10
113.7487796127
 20
320.3601449275
 11
114.6103059581
 21
320.3601449275
  0
LINE
  5
2A2
100
AcDbEntity
  8
0
100
AcDbLine
 62
7
  6
CONTINUOUS
 10
358.6103059581
 20
320.3601449275
 11
359.4718323036
 21
320.3601449275
  0
LINE
  5
2A3
100
AcDbEntity
  8
0
100
AcDbLine
 62
7
  6
CONTINUOUS
 10
359.4718323036
 20
321.5601449275
 11
358.6103059581
 21
321.5601449275
  0
LINE
  5
2A4
100
AcDbEntity
  8
0
100
AcDbLine
 62
7
  6
CONTINUOUS
 10
114.6103059581
 20
321.5601449275
 11
113.7487796127
 21
321.5601449275
  0
LINE
  5
2A5
100
AcDbEntity
  8
0
100
AcDbLine
 62
7
  6
CONTINUOUS
 10
359.5545399043
 20
321.9786494699
 11
359.3962585974
 21
321.9786494699
  0
LINE
  5
2A6
100
AcDbEntity
  8
0
100
AcDbLine
 62
7
  6
CONTINUOUS
 10
113.8238106799
 20
321.9786494699
 11
113.6660711608
 21
321.9786494699
  0
LINE
  5
2A7
100
AcDbEntity
  8
0
100
AcDbLine
 62
7
  6
CONTINUOUS
 10
359.4768839717
 20
322.0699525487
 11
359.4061697619
 21
322.0699525487
  0
LINE
  5
2A8
100
AcDbEntity
  8
0
100
AcDbLine
 62
7
  6
CONTINUOUS
 10
113.7437279446
 20
322.0699525487
 11
113.8142368993
 21
322.0699525487
  0
LINE
  5
2A9
100
AcDbEntity
  8
0
100
AcDbLine
 62
7
  6
CONTINUOUS
 10
116.6103059581
 20
324.9601449275
 11
115.4005337295
 21
324.9601449275
  0
LINE
  5
2AA
100
AcDbEntity
  8
0
100
AcDbLine
 62
7
  6
CONTINUOUS
 10
356.6103059581
 20
324.9601449275
 11
357.8200781868
 21
324.9601449275
  0
LINE
  5
2AB
100
AcDbEntity
  8
0
100
AcDbLine
 62
7
  6
CONTINUOUS
 10
255.6103059581
 20
297.7243691982
 11
255.6103059581
 21
292.6630511788
  0
LINE
  5
2AC
100
AcDbEntity
  8
0
100
AcDbLine
 62
7
  6
CONTINUOUS
 10
255.6103059581
 20
288.7572386762
 11
255.6103059581
 21
283.6959206569
  0
LINE
  5
2AD
100
AcDbEntity
  8
0
100
AcDbLine
 62
7
  6
CONTINUOUS
 10
113.7437279446
 20
504.6003373064
 11
113.7845583092
 21
504.5601449275
  0
LINE
  5
2AE
100
AcDbEntity
  8
0
100
AcDbLine
 62
7
  6
CONTINUOUS
 10
287.0103059581
 20
128.6959206569
 11
287.0103059581
 21
133.7572386762
  0
LINE
  5
2AF
100
AcDbEntity
  8
0
100
AcDbLine
 62
7
  6
CONTINUOUS
 10
287.0103059581
 20
137.6630511788
 11
287.0103059581
 21
142.7243691982
  0
LINE
  5
2B0
100
AcDbEntity
  8
0
100
AcDbLine
 62
7
  6
CONTINUOUS
 10
113.784560031
 20
137.3601449275
 11
113.7437279446
 21
137.3199525487
  0
LINE
  5
2B1
100
AcDbEntity
  8
0
100
AcDbLine
 62
7
  6
CONTINUOUS
 10
359.4353105481
 20
503.8573981809
 11
359.3949640503
 21
503.7101449275
  0
LINE
  5
2B2
100
AcDbEntity
  8
0
100
AcDbLine
 62
7
  6
CONTINUOUS
 10
359.3949643966
 20
138.2101449275
 11
359.4353047241
 21
138.0629135758
  0
LINE
  5
2B3
100
AcDbEntity
  8
0
100
AcDbLine
 62
7
  6
CONTINUOUS
 10
325.0103059581
 20
142.7243691982
 11
325.0103059581
 21
137.6630511788
  0
LINE
  5
2B4
100
AcDbEntity
  8
0
100
AcDbLine
 62
7
  6
CONTINUOUS
 10
325.0103059581
 20
133.7572386762
 11
325.0103059581
 21
128.6959206569
  0
LINE
  5
2B5
100
AcDbEntity
  8
0
100
AcDbLine
 62
7
  6
CONTINUOUS
 10
333.7483803841
 20
68.4161060354
 11
333.7483803841
 21
68.3486185821
  0
LINE
  5
2B6
100
AcDbEntity
  8
0
100
AcDbLine
 62
7
  6
CONTINUOUS
 10
336.1103059581
 20
70.0003726989
 11
336.1103059581
 21
71.2101449275
  0
LINE
  5
2B7
100
AcDbEntity
  8
0
100
AcDbLine
 62
7
  6
CONTINUOUS
 10
336.6103059581
 20
602.2101449275
 11
336.6103059581
 21
591.2101449275
  0
LINE
  5
2B8
100
AcDbEntity
  8
0
100
AcDbLine
 62
7
  6
CONTINUOUS
 10
336.6103059581
 20
65.3362813851
 11
336.6103059581
 21
62.2101449275
  0
LINE
  5
2B9
100
AcDbEntity
  8
0
100
AcDbLine
 62
7
  6
CONTINUOUS
 10
359.4360518853
 20
319.8101449275
 11
359.4768839717
 21
319.8503373064
  0
LINE
  5
2BA
100
AcDbEntity
  8
0
100
AcDbLine
 62
7
  6
CONTINUOUS
 10
340.6103059581
 20
71.0003726989
 11
340.6103059581
 21
71.2101449275
  0
LINE
  5
2BB
100
AcDbEntity
  8
0
100
AcDbLine
 62
7
  6
CONTINUOUS
 10
342.6103059581
 20
62.2101449275
 11
342.6103059581
 21
65.3362813851
  0
LINE
  5
2BC
100
AcDbEntity
  8
0
100
AcDbLine
 62
7
  6
CONTINUOUS
 10
342.6103059581
 20
591.2101449275
 11
342.6103059581
 21
602.2101449275
  0
LINE
  5
2BD
100
AcDbEntity
  8
0
100
AcDbLine
 62
7
  6
CONTINUOUS
 10
342.9722315322
 20
69.3486185821
 11
342.9722315322
 21
69.416115583
  0
LINE
  5
2BE
100
AcDbEntity
  8
0
100
AcDbLine
 62
7
  6
CONTINUOUS
 10
346.2483803841
 20
69.4161060354
 11
346.2483803841
 21
69.3486185821
  0
LINE
  5
2BF
100
AcDbEntity
  8
0
100
AcDbLine
 62
7
  6
CONTINUOUS
 10
348.7103059581
 20
602.2101449275
 11
348.7103059581
 21
52.2101449275
  0
LINE
  5
2C0
100
AcDbEntity
  8
0
100
AcDbLine
 62
7
  6
CONTINUOUS
 10
351.0103059581
 20
52.2101449275
 11
351.0103059581
 21
602.2101449275
  0
LINE
  5
2C1
100
AcDbEntity
  8
0
100
AcDbLine
 62
7
  6
CONTINUOUS
 10
351.2103059581
 20
450.2101449275
 11
351.2103059581
 21
520.2101449275
  0
LINE
  5
2C2
100
AcDbEntity
  8
0
100
AcDbLine
 62
7
  6
CONTINUOUS
 10
352.6103059581
 20
71.2101449275
 11
352.6103059581
 21
73.2101449275
  0
LINE
  5
2C3
100
AcDbEntity
  8
0
100
AcDbLine
 62
7
  6
CONTINUOUS
 10
353.6103059581
 20
71.2101449275
 11
353.6103059581
 21
70.2101449275
  0
LINE
  5
2C4
100
AcDbEntity
  8
0
100
AcDbLine
 62
7
  6
CONTINUOUS
 10
353.8103059581
 20
576.9101449275
 11
353.8103059581
 21
75.0101449275
  0
LINE
  5
2C5
100
AcDbEntity
  8
0
100
AcDbLine
 62
7
  6
CONTINUOUS
 10
354.1103059581
 20
73.2101449275
 11
354.1103059581
 21
74.7101449275
  0
LINE
  5
2C6
100
AcDbEntity
  8
0
100
AcDbLine
 62
7
  6
CONTINUOUS
 10
354.1103059581
 20
577.2101449275
 11
354.1103059581
 21
578.7101449275
  0
LINE
  5
2C7
100
AcDbEntity
  8
0
100
AcDbLine
 62
7
  6
CONTINUOUS
 10
354.6103059581
 20
577.2101449275
 11
354.6103059581
 21
577.4101449275
  0
LINE
  5
2C8
100
AcDbEntity
  8
0
100
AcDbLine
 62
7
  6
CONTINUOUS
 10
355.3103059296
 20
74.2101449351
 11
355.3103059297
 21
74.7101449276
  0
LINE
  5
2C9
100
AcDbEntity
  8
0
100
AcDbLine
 62
7
  6
CONTINUOUS
 10
355.3103059581
 20
577.2101449276
 11
355.3103059581
 21
577.4101449275
  0
LINE
  5
2CA
100
AcDbEntity
  8
0
100
AcDbLine
 62
7
  6
CONTINUOUS
 10
355.6103059581
 20
70.2101449275
 11
355.6103059581
 21
73.2101449275
  0
LINE
  5
2CB
100
AcDbEntity
  8
0
100
AcDbLine
 62
7
  6
CONTINUOUS
 10
355.6103059581
 20
74.5101449275
 11
355.6103059581
 21
577.4101449275
  0
LINE
  5
2CC
100
AcDbEntity
  8
0
100
AcDbLine
 62
7
  6
CONTINUOUS
 10
356.6103059581
 20
74.5101449275
 11
356.6103059581
 21
577.4101449275
  0
LINE
  5
2CD
100
AcDbEntity
  8
0
100
AcDbLine
 62
7
  6
CONTINUOUS
 10
357.8200781868
 20
509.7101449275
 11
357.8200781868
 21
501.7101449275
  0
LINE
  5
2CE
100
AcDbEntity
  8
0
100
AcDbLine
 62
7
  6
CONTINUOUS
 10
357.8200781868
 20
324.9601449275
 11
357.8200781868
 21
316.9601449275
  0
LINE
  5
2CF
100
AcDbEntity
  8
0
100
AcDbLine
 62
7
  6
CONTINUOUS
 10
357.8200781868
 20
140.2101449275
 11
357.8200781868
 21
132.2101449275
  0
LINE
  5
2D0
100
AcDbEntity
  8
0
100
AcDbLine
 62
7
  6
CONTINUOUS
 10
358.6103059581
 20
506.3101449275
 11
358.6103059581
 21
505.1101449275
  0
LINE
  5
2D1
100
AcDbEntity
  8
0
100
AcDbLine
 62
7
  6
CONTINUOUS
 10
358.6103059581
 20
321.5601449275
 11
358.6103059581
 21
320.3601449275
  0
LINE
  5
2D2
100
AcDbEntity
  8
0
100
AcDbLine
 62
7
  6
CONTINUOUS
 10
358.6103059581
 20
136.8101449275
 11
358.6103059581
 21
135.6101449275
  0
LINE
  5
2D3
100
AcDbEntity
  8
0
100
AcDbLine
 62
7
  6
CONTINUOUS
 10
358.658218592
 20
509.255599473
 11
358.658218592
 21
506.3101449275
  0
LINE
  5
2D4
100
AcDbEntity
  8
0
100
AcDbLine
 62
7
  6
CONTINUOUS
 10
358.658218592
 20
324.505599473
 11
358.658218592
 21
321.5601449275
  0
LINE
  5
2D5
100
AcDbEntity
  8
0
100
AcDbLine
 62
7
  6
CONTINUOUS
 10
358.658218592
 20
139.755599473
 11
358.658218592
 21
136.8101449275
  0
LINE
  5
2D6
100
AcDbEntity
  8
0
100
AcDbLine
 62
7
  6
CONTINUOUS
 10
358.658218592
 20
132.6646903821
 11
358.658218592
 21
135.6101449275
  0
LINE
  5
2D7
100
AcDbEntity
  8
0
100
AcDbLine
 62
7
  6
CONTINUOUS
 10
358.658218592
 20
317.4146903821
 11
358.658218592
 21
320.3601449275
  0
LINE
  5
2D8
100
AcDbEntity
  8
0
100
AcDbLine
 62
7
  6
CONTINUOUS
 10
358.658218592
 20
502.1646903821
 11
358.658218592
 21
505.1101449275
  0
LINE
  5
2D9
100
AcDbEntity
  8
0
100
AcDbLine
 62
7
  6
CONTINUOUS
 10
359.4353105481
 20
319.1073981809
 11
359.3949640503
 21
318.9601449275
  0
LINE
  5
2DA
100
AcDbEntity
  8
0
100
AcDbLine
 62
7
  6
CONTINUOUS
 10
351.0103059581
 20
450.2101449275
 11
351.2103059581
 21
450.2101449275
  0
LINE
  5
2DB
100
AcDbEntity
  8
0
100
AcDbLine
 62
7
  6
CONTINUOUS
 10
359.3949643966
 20
322.9601449275
 11
359.4353047241
 21
322.8129135758
  0
LINE
  5
2DC
100
AcDbEntity
  8
0
100
AcDbLine
 62
7
  6
CONTINUOUS
 10
351.2103059581
 20
450.7101449275
 11
351.0103059581
 21
450.7101449275
  0
LINE
  5
2DD
100
AcDbEntity
  8
0
100
AcDbLine
 62
7
  6
CONTINUOUS
 10
359.4353105481
 20
134.3573981809
 11
359.3949640503
 21
134.2101449275
  0
LINE
  5
2DE
100
AcDbEntity
  8
0
100
AcDbLine
 62
7
  6
CONTINUOUS
 10
116.6103059581
 20
501.7101449275
 11
115.4005337295
 21
501.7101449275
  0
LINE
  5
2DF
100
AcDbEntity
  8
0
100
AcDbLine
 62
7
  6
CONTINUOUS
 10
356.6103059581
 20
501.7101449275
 11
357.8200781868
 21
501.7101449275
  0
LINE
  5
2E0
100
AcDbEntity
  8
0
100
AcDbLine
 62
7
  6
CONTINUOUS
 10
359.4768839717
 20
504.6003373064
 11
359.4063750169
 21
504.6003373064
  0
LINE
  5
2E1
100
AcDbEntity
  8
0
100
AcDbLine
 62
7
  6
CONTINUOUS
 10
113.7437279446
 20
504.6003373064
 11
113.8141449576
 21
504.6003373064
  0
LINE
  5
2E2
100
AcDbEntity
  8
0
100
AcDbLine
 62
7
  6
CONTINUOUS
 10
113.666072012
 20
504.6916403852
 11
113.823816432
 21
504.6916403852
  0
LINE
  5
2E3
100
AcDbEntity
  8
0
100
AcDbLine
 62
7
  6
CONTINUOUS
 10
359.3968012364
 20
504.6916403852
 11
359.5545407555
 21
504.6916403852
  0
LINE
  5
2E4
100
AcDbEntity
  8
0
100
AcDbLine
 62
7
  6
CONTINUOUS
 10
113.7487796127
 20
505.1101449275
 11
114.6103059581
 21
505.1101449275
  0
LINE
  5
2E5
100
AcDbEntity
  8
0
100
AcDbLine
 62
7
  6
CONTINUOUS
 10
358.6103059581
 20
505.1101449275
 11
359.4718323036
 21
505.1101449275
  0
LINE
  5
2E6
100
AcDbEntity
  8
0
100
AcDbLine
 62
7
  6
CONTINUOUS
 10
359.4718323036
 20
506.3101449275
 11
358.6103059581
 21
506.3101449275
  0
LINE
  5
2E7
100
AcDbEntity
  8
0
100
AcDbLine
 62
7
  6
CONTINUOUS
 10
114.6103059581
 20
506.3101449275
 11
113.7487796127
 21
506.3101449275
  0
LINE
  5
2E8
100
AcDbEntity
  8
0
100
AcDbLine
 62
7
  6
CONTINUOUS
 10
359.5545399043
 20
506.7286494699
 11
359.3962585974
 21
506.7286494699
  0
LINE
  5
2E9
100
AcDbEntity
  8
0
100
AcDbLine
 62
7
  6
CONTINUOUS
 10
113.8238106799
 20
506.7286494699
 11
113.6660711608
 21
506.7286494699
  0
LINE
  5
2EA
100
AcDbEntity
  8
0
100
AcDbLine
 62
7
  6
CONTINUOUS
 10
359.4768839717
 20
506.8199525487
 11
359.4061697619
 21
506.8199525487
  0
LINE
  5
2EB
100
AcDbEntity
  8
0
100
AcDbLine
 62
7
  6
CONTINUOUS
 10
113.7437279446
 20
506.8199525487
 11
113.8142368993
 21
506.8199525487
  0
LINE
  5
2EC
100
AcDbEntity
  8
0
100
AcDbLine
 62
7
  6
CONTINUOUS
 10
116.6103059581
 20
509.7101449275
 11
115.4005337295
 21
509.7101449275
  0
LINE
  5
2ED
100
AcDbEntity
  8
0
100
AcDbLine
 62
7
  6
CONTINUOUS
 10
356.6103059581
 20
509.7101449275
 11
357.8200781868
 21
509.7101449275
  0
LINE
  5
2EE
100
AcDbEntity
  8
0
100
AcDbLine
 62
7
  6
CONTINUOUS
 10
359.3949643966
 20
507.7101449275
 11
359.4353105481
 21
507.5628916741
  0
LINE
  5
2EF
100
AcDbEntity
  8
0
100
AcDbLine
 62
7
  6
CONTINUOUS
 10
351.0103059581
 20
519.7101449275
 11
351.2103059581
 21
519.7101449275
  0
LINE
  5
2F0
100
AcDbEntity
  8
0
100
AcDbLine
 62
7
  6
CONTINUOUS
 10
351.2103059581
 20
520.2101449275
 11
351.0103059581
 21
520.2101449275
  0
LINE
  5
2F1
100
AcDbEntity
  8
0
100
AcDbLine
 62
7
  6
CONTINUOUS
 10
359.4360518853
 20
135.0601449275
 11
359.4768839717
 21
135.1003373064
  0
LINE
  5
2F2
100
AcDbEntity
  8
0
100
AcDbLine
 62
7
  6
CONTINUOUS
 10
270.5487835892
 20
540.9101449275
 11
273.471828327
 21
540.9101449275
  0
LINE
  5
2F3
100
AcDbEntity
  8
0
100
AcDbLine
 62
7
  6
CONTINUOUS
 10
356.6103059581
 20
573.7101449275
 11
355.6103059581
 21
573.7101449275
  0
LINE
  5
2F4
100
AcDbEntity
  8
0
100
AcDbLine
 62
7
  6
CONTINUOUS
 10
116.6103059581
 20
573.7101449275
 11
117.6103059581
 21
573.7101449275
  0
LINE
  5
2F5
100
AcDbEntity
  8
0
100
AcDbLine
 62
7
  6
CONTINUOUS
 10
356.6103059581
 20
576.7101449275
 11
355.6103059581
 21
576.7101449275
  0
LINE
  5
2F6
100
AcDbEntity
  8
0
100
AcDbLine
 62
7
  6
CONTINUOUS
 10
116.6103059581
 20
576.7101449275
 11
117.6103059581
 21
576.7101449275
  0
LINE
  5
2F7
100
AcDbEntity
  8
0
100
AcDbLine
 62
7
  6
CONTINUOUS
 10
119.4103059581
 20
576.9101449275
 11
122.2103059581
 21
576.9101449275
  0
LINE
  5
2F8
100
AcDbEntity
  8
0
100
AcDbLine
 62
7
  6
CONTINUOUS
 10
351.0103059581
 20
576.9101449275
 11
353.8103059581
 21
576.9101449275
  0
LINE
  5
2F9
100
AcDbEntity
  8
0
100
AcDbLine
 62
7
  6
CONTINUOUS
 10
355.6103059581
 20
577.2101449275
 11
354.1103059581
 21
577.2101449275
  0
LINE
  5
2FA
100
AcDbEntity
  8
0
100
AcDbLine
 62
7
  6
CONTINUOUS
 10
119.1103059581
 20
577.2101449275
 11
117.6103059581
 21
577.2101449275
  0
LINE
  5
2FB
100
AcDbEntity
  8
0
100
AcDbLine
 62
7
  6
CONTINUOUS
 10
117.7522676243
 20
577.4101449275
 11
119.1103059581
 21
577.4101449275
  0
LINE
  5
2FC
100
AcDbEntity
  8
0
100
AcDbLine
 62
7
  6
CONTINUOUS
 10
354.1103059581
 20
577.4101449275
 11
355.5697893411
 21
577.4101449275
  0
LINE
  5
2FD
100
AcDbEntity
  8
0
100
AcDbLine
 62
7
  6
CONTINUOUS
 10
355.3103059581
 20
577.7101449275
 11
354.1103059581
 21
577.7101449275
  0
LINE
  5
2FE
100
AcDbEntity
  8
0
100
AcDbLine
 62
7
  6
CONTINUOUS
 10
119.1103059581
 20
577.7101449275
 11
117.9103059581
 21
577.7101449275
  0
LINE
  5
2FF
100
AcDbEntity
  8
0
100
AcDbLine
 62
7
  6
CONTINUOUS
 10
355.3103053377
 20
578.7101449275
 11
351.0103059581
 21
578.7101449275
  0
LINE
  5
300
100
AcDbEntity
  8
0
100
AcDbLine
 62
7
  6
CONTINUOUS
 10
122.2103059581
 20
578.7101449275
 11
117.9103059581
 21
578.7101449275
  0
LINE
  5
301
100
AcDbEntity
  8
0
100
AcDbLine
 62
7
  6
CONTINUOUS
 10
336.6103059581
 20
602.2101449275
 11
136.6103059581
 21
602.2101449275
  0
LINE
  5
302
100
AcDbEntity
  8
0
100
AcDbLine
 62
7
  6
CONTINUOUS
 10
122.2103059581
 20
602.2101449275
 11
130.6103059581
 21
602.2101449275
  0
LINE
  5
303
100
AcDbEntity
  8
0
100
AcDbLine
 62
7
  6
CONTINUOUS
 10
342.6103059581
 20
602.2101449275
 11
351.0103059581
 21
602.2101449275
  0
ARC
  5
304
100
AcDbEntity
  8
0
100
AcDbCircle
 62
7
  6
CONTINUOUS
 10
-51.4231890827
 20
93.07616616
 40
171.7860999937
100
AcDbArc
 50
353.8454583669
 51
353.963281382
  0
ARC
  5
305
100
AcDbEntity
  8
0
100
AcDbCircle
 62
7
  6
CONTINUOUS
 10
137.4763313708
 20
-95.8233900673
 40
171.7861401658
100
AcDbArc
 50
96.0367186031
 51
96.1545415862
  0
ARC
  5
306
100
AcDbEntity
  8
0
100
AcDbCircle
 62
7
  6
CONTINUOUS
 10
133.6103059581
 20
72.2101449275
 40
7.5
100
AcDbArc
 50
293.5781784782
 51
246.4218215218
  0
ARC
  5
307
100
AcDbEntity
  8
0
100
AcDbCircle
 62
7
  6
CONTINUOUS
 10
141.1103059581
 20
74.6101449275
 40
6.4722484501
100
AcDbArc
 50
237.3236985898
 51
255.3394423353
  0
ARC
  5
308
100
AcDbEntity
  8
0
100
AcDbCircle
 62
7
  6
CONTINUOUS
 10
128.6103059581
 20
75.6101449275
 40
6.4722484501
100
AcDbArc
 50
284.6605576647
 51
302.6763014101
  0
ARC
  5
309
100
AcDbEntity
  8
0
100
AcDbCircle
 62
7
  6
CONTINUOUS
 10
128.6103059581
 20
75.6101449275
 40
6.4722484501
100
AcDbArc
 50
255.2610706847
 51
255.3394423353
  0
CIRCLE
  5
30A
100
AcDbEntity
  8
0
100
AcDbCircle
 62
7
  6
CONTINUOUS
 10
158.6103059581
 20
82.2101449275
 40
3.5
  0
ARC
  5
30B
100
AcDbEntity
  8
0
100
AcDbCircle
 62
7
  6
CONTINUOUS
 10
133.6103059581
 20
62.2101449275
 40
3.0
100
AcDbArc
 50
180.0
 51
360.0
  0
CIRCLE
  5
30C
100
AcDbEntity
  8
0
100
AcDbCircle
 62
7
  6
CONTINUOUS
 10
158.6103059581
 20
82.2101449275
 40
2.0
  0
ARC
  5
30D
100
AcDbEntity
  8
0
100
AcDbCircle
 62
7
  6
CONTINUOUS
 10
127.4005776465
 20
70.6661810127
 40
1.3854425835
100
AcDbArc
 50
251.4848083563
 51
251.9903980185
  0
ARC
  5
30E
100
AcDbEntity
  8
0
100
AcDbCircle
 62
7
  6
CONTINUOUS
 10
117.9103059581
 20
74.5101449275
 40
1.3
100
AcDbArc
 50
180.0
 51
256.7674077823
  0
ARC
  5
30F
100
AcDbEntity
  8
0
100
AcDbCircle
 62
7
  6
CONTINUOUS
 10
138.1625817981
 20
70.0144301146
 40
1.0124249764
100
AcDbArc
 50
235.7495592943
 51
237.3242363891
  0
ARC
  5
310
100
AcDbEntity
  8
0
100
AcDbCircle
 62
7
  6
CONTINUOUS
 10
131.5580301182
 20
71.0144301145
 40
1.0124249762
100
AcDbArc
 50
302.6757636107
 51
304.2504407058
  0
ARC
  5
311
100
AcDbEntity
  8
0
100
AcDbCircle
 62
7
  6
CONTINUOUS
 10
138.1619364342
 20
70.0134527985
 40
1.0112539232
100
AcDbArc
 50
234.1721147923
 51
235.7486189907
  0
ARC
  5
312
100
AcDbEntity
  8
0
100
AcDbCircle
 62
7
  6
CONTINUOUS
 10
131.5586754821
 20
71.0134527985
 40
1.0112539232
100
AcDbArc
 50
304.2513810094
 51
305.8278852078
  0
ARC
  5
313
100
AcDbEntity
  8
0
100
AcDbCircle
 62
7
  6
CONTINUOUS
 10
138.1612999823
 20
70.0125954773
 40
1.0101862766
100
AcDbArc
 50
232.5947524426
 51
234.1729194402
  0
ARC
  5
314
100
AcDbEntity
  8
0
100
AcDbCircle
 62
7
  6
CONTINUOUS
 10
131.5593119338
 20
71.0125954774
 40
1.0101862768
100
AcDbArc
 50
305.8270805598
 51
307.4052475571
  0
ARC
  5
315
100
AcDbEntity
  8
0
100
AcDbCircle
 62
7
  6
CONTINUOUS
 10
138.1103059581
 20
70.0003726989
 40
1.0
100
AcDbArc
 50
180.0
 51
232.2068021756
  0
ARC
  5
316
100
AcDbEntity
  8
0
100
AcDbCircle
 62
7
  6
CONTINUOUS
 10
131.6103059581
 20
71.0003726989
 40
1.0
100
AcDbArc
 50
307.7931978244
 51
360.0
  0
ARC
  5
317
100
AcDbEntity
  8
0
100
AcDbCircle
 62
7
  6
CONTINUOUS
 10
117.9103059581
 20
74.5101449275
 40
0.3
100
AcDbArc
 50
180.0
 51
270.0
  0
CIRCLE
  5
318
100
AcDbEntity
  8
0
100
AcDbCircle
 62
7
  6
CONTINUOUS
 10
210.6103059581
 20
82.2101449275
 40
3.5
  0
CIRCLE
  5
319
100
AcDbEntity
  8
0
100
AcDbCircle
 62
7
  6
CONTINUOUS
 10
210.6103059581
 20
82.2101449275
 40
2.0
  0
ARC
  5
31A
100
AcDbEntity
  8
0
100
AcDbCircle
 62
7
  6
CONTINUOUS
 10
148.2103059581
 20
135.7101449275
 40
7.0142242707
100
AcDbArc
 50
90.0000000024
 51
269.9999999975
  0
ARC
  5
31B
100
AcDbEntity
  8
0
100
AcDbCircle
 62
7
  6
CONTINUOUS
 10
120.0103059581
 20
136.2101449275
 40
6.5
100
AcDbArc
 50
146.9442688491
 51
162.0797868606
  0
ARC
  5
31C
100
AcDbEntity
  8
0
100
AcDbCircle
 62
7
  6
CONTINUOUS
 10
120.0103059581
 20
136.2101449275
 40
6.5
100
AcDbArc
 50
197.9202131394
 51
213.0557311509
  0
ARC
  5
31D
100
AcDbEntity
  8
0
100
AcDbCircle
 62
7
  6
CONTINUOUS
 10
118.139179137
 20
136.7176400609
 40
4.5543450728
100
AcDbArc
 50
164.820793897
 51
166.0364292454
  0
ARC
  5
31E
100
AcDbEntity
  8
0
100
AcDbCircle
 62
7
  6
CONTINUOUS
 10
118.1369854552
 20
135.7022182891
 40
4.5521149429
100
AcDbArc
 50
193.9649169174
 51
195.1811940446
  0
ARC
  5
31F
100
AcDbEntity
  8
0
100
AcDbCircle
 62
7
  6
CONTINUOUS
 10
117.9018972491
 20
136.7759362571
 40
4.3100079148
100
AcDbArc
 50
166.0273392784
 51
167.103262352
  0
ARC
  5
320
100
AcDbEntity
  8
0
100
AcDbCircle
 62
7
  6
CONTINUOUS
 10
117.8848241425
 20
135.6399785504
 40
4.2923864411
100
AcDbArc
 50
192.8907489102
 51
193.970968401
  0
ARC
  5
321
100
AcDbEntity
  8
0
100
AcDbCircle
 62
7
  6
CONTINUOUS
 10
117.6228551052
 20
135.5800194665
 40
4.0236433142
100
AcDbArc
 50
192.2332700415
 51
192.8906839471
  0
ARC
  5
322
100
AcDbEntity
  8
0
100
AcDbCircle
 62
7
  6
CONTINUOUS
 10
117.6007395196
 20
136.8449050979
 40
4.0010537453
100
AcDbArc
 50
167.1034376748
 51
167.7645941052
  0
ARC
  5
323
100
AcDbEntity
  8
0
100
AcDbCircle
 62
7
  6
CONTINUOUS
 10
117.2955105659
 20
135.5094700325
 40
3.6887829212
100
AcDbArc
 50
191.4020160182
 51
192.2397055037
  0
ARC
  5
324
100
AcDbEntity
  8
0
100
AcDbCircle
 62
7
  6
CONTINUOUS
 10
117.2704157219
 20
136.9162342706
 40
3.6631165227
100
AcDbArc
 50
167.7599616256
 51
168.6035559822
  0
ARC
  5
325
100
AcDbEntity
  8
0
100
AcDbCircle
 62
7
  6
CONTINUOUS
 10
116.894059619
 20
136.9912861458
 40
3.2793509758
100
AcDbArc
 50
168.589674056
 51
169.62269662
  0
ARC
  5
326
100
AcDbEntity
  8
0
100
AcDbCircle
 62
7
  6
CONTINUOUS
 10
116.8794133795
 20
135.426386506
 40
3.2644729048
100
AcDbArc
 50
190.3783830426
 51
191.4163239689
  0
ARC
  5
327
100
AcDbEntity
  8
0
100
AcDbCircle
 62
7
  6
CONTINUOUS
 10
116.6435780374
 20
137.0374546635
 40
3.0246502477
100
AcDbArc
 50
169.6282698365
 51
169.8707613319
  0
ARC
  5
328
100
AcDbEntity
  8
0
100
AcDbCircle
 62
7
  6
CONTINUOUS
 10
116.576635482
 20
135.3707562521
 40
2.9566269264
100
AcDbArc
 50
189.8843090773
 51
190.3749865316
  0
ARC
  5
329
100
AcDbEntity
  8
0
100
AcDbCircle
 62
7
  6
CONTINUOUS
 10
116.5444314973
 20
137.0551661818
 40
2.9239341408
100
AcDbArc
 50
169.8707347899
 51
170.1161790864
  0
ARC
  5
32A
100
AcDbEntity
  8
0
100
AcDbCircle
 62
7
  6
CONTINUOUS
 10
148.2103059581
 20
135.7101449275
 40
1.9529062513
100
AcDbArc
 50
90.6697692341
 51
269.9999999996
  0
ARC
  5
32B
100
AcDbEntity
  8
0
100
AcDbCircle
 62
7
  6
CONTINUOUS
 10
114.9999718886
 20
137.2737767918
 40
1.3636966882
100
AcDbArc
 50
174.3866878071
 51
174.5626915899
  0
ARC
  5
32C
100
AcDbEntity
  8
0
100
AcDbCircle
 62
7
  6
CONTINUOUS
 10
114.990650189
 20
135.1457317086
 40
1.3543482849
100
AcDbArc
 50
185.4410843422
 51
185.6182188309
  0
ARC
  5
32D
100
AcDbEntity
  8
0
100
AcDbCircle
 62
7
  6
CONTINUOUS
 10
115.4005337295
 20
139.2101449275
 40
1.0
100
AcDbArc
 50
90.0
 51
146.9442688491
  0
ARC
  5
32E
100
AcDbEntity
  8
0
100
AcDbCircle
 62
7
  6
CONTINUOUS
 10
115.4005337295
 20
133.2101449275
 40
1.0
100
AcDbArc
 50
213.0557311509
 51
270.0
  0
ARC
  5
32F
100
AcDbEntity
  8
0
100
AcDbCircle
 62
7
  6
CONTINUOUS
 10
113.072444888
 20
135.2098811253
 40
0.7532025776
100
AcDbArc
 50
358.3669385744
 51
0.0200673149
  0
ARC
  5
330
100
AcDbEntity
  8
0
100
AcDbCircle
 62
7
  6
CONTINUOUS
 10
113.0726694222
 20
137.2104082624
 40
0.7529780629
100
AcDbArc
 50
359.9799622618
 51
1.6344728667
  0
ARC
  5
331
100
AcDbEntity
  8
0
100
AcDbCircle
 62
7
  6
CONTINUOUS
 10
113.9761678582
 20
135.1062576452
 40
0.3381716613
100
AcDbArc
 50
175.5804124785
 51
177.2713984524
  0
ARC
  5
332
100
AcDbEntity
  8
0
100
AcDbCircle
 62
7
  6
CONTINUOUS
 10
113.9744688794
 20
137.3139523433
 40
0.3364737461
100
AcDbArc
 50
182.7296232272
 51
184.4290951762
  0
ARC
  5
333
100
AcDbEntity
  8
0
100
AcDbCircle
 62
7
  6
CONTINUOUS
 10
120.0103059581
 20
320.9601449275
 40
6.5
100
AcDbArc
 50
146.9442688491
 51
162.0797868606
  0
ARC
  5
334
100
AcDbEntity
  8
0
100
AcDbCircle
 62
7
  6
CONTINUOUS
 10
120.0103059581
 20
320.9601449275
 40
6.5
100
AcDbArc
 50
197.9202131394
 51
213.0557311509
  0
ARC
  5
335
100
AcDbEntity
  8
0
100
AcDbCircle
 62
7
  6
CONTINUOUS
 10
118.1391791374
 20
321.4676400608
 40
4.5543450731
100
AcDbArc
 50
164.8207938971
 51
166.0364292454
  0
ARC
  5
336
100
AcDbEntity
  8
0
100
AcDbCircle
 62
7
  6
CONTINUOUS
 10
118.1369854546
 20
320.452218289
 40
4.5521149424
100
AcDbArc
 50
193.9649169174
 51
195.1811940447
  0
ARC
  5
337
100
AcDbEntity
  8
0
100
AcDbCircle
 62
7
  6
CONTINUOUS
 10
117.9018972479
 20
321.5259362574
 40
4.3100079136
100
AcDbArc
 50
166.0273392782
 51
167.1032623522
  0
ARC
  5
338
100
AcDbEntity
  8
0
100
AcDbCircle
 62
7
  6
CONTINUOUS
 10
117.8848241412
 20
320.3899785501
 40
4.2923864397
100
AcDbArc
 50
192.89074891
 51
193.970968401
  0
ARC
  5
339
100
AcDbEntity
  8
0
100
AcDbCircle
 62
7
  6
CONTINUOUS
 10
117.6228551067
 20
320.3300194668
 40
4.0236433157
100
AcDbArc
 50
192.2332700416
 51
192.890683947
  0
ARC
  5
33A
100
AcDbEntity
  8
0
100
AcDbCircle
 62
7
  6
CONTINUOUS
 10
117.6007395193
 20
321.594905098
 40
4.001053745
100
AcDbArc
 50
167.1034376748
 51
167.7645941053
  0
ARC
  5
33B
100
AcDbEntity
  8
0
100
AcDbCircle
 62
7
  6
CONTINUOUS
 10
117.2955105617
 20
320.2594700316
 40
3.6887829169
100
AcDbArc
 50
191.4020160177
 51
192.2397055042
  0
ARC
  5
33C
100
AcDbEntity
  8
0
100
AcDbCircle
 62
7
  6
CONTINUOUS
 10
117.2704157222
 20
321.6662342705
 40
3.6631165231
100
AcDbArc
 50
167.7599616256
 51
168.603555982
  0
ARC
  5
33D
100
AcDbEntity
  8
0
100
AcDbCircle
 62
7
  6
CONTINUOUS
 10
116.8940596195
 20
321.7412861457
 40
3.2793509763
100
AcDbArc
 50
168.5896740561
 51
169.62269662
  0
ARC
  5
33E
100
AcDbEntity
  8
0
100
AcDbCircle
 62
7
  6
CONTINUOUS
 10
116.87941338
 20
320.1763865061
 40
3.2644729054
100
AcDbArc
 50
190.3783830428
 51
191.4163239689
  0
ARC
  5
33F
100
AcDbEntity
  8
0
100
AcDbCircle
 62
7
  6
CONTINUOUS
 10
116.6435780267
 20
321.7874546654
 40
3.0246502368
100
AcDbArc
 50
169.628269836
 51
169.8707613323
  0
ARC
  5
340
100
AcDbEntity
  8
0
100
AcDbCircle
 62
7
  6
CONTINUOUS
 10
116.5766354845
 20
320.1207562525
 40
2.9566269289
100
AcDbArc
 50
189.8843090773
 51
190.3749865312
  0
ARC
  5
341
100
AcDbEntity
  8
0
100
AcDbCircle
 62
7
  6
CONTINUOUS
 10
116.5444314965
 20
321.8051661819
 40
2.92393414
100
AcDbArc
 50
169.8707347897
 51
170.1161790863
  0
ARC
  5
342
100
AcDbEntity
  8
0
100
AcDbCircle
 62
7
  6
CONTINUOUS
 10
114.9999718853
 20
322.0237767921
 40
1.3636966848
100
AcDbArc
 50
174.3866878067
 51
174.5626915899
  0
ARC
  5
343
100
AcDbEntity
  8
0
100
AcDbCircle
 62
7
  6
CONTINUOUS
 10
114.9906502111
 20
319.8957317108
 40
1.354348307
100
AcDbArc
 50
185.4410843436
 51
185.6182188295
  0
ARC
  5
344
100
AcDbEntity
  8
0
100
AcDbCircle
 62
7
  6
CONTINUOUS
 10
115.4005337295
 20
323.9601449275
 40
1.0
100
AcDbArc
 50
90.0
 51
146.9442688491
  0
ARC
  5
345
100
AcDbEntity
  8
0
100
AcDbCircle
 62
7
  6
CONTINUOUS
 10
115.4005337295
 20
317.9601449275
 40
1.0
100
AcDbArc
 50
213.0557311509
 51
270.0
  0
ARC
  5
346
100
AcDbEntity
  8
0
100
AcDbCircle
 62
7
  6
CONTINUOUS
 10
113.072444888
 20
319.9598811253
 40
0.7532025776
100
AcDbArc
 50
358.3669385744
 51
0.0200673149
  0
ARC
  5
347
100
AcDbEntity
  8
0
100
AcDbCircle
 62
7
  6
CONTINUOUS
 10
113.0726694222
 20
321.9604082624
 40
0.7529780629
100
AcDbArc
 50
359.9799622618
 51
1.6344728667
  0
ARC
  5
348
100
AcDbEntity
  8
0
100
AcDbCircle
 62
7
  6
CONTINUOUS
 10
113.9761678583
 20
319.8562576452
 40
0.3381716614
100
AcDbArc
 50
175.5804124792
 51
177.2713984529
  0
ARC
  5
349
100
AcDbEntity
  8
0
100
AcDbCircle
 62
7
  6
CONTINUOUS
 10
113.9744688792
 20
322.0639523433
 40
0.3364737459
100
AcDbArc
 50
182.7296232265
 51
184.4290951764
  0
ARC
  5
34A
100
AcDbEntity
  8
0
100
AcDbCircle
 62
7
  6
CONTINUOUS
 10
186.2103059581
 20
135.7101449275
 40
7.0142242707
100
AcDbArc
 50
270.0000000024
 51
89.9999999975
  0
ARC
  5
34B
100
AcDbEntity
  8
0
100
AcDbCircle
 62
7
  6
CONTINUOUS
 10
186.2103059581
 20
135.7101449275
 40
1.9529062513
100
AcDbArc
 50
270.6697692341
 51
89.9999999996
  0
ARC
  5
34C
100
AcDbEntity
  8
0
100
AcDbCircle
 62
7
  6
CONTINUOUS
 10
217.6103059581
 20
290.7101449275
 40
7.0142242707
100
AcDbArc
 50
90.0000000024
 51
269.9999999975
  0
ARC
  5
34D
100
AcDbEntity
  8
0
100
AcDbCircle
 62
7
  6
CONTINUOUS
 10
217.6103059581
 20
290.7101449275
 40
1.9529062513
100
AcDbArc
 50
90.6697692342
 51
269.9999999996
  0
ARC
  5
34E
100
AcDbEntity
  8
0
100
AcDbCircle
 62
7
  6
CONTINUOUS
 10
-51.4232302823
 20
558.8441193811
 40
171.7861414185
100
AcDbArc
 50
6.0367186037
 51
6.1545415861
  0
CIRCLE
  5
34F
100
AcDbEntity
  8
0
100
AcDbCircle
 62
7
  6
CONTINUOUS
 10
142.1103059581
 20
352.8101449275
 40
3.25
  0
CIRCLE
  5
350
100
AcDbEntity
  8
0
100
AcDbCircle
 62
7
  6
CONTINUOUS
 10
142.1103059581
 20
352.8101449275
 40
2.5
  0
ARC
  5
351
100
AcDbEntity
  8
0
100
AcDbCircle
 62
7
  6
CONTINUOUS
 10
120.0103059581
 20
505.7101449275
 40
6.5
100
AcDbArc
 50
146.9442688491
 51
162.0797868606
  0
ARC
  5
352
100
AcDbEntity
  8
0
100
AcDbCircle
 62
7
  6
CONTINUOUS
 10
120.0103059581
 20
505.7101449275
 40
6.5
100
AcDbArc
 50
197.9202131394
 51
213.0557311509
  0
ARC
  5
353
100
AcDbEntity
  8
0
100
AcDbCircle
 62
7
  6
CONTINUOUS
 10
118.1391791377
 20
506.2176400607
 40
4.5543450735
100
AcDbArc
 50
164.8207938971
 51
166.0364292454
  0
ARC
  5
354
100
AcDbEntity
  8
0
100
AcDbCircle
 62
7
  6
CONTINUOUS
 10
118.1369854546
 20
505.202218289
 40
4.5521149423
100
AcDbArc
 50
193.9649169174
 51
195.1811940448
  0
ARC
  5
355
100
AcDbEntity
  8
0
100
AcDbCircle
 62
7
  6
CONTINUOUS
 10
117.9018972472
 20
506.2759362575
 40
4.3100079129
100
AcDbArc
 50
166.0273392781
 51
167.1032623522
  0
ARC
  5
356
100
AcDbEntity
  8
0
100
AcDbCircle
 62
7
  6
CONTINUOUS
 10
117.8848241427
 20
505.1399785504
 40
4.2923864412
100
AcDbArc
 50
192.8907489102
 51
193.9709684008
  0
ARC
  5
357
100
AcDbEntity
  8
0
100
AcDbCircle
 62
7
  6
CONTINUOUS
 10
117.6228551096
 20
505.0800194674
 40
4.0236433187
100
AcDbArc
 50
192.2332700419
 51
192.8906839468
  0
ARC
  5
358
100
AcDbEntity
  8
0
100
AcDbCircle
 62
7
  6
CONTINUOUS
 10
117.6007395202
 20
506.3449050978
 40
4.0010537459
100
AcDbArc
 50
167.1034376748
 51
167.7645941052
  0
ARC
  5
359
100
AcDbEntity
  8
0
100
AcDbCircle
 62
7
  6
CONTINUOUS
 10
117.2955105614
 20
505.0094700316
 40
3.6887829166
100
AcDbArc
 50
191.4020160177
 51
192.2397055042
  0
ARC
  5
35A
100
AcDbEntity
  8
0
100
AcDbCircle
 62
7
  6
CONTINUOUS
 10
117.2704157209
 20
506.4162342708
 40
3.6631165217
100
AcDbArc
 50
167.7599616254
 51
168.6035559822
  0
ARC
  5
35B
100
AcDbEntity
  8
0
100
AcDbCircle
 62
7
  6
CONTINUOUS
 10
116.8940596191
 20
506.4912861458
 40
3.2793509759
100
AcDbArc
 50
168.589674056
 51
169.6226966201
  0
ARC
  5
35C
100
AcDbEntity
  8
0
100
AcDbCircle
 62
7
  6
CONTINUOUS
 10
116.8794133803
 20
504.9263865062
 40
3.2644729056
100
AcDbArc
 50
190.3783830428
 51
191.4163239689
  0
CIRCLE
  5
35D
100
AcDbEntity
  8
0
100
AcDbCircle
 62
7
  6
CONTINUOUS
 10
142.1103059581
 20
513.8101449275
 40
3.25
  0
ARC
  5
35E
100
AcDbEntity
  8
0
100
AcDbCircle
 62
7
  6
CONTINUOUS
 10
116.6435780382
 20
506.5374546634
 40
3.0246502485
100
AcDbArc
 50
169.6282698363
 51
169.8707613317
  0
ARC
  5
35F
100
AcDbEntity
  8
0
100
AcDbCircle
 62
7
  6
CONTINUOUS
 10
116.5766354842
 20
504.8707562525
 40
2.9566269286
100
AcDbArc
 50
189.8843090773
 51
190.3749865313
  0
ARC
  5
360
100
AcDbEntity
  8
0
100
AcDbCircle
 62
7
  6
CONTINUOUS
 10
116.5444314774
 20
506.5551661853
 40
2.9239341206
100
AcDbArc
 50
169.8707347888
 51
170.116179087
  0
CIRCLE
  5
361
100
AcDbEntity
  8
0
100
AcDbCircle
 62
7
  6
CONTINUOUS
 10
142.1103059581
 20
513.8101449275
 40
2.5
  0
ARC
  5
362
100
AcDbEntity
  8
0
100
AcDbCircle
 62
7
  6
CONTINUOUS
 10
114.999971885
 20
506.7737767921
 40
1.3636966845
100
AcDbArc
 50
174.3866878061
 51
174.5626915893
  0
ARC
  5
363
100
AcDbEntity
  8
0
100
AcDbCircle
 62
7
  6
CONTINUOUS
 10
114.9906502048
 20
504.6457317102
 40
1.3543483007
100
AcDbArc
 50
185.4410843428
 51
185.6182188295
  0
ARC
  5
364
100
AcDbEntity
  8
0
100
AcDbCircle
 62
7
  6
CONTINUOUS
 10
115.4005337295
 20
508.7101449275
 40
1.0
100
AcDbArc
 50
90.0
 51
146.9442688491
  0
ARC
  5
365
100
AcDbEntity
  8
0
100
AcDbCircle
 62
7
  6
CONTINUOUS
 10
115.4005337295
 20
502.7101449275
 40
1.0
100
AcDbArc
 50
213.0557311509
 51
270.0
  0
ARC
  5
366
100
AcDbEntity
  8
0
100
AcDbCircle
 62
7
  6
CONTINUOUS
 10
113.0724448878
 20
504.7098811253
 40
0.7532025778
100
AcDbArc
 50
358.3669385745
 51
0.0200673145
  0
ARC
  5
367
100
AcDbEntity
  8
0
100
AcDbCircle
 62
7
  6
CONTINUOUS
 10
113.0726694222
 20
506.7104082624
 40
0.7529780629
100
AcDbArc
 50
359.9799622618
 51
1.6344728667
  0
ARC
  5
368
100
AcDbEntity
  8
0
100
AcDbCircle
 62
7
  6
CONTINUOUS
 10
113.9761678587
 20
504.6062576452
 40
0.3381716618
100
AcDbArc
 50
175.58041248
 51
177.2713984517
  0
ARC
  5
369
100
AcDbEntity
  8
0
100
AcDbCircle
 62
7
  6
CONTINUOUS
 10
113.9744688793
 20
506.8139523433
 40
0.3364737461
100
AcDbArc
 50
182.7296232272
 51
184.4290951765
  0
CIRCLE
  5
36A
100
AcDbEntity
  8
0
100
AcDbCircle
 62
7
  6
CONTINUOUS
 10
231.1103059581
 20
352.8101449275
 40
3.25
  0
CIRCLE
  5
36B
100
AcDbEntity
  8
0
100
AcDbCircle
 62
7
  6
CONTINUOUS
 10
231.1103059581
 20
352.8101449275
 40
2.5
  0
CIRCLE
  5
36C
100
AcDbEntity
  8
0
100
AcDbCircle
 62
7
  6
CONTINUOUS
 10
202.0103059581
 20
542.2101449275
 40
3.5
  0
CIRCLE
  5
36D
100
AcDbEntity
  8
0
100
AcDbCircle
 62
7
  6
CONTINUOUS
 10
231.1103059581
 20
513.8101449275
 40
3.25
  0
CIRCLE
  5
36E
100
AcDbEntity
  8
0
100
AcDbCircle
 62
7
  6
CONTINUOUS
 10
231.1103059581
 20
513.8101449275
 40
2.5
  0
CIRCLE
  5
36F
100
AcDbEntity
  8
0
100
AcDbCircle
 62
7
  6
CONTINUOUS
 10
202.0103059581
 20
542.2101449275
 40
2.0
  0
ARC
  5
370
100
AcDbEntity
  8
0
100
AcDbCircle
 62
7
  6
CONTINUOUS
 10
137.476327084
 20
747.743638976
 40
171.7860989956
100
AcDbArc
 50
263.8454583667
 51
263.9632813825
  0
CIRCLE
  5
371
100
AcDbEntity
  8
0
100
AcDbCircle
 62
7
  6
CONTINUOUS
 10
133.6103059581
 20
560.7101449275
 40
3.5
  0
ARC
  5
372
100
AcDbEntity
  8
0
100
AcDbCircle
 62
7
  6
CONTINUOUS
 10
133.6103059581
 20
591.2101449275
 40
3.0
100
AcDbArc
 50
180.0
 51
360.0
  0
ARC
  5
373
100
AcDbEntity
  8
0
100
AcDbCircle
 62
7
  6
CONTINUOUS
 10
119.6103059581
 20
576.7101449275
 40
2.0
100
AcDbArc
 50
149.4398025252
 51
156.6313132821
  0
CIRCLE
  5
374
100
AcDbEntity
  8
0
100
AcDbCircle
 62
7
  6
CONTINUOUS
 10
133.6103059581
 20
560.7101449275
 40
2.0
  0
ARC
  5
375
100
AcDbEntity
  8
0
100
AcDbCircle
 62
7
  6
CONTINUOUS
 10
117.9103059581
 20
577.4101449275
 40
1.3
100
AcDbArc
 50
90.0
 51
180.0
  0
ARC
  5
376
100
AcDbEntity
  8
0
100
AcDbCircle
 62
7
  6
CONTINUOUS
 10
117.9103059581
 20
577.4101449275
 40
0.3
100
AcDbArc
 50
90.0
 51
180.0
  0
CIRCLE
  5
377
100
AcDbEntity
  8
0
100
AcDbCircle
 62
7
  6
CONTINUOUS
 10
262.6103059581
 20
82.2101449275
 40
3.5
  0
CIRCLE
  5
378
100
AcDbEntity
  8
0
100
AcDbCircle
 62
7
  6
CONTINUOUS
 10
262.6103059581
 20
82.2101449275
 40
2.0
  0
ARC
  5
379
100
AcDbEntity
  8
0
100
AcDbCircle
 62
7
  6
CONTINUOUS
 10
335.744284964
 20
-95.8233478929
 40
171.7860977605
100
AcDbArc
 50
83.8454583665
 51
83.9632813832
  0
ARC
  5
37A
100
AcDbEntity
  8
0
100
AcDbCircle
 62
7
  6
CONTINUOUS
 10
339.6103059581
 20
72.2101449275
 40
7.5
100
AcDbArc
 50
293.5781784782
 51
246.4218215218
  0
ARC
  5
37B
100
AcDbEntity
  8
0
100
AcDbCircle
 62
7
  6
CONTINUOUS
 10
332.1103059581
 20
74.6101449275
 40
6.4722484501
100
AcDbArc
 50
284.6605576647
 51
302.6763014102
  0
ARC
  5
37C
100
AcDbEntity
  8
0
100
AcDbCircle
 62
7
  6
CONTINUOUS
 10
344.6103059581
 20
75.6101449275
 40
6.4722484501
100
AcDbArc
 50
284.6605576647
 51
284.7741788105
  0
ARC
  5
37D
100
AcDbEntity
  8
0
100
AcDbCircle
 62
7
  6
CONTINUOUS
 10
344.6103059581
 20
75.6101449275
 40
6.4722484501
100
AcDbArc
 50
237.3236985899
 51
255.3394423353
  0
CIRCLE
  5
37E
100
AcDbEntity
  8
0
100
AcDbCircle
 62
7
  6
CONTINUOUS
 10
314.6103059581
 20
82.2101449275
 40
3.5
  0
ARC
  5
37F
100
AcDbEntity
  8
0
100
AcDbCircle
 62
7
  6
CONTINUOUS
 10
339.6103059581
 20
62.2101449275
 40
3.0
100
AcDbArc
 50
180.0
 51
360.0
  0
CIRCLE
  5
380
100
AcDbEntity
  8
0
100
AcDbCircle
 62
7
  6
CONTINUOUS
 10
314.6103059581
 20
82.2101449275
 40
2.0
  0
ARC
  5
381
100
AcDbEntity
  8
0
100
AcDbCircle
 62
7
  6
CONTINUOUS
 10
345.820013833
 20
70.6662429705
 40
1.3855078242
100
AcDbArc
 50
288.009613542
 51
288.514338693
  0
ARC
  5
382
100
AcDbEntity
  8
0
100
AcDbCircle
 62
7
  6
CONTINUOUS
 10
355.3103059581
 20
74.5101449275
 40
1.3
100
AcDbArc
 50
282.8835908631
 51
360.0
  0
ARC
  5
383
100
AcDbEntity
  8
0
100
AcDbCircle
 62
7
  6
CONTINUOUS
 10
346.4038354825
 20
68.3699548729
 40
1.0583840358
100
AcDbArc
 50
96.4869208328
 51
98.3111923295
  0
ARC
  5
384
100
AcDbEntity
  8
0
100
AcDbCircle
 62
7
  6
CONTINUOUS
 10
335.0580301179
 20
70.014430115
 40
1.0124249769
100
AcDbArc
 50
302.6757636112
 51
304.250440705
  0
ARC
  5
385
100
AcDbEntity
  8
0
100
AcDbCircle
 62
7
  6
CONTINUOUS
 10
341.6625817984
 20
71.0144301151
 40
1.0124249769
100
AcDbArc
 50
235.7495592948
 51
237.3242363888
  0
ARC
  5
386
100
AcDbEntity
  8
0
100
AcDbCircle
 62
7
  6
CONTINUOUS
 10
335.0586754821
 20
70.0134527985
 40
1.0112539231
100
AcDbArc
 50
304.251381009
 51
305.8278852075
  0
ARC
  5
387
100
AcDbEntity
  8
0
100
AcDbCircle
 62
7
  6
CONTINUOUS
 10
341.6619364343
 20
71.0134527987
 40
1.0112539234
100
AcDbArc
 50
234.1721147923
 51
235.7486189904
  0
ARC
  5
388
100
AcDbEntity
  8
0
100
AcDbCircle
 62
7
  6
CONTINUOUS
 10
335.0593119338
 20
70.0125954775
 40
1.0101862768
100
AcDbArc
 50
305.8270805599
 51
307.4052475574
  0
ARC
  5
389
100
AcDbEntity
  8
0
100
AcDbCircle
 62
7
  6
CONTINUOUS
 10
341.6612999826
 20
71.0125954776
 40
1.010186277
100
AcDbArc
 50
232.594752443
 51
234.1729194399
  0
ARC
  5
38A
100
AcDbEntity
  8
0
100
AcDbCircle
 62
7
  6
CONTINUOUS
 10
335.1103059581
 20
70.0003726989
 40
1.0
100
AcDbArc
 50
307.7931978244
 51
360.0
  0
ARC
  5
38B
100
AcDbEntity
  8
0
100
AcDbCircle
 62
7
  6
CONTINUOUS
 10
341.6103059581
 20
71.0003726989
 40
1.0
100
AcDbArc
 50
180.0
 51
232.2068021756
  0
ARC
  5
38C
100
AcDbEntity
  8
0
100
AcDbCircle
 62
7
  6
CONTINUOUS
 10
355.3103059581
 20
74.5101449275
 40
0.3
100
AcDbArc
 50
270.0
 51
360.0
  0
ARC
  5
38D
100
AcDbEntity
  8
0
100
AcDbCircle
 62
7
  6
CONTINUOUS
 10
287.0103059581
 20
135.7101449275
 40
7.0142242707
100
AcDbArc
 50
90.0000000024
 51
269.9999999975
  0
ARC
  5
38E
100
AcDbEntity
  8
0
100
AcDbCircle
 62
7
  6
CONTINUOUS
 10
287.0103059581
 20
135.7101449275
 40
1.9529062513
100
AcDbArc
 50
90.6697692341
 51
269.9999999996
  0
ARC
  5
38F
100
AcDbEntity
  8
0
100
AcDbCircle
 62
7
  6
CONTINUOUS
 10
255.6103059581
 20
290.7101449275
 40
7.0142242707
100
AcDbArc
 50
270.0000000024
 51
89.9999999975
  0
ARC
  5
390
100
AcDbEntity
  8
0
100
AcDbCircle
 62
7
  6
CONTINUOUS
 10
255.6103059581
 20
290.7101449275
 40
1.9529062513
100
AcDbArc
 50
270.6697692341
 51
89.9999999996
  0
ARC
  5
391
100
AcDbEntity
  8
0
100
AcDbCircle
 62
7
  6
CONTINUOUS
 10
325.0103059581
 20
135.7101449275
 40
7.0142242707
100
AcDbArc
 50
270.0000000024
 51
89.9999999975
  0
ARC
  5
392
100
AcDbEntity
  8
0
100
AcDbCircle
 62
7
  6
CONTINUOUS
 10
353.2103059581
 20
136.2101449275
 40
6.5
100
AcDbArc
 50
17.9202131394
 51
33.0557311509
  0
ARC
  5
393
100
AcDbEntity
  8
0
100
AcDbCircle
 62
7
  6
CONTINUOUS
 10
353.2103059581
 20
136.2101449275
 40
6.5
100
AcDbArc
 50
326.9442688491
 51
342.0797868606
  0
ARC
  5
394
100
AcDbEntity
  8
0
100
AcDbCircle
 62
7
  6
CONTINUOUS
 10
355.0814327773
 20
135.7026497947
 40
4.5543450748
100
AcDbArc
 50
344.8207938973
 51
346.0364292452
  0
ARC
  5
395
100
AcDbEntity
  8
0
100
AcDbCircle
 62
7
  6
CONTINUOUS
 10
355.0836264614
 20
136.718071566
 40
4.5521149426
100
AcDbArc
 50
13.9649169175
 51
15.1811940448
  0
ARC
  5
396
100
AcDbEntity
  8
0
100
AcDbCircle
 62
7
  6
CONTINUOUS
 10
355.3187146703
 20
135.6443535972
 40
4.3100079116
100
AcDbArc
 50
346.027339278
 51
347.1032623524
  0
ARC
  5
397
100
AcDbEntity
  8
0
100
AcDbCircle
 62
7
  6
CONTINUOUS
 10
355.3357877697
 20
136.7803113037
 40
4.2923864452
100
AcDbArc
 50
12.8907489107
 51
13.9709684003
  0
ARC
  5
398
100
AcDbEntity
  8
0
100
AcDbCircle
 62
7
  6
CONTINUOUS
 10
355.5977568087
 20
136.8402703881
 40
4.0236433166
100
AcDbArc
 50
12.2332700415
 51
12.8906839468
  0
ARC
  5
399
100
AcDbEntity
  8
0
100
AcDbCircle
 62
7
  6
CONTINUOUS
 10
355.619872398
 20
135.5753847569
 40
4.001053744
100
AcDbArc
 50
347.1034376746
 51
347.7645941054
  0
ARC
  5
39A
100
AcDbEntity
  8
0
100
AcDbCircle
 62
7
  6
CONTINUOUS
 10
355.9251013539
 20
136.9108198233
 40
3.6887829176
100
AcDbArc
 50
11.402016018
 51
12.2397055042
  0
ARC
  5
39B
100
AcDbEntity
  8
0
100
AcDbCircle
 62
7
  6
CONTINUOUS
 10
355.9501961946
 20
135.5040555845
 40
3.6631165225
100
AcDbArc
 50
347.7599616255
 51
348.603555982
  0
ARC
  5
39C
100
AcDbEntity
  8
0
100
AcDbCircle
 62
7
  6
CONTINUOUS
 10
356.3265522985
 20
135.429003709
 40
3.2793509745
100
AcDbArc
 50
348.5896740557
 51
349.6226966203
  0
ARC
  5
39D
100
AcDbEntity
  8
0
100
AcDbCircle
 62
7
  6
CONTINUOUS
 10
356.3411985365
 20
136.993903349
 40
3.2644729051
100
AcDbArc
 50
10.3783830427
 51
11.4163239689
  0
ARC
  5
39E
100
AcDbEntity
  8
0
100
AcDbCircle
 62
7
  6
CONTINUOUS
 10
356.5770338591
 20
135.3828351952
 40
3.0246502678
100
AcDbArc
 50
349.6282698372
 51
349.870761331
  0
ARC
  5
39F
100
AcDbEntity
  8
0
100
AcDbCircle
 62
7
  6
CONTINUOUS
 10
356.6439764315
 20
137.0495336025
 40
2.9566269292
100
AcDbArc
 50
9.8843090776
 51
10.3749865314
  0
ARC
  5
3A0
100
AcDbEntity
  8
0
100
AcDbCircle
 62
7
  6
CONTINUOUS
 10
356.6761804082
 20
135.3651236752
 40
2.9239341518
100
AcDbArc
 50
349.8707347901
 51
350.1161790857
  0
ARC
  5
3A1
100
AcDbEntity
  8
0
100
AcDbCircle
 62
7
  6
CONTINUOUS
 10
325.0103059581
 20
135.7101449275
 40
1.9529062513
100
AcDbArc
 50
270.6697692341
 51
89.9999999996
  0
ARC
  5
3A2
100
AcDbEntity
  8
0
100
AcDbCircle
 62
7
  6
CONTINUOUS
 10
358.220640049
 20
135.1465130613
 40
1.3636966668
100
AcDbArc
 50
354.3866878059
 51
354.5626915913
  0
ARC
  5
3A3
100
AcDbEntity
  8
0
100
AcDbCircle
 62
7
  6
CONTINUOUS
 10
358.2299616199
 20
137.2745581361
 40
1.3543483927
100
AcDbArc
 50
5.4410843481
 51
5.6182188227
  0
ARC
  5
3A4
100
AcDbEntity
  8
0
100
AcDbCircle
 62
7
  6
CONTINUOUS
 10
357.8200781868
 20
139.2101449275
 40
1.0
100
AcDbArc
 50
33.0557311509
 51
90.0
  0
ARC
  5
3A5
100
AcDbEntity
  8
0
100
AcDbCircle
 62
7
  6
CONTINUOUS
 10
357.8200781868
 20
133.2101449275
 40
1.0
100
AcDbArc
 50
270.0
 51
326.9442688491
  0
ARC
  5
3A6
100
AcDbEntity
  8
0
100
AcDbCircle
 62
7
  6
CONTINUOUS
 10
360.1479424941
 20
135.2098815927
 40
0.7529780629
100
AcDbArc
 50
179.9799622618
 51
181.6344728667
  0
ARC
  5
3A7
100
AcDbEntity
  8
0
100
AcDbCircle
 62
7
  6
CONTINUOUS
 10
359.2444440582
 20
137.3140322099
 40
0.3381716612
100
AcDbArc
 50
355.5804124788
 51
357.2713984536
  0
ARC
  5
3A8
100
AcDbEntity
  8
0
100
AcDbCircle
 62
7
  6
CONTINUOUS
 10
359.246143037
 20
135.1063375118
 40
0.3364737461
100
AcDbArc
 50
2.7296232268
 51
4.4290951761
  0
ARC
  5
3A9
100
AcDbEntity
  8
0
100
AcDbCircle
 62
7
  6
CONTINUOUS
 10
353.2103059581
 20
320.9601449275
 40
6.5
100
AcDbArc
 50
17.9202131394
 51
33.0557311509
  0
ARC
  5
3AA
100
AcDbEntity
  8
0
100
AcDbCircle
 62
7
  6
CONTINUOUS
 10
353.2103059581
 20
320.9601449275
 40
6.5
100
AcDbArc
 50
326.9442688491
 51
342.0797868606
  0
ARC
  5
3AB
100
AcDbEntity
  8
0
100
AcDbCircle
 62
7
  6
CONTINUOUS
 10
355.0814327782
 20
320.4526497945
 40
4.5543450739
100
AcDbArc
 50
344.8207938971
 51
346.0364292452
  0
ARC
  5
3AC
100
AcDbEntity
  8
0
100
AcDbCircle
 62
7
  6
CONTINUOUS
 10
355.0836264613
 20
321.468071566
 40
4.5521149427
100
AcDbArc
 50
13.9649169175
 51
15.1811940447
  0
ARC
  5
3AD
100
AcDbEntity
  8
0
100
AcDbCircle
 62
7
  6
CONTINUOUS
 10
355.318714667
 20
320.394353598
 40
4.310007915
100
AcDbArc
 50
346.0273392785
 51
347.1032623521
  0
ARC
  5
3AE
100
AcDbEntity
  8
0
100
AcDbCircle
 62
7
  6
CONTINUOUS
 10
355.3357877754
 20
321.5303113051
 40
4.2923864393
100
AcDbArc
 50
12.8907489099
 51
13.970968401
  0
ARC
  5
3AF
100
AcDbEntity
  8
0
100
AcDbCircle
 62
7
  6
CONTINUOUS
 10
355.5977568064
 20
321.5902703876
 40
4.0236433189
100
AcDbArc
 50
12.2332700418
 51
12.8906839467
  0
ARC
  5
3B0
100
AcDbEntity
  8
0
100
AcDbCircle
 62
7
  6
CONTINUOUS
 10
355.6198723983
 20
320.3253847568
 40
4.0010537436
100
AcDbArc
 50
347.1034376747
 51
347.7645941055
  0
ARC
  5
3B1
100
AcDbEntity
  8
0
100
AcDbCircle
 62
7
  6
CONTINUOUS
 10
355.9251013563
 20
321.6608198238
 40
3.6887829151
100
AcDbArc
 50
11.4020160177
 51
12.2397055045
  0
ARC
  5
3B2
100
AcDbEntity
  8
0
100
AcDbCircle
 62
7
  6
CONTINUOUS
 10
355.9501961973
 20
320.2540555839
 40
3.6631165198
100
AcDbArc
 50
347.7599616251
 51
348.6035559823
  0
ARC
  5
3B3
100
AcDbEntity
  8
0
100
AcDbCircle
 62
7
  6
CONTINUOUS
 10
356.3265522992
 20
320.1790037089
 40
3.2793509739
100
AcDbArc
 50
348.5896740556
 51
349.6226966203
  0
ARC
  5
3B4
100
AcDbEntity
  8
0
100
AcDbCircle
 62
7
  6
CONTINUOUS
 10
356.341198534
 20
321.7439033485
 40
3.2644729076
100
AcDbArc
 50
10.3783830431
 51
11.4163239686
  0
ARC
  5
3B5
100
AcDbEntity
  8
0
100
AcDbCircle
 62
7
  6
CONTINUOUS
 10
356.5770338972
 20
320.1328351882
 40
3.024650229
100
AcDbArc
 50
349.628269836
 51
349.870761333
  0
ARC
  5
3B6
100
AcDbEntity
  8
0
100
AcDbCircle
 62
7
  6
CONTINUOUS
 10
356.6439764276
 20
321.7995336018
 40
2.9566269331
100
AcDbArc
 50
9.8843090778
 51
10.3749865309
  0
ARC
  5
3B7
100
AcDbEntity
  8
0
100
AcDbCircle
 62
7
  6
CONTINUOUS
 10
356.6761804083
 20
320.1151236751
 40
2.9239341516
100
AcDbArc
 50
349.8707347906
 51
350.1161790862
  0
ARC
  5
3B8
100
AcDbEntity
  8
0
100
AcDbCircle
 62
7
  6
CONTINUOUS
 10
358.220640013
 20
319.8965130647
 40
1.3636967029
100
AcDbArc
 50
354.3866878089
 51
354.5626915897
  0
ARC
  5
3B9
100
AcDbEntity
  8
0
100
AcDbCircle
 62
7
  6
CONTINUOUS
 10
358.2299616195
 20
322.024558136
 40
1.3543483931
100
AcDbArc
 50
5.4410843499
 51
5.6182188244
  0
ARC
  5
3BA
100
AcDbEntity
  8
0
100
AcDbCircle
 62
7
  6
CONTINUOUS
 10
357.8200781868
 20
323.9601449275
 40
1.0
100
AcDbArc
 50
33.0557311509
 51
90.0
  0
ARC
  5
3BB
100
AcDbEntity
  8
0
100
AcDbCircle
 62
7
  6
CONTINUOUS
 10
357.8200781868
 20
317.9601449275
 40
1.0
100
AcDbArc
 50
270.0
 51
326.9442688491
  0
ARC
  5
3BC
100
AcDbEntity
  8
0
100
AcDbCircle
 62
7
  6
CONTINUOUS
 10
360.1479424941
 20
319.9598815927
 40
0.7529780629
100
AcDbArc
 50
179.9799622618
 51
181.6344728667
  0
ARC
  5
3BD
100
AcDbEntity
  8
0
100
AcDbCircle
 62
7
  6
CONTINUOUS
 10
359.2444440582
 20
322.0640322099
 40
0.3381716612
100
AcDbArc
 50
355.5804124788
 51
357.2713984535
  0
ARC
  5
3BE
100
AcDbEntity
  8
0
100
AcDbCircle
 62
7
  6
CONTINUOUS
 10
359.2461430373
 20
319.8563375118
 40
0.3364737458
100
AcDbArc
 50
2.7296232262
 51
4.4290951771
  0
ARC
  5
3BF
100
AcDbEntity
  8
0
100
AcDbCircle
 62
7
  6
CONTINUOUS
 10
524.6438444869
 20
93.0761707196
 40
171.78614372
100
AcDbArc
 50
186.0367186049
 51
186.1545415857
  0
ARC
  5
3C0
100
AcDbEntity
  8
0
100
AcDbCircle
 62
7
  6
CONTINUOUS
 10
335.7442802655
 20
747.7436825306
 40
171.786142789
100
AcDbArc
 50
276.0367186044
 51
276.1545415858
  0
ARC
  5
3C1
100
AcDbEntity
  8
0
100
AcDbCircle
 62
7
  6
CONTINUOUS
 10
524.6438003436
 20
558.8441237655
 40
171.7860993345
100
AcDbArc
 50
173.8454583668
 51
173.9632813824
  0
ARC
  5
3C2
100
AcDbEntity
  8
0
100
AcDbCircle
 62
7
  6
CONTINUOUS
 10
353.2103059581
 20
505.7101449275
 40
6.5
100
AcDbArc
 50
17.9202131394
 51
33.0557311509
  0
ARC
  5
3C3
100
AcDbEntity
  8
0
100
AcDbCircle
 62
7
  6
CONTINUOUS
 10
353.2103059581
 20
505.7101449275
 40
6.5
100
AcDbArc
 50
326.9442688491
 51
342.0797868606
  0
ARC
  5
3C4
100
AcDbEntity
  8
0
100
AcDbCircle
 62
7
  6
CONTINUOUS
 10
355.0814327779
 20
505.2026497946
 40
4.5543450742
100
AcDbArc
 50
344.8207938971
 51
346.0364292452
  0
ARC
  5
3C5
100
AcDbEntity
  8
0
100
AcDbCircle
 62
7
  6
CONTINUOUS
 10
355.0836264613
 20
506.218071566
 40
4.5521149427
100
AcDbArc
 50
13.9649169175
 51
15.1811940447
  0
ARC
  5
3C6
100
AcDbEntity
  8
0
100
AcDbCircle
 62
7
  6
CONTINUOUS
 10
355.3187146685
 20
505.1443535977
 40
4.3100079134
100
AcDbArc
 50
346.0273392783
 51
347.1032623522
  0
ARC
  5
3C7
100
AcDbEntity
  8
0
100
AcDbCircle
 62
7
  6
CONTINUOUS
 10
355.3357877743
 20
506.2803113048
 40
4.2923864405
100
AcDbArc
 50
12.89074891
 51
13.9709684008
  0
ARC
  5
3C8
100
AcDbEntity
  8
0
100
AcDbCircle
 62
7
  6
CONTINUOUS
 10
355.5977568099
 20
506.3402703884
 40
4.0236433153
100
AcDbArc
 50
12.2332700414
 51
12.8906839469
  0
ARC
  5
3C9
100
AcDbEntity
  8
0
100
AcDbCircle
 62
7
  6
CONTINUOUS
 10
355.6198723985
 20
505.0753847568
 40
4.0010537434
100
AcDbArc
 50
347.1034376746
 51
347.7645941054
  0
ARC
  5
3CA
100
AcDbEntity
  8
0
100
AcDbCircle
 62
7
  6
CONTINUOUS
 10
355.925101352
 20
506.4108198229
 40
3.6887829195
100
AcDbArc
 50
11.4020160183
 51
12.2397055041
  0
ARC
  5
3CB
100
AcDbEntity
  8
0
100
AcDbCircle
 62
7
  6
CONTINUOUS
 10
355.9501961967
 20
505.004055584
 40
3.6631165204
100
AcDbArc
 50
347.7599616254
 51
348.6035559825
  0
CIRCLE
  5
3CC
100
AcDbEntity
  8
0
100
AcDbCircle
 62
7
  6
CONTINUOUS
 10
272.0103059581
 20
542.2101449275
 40
3.5
  0
CIRCLE
  5
3CD
100
AcDbEntity
  8
0
100
AcDbCircle
 62
7
  6
CONTINUOUS
 10
339.6103059581
 20
560.7101449275
 40
3.5
  0
ARC
  5
3CE
100
AcDbEntity
  8
0
100
AcDbCircle
 62
7
  6
CONTINUOUS
 10
356.3265522969
 20
504.9290037094
 40
3.2793509762
100
AcDbArc
 50
348.5896740559
 51
349.6226966199
  0
ARC
  5
3CF
100
AcDbEntity
  8
0
100
AcDbCircle
 62
7
  6
CONTINUOUS
 10
356.3411985353
 20
506.4939033488
 40
3.2644729064
100
AcDbArc
 50
10.378383043
 51
11.4163239688
  0
ARC
  5
3D0
100
AcDbEntity
  8
0
100
AcDbCircle
 62
7
  6
CONTINUOUS
 10
356.5770338995
 20
504.8828351878
 40
3.0246502267
100
AcDbArc
 50
349.6282698355
 51
349.8707613327
  0
ARC
  5
3D1
100
AcDbEntity
  8
0
100
AcDbCircle
 62
7
  6
CONTINUOUS
 10
339.6103059581
 20
591.2101449275
 40
3.0
100
AcDbArc
 50
180.0
 51
360.0
  0
ARC
  5
3D2
100
AcDbEntity
  8
0
100
AcDbCircle
 62
7
  6
CONTINUOUS
 10
356.6439764285
 20
506.549533602
 40
2.9566269323
100
AcDbArc
 50
9.8843090774
 51
10.3749865307
  0
ARC
  5
3D3
100
AcDbEntity
  8
0
100
AcDbCircle
 62
7
  6
CONTINUOUS
 10
356.6761803821
 20
504.8651236798
 40
2.9239341782
100
AcDbArc
 50
349.8707347911
 51
350.1161790845
  0
ARC
  5
3D4
100
AcDbEntity
  8
0
100
AcDbCircle
 62
7
  6
CONTINUOUS
 10
353.6103059581
 20
576.7101449275
 40
2.0
100
AcDbArc
 50
22.5738936129
 51
30.5601974748
  0
CIRCLE
  5
3D5
100
AcDbEntity
  8
0
100
AcDbCircle
 62
7
  6
CONTINUOUS
 10
272.0103059581
 20
542.2101449275
 40
2.0
  0
CIRCLE
  5
3D6
100
AcDbEntity
  8
0
100
AcDbCircle
 62
7
  6
CONTINUOUS
 10
339.6103059581
 20
560.7101449275
 40
2.0
  0
ARC
  5
3D7
100
AcDbEntity
  8
0
100
AcDbCircle
 62
7
  6
CONTINUOUS
 10
358.2206400904
 20
504.6465130572
 40
1.3636966251
100
AcDbArc
 50
354.3866878035
 51
354.5626915943
  0
ARC
  5
3D8
100
AcDbEntity
  8
0
100
AcDbCircle
 62
7
  6
CONTINUOUS
 10
358.2299616544
 20
506.7745581394
 40
1.3543483581
100
AcDbArc
 50
5.4410843468
 51
5.6182188259
  0
ARC
  5
3D9
100
AcDbEntity
  8
0
100
AcDbCircle
 62
7
  6
CONTINUOUS
 10
355.3103059581
 20
577.4101449275
 40
1.3
100
AcDbArc
 50
0.0
 51
90.000027343
  0
ARC
  5
3DA
100
AcDbEntity
  8
0
100
AcDbCircle
 62
7
  6
CONTINUOUS
 10
357.8200781868
 20
508.7101449275
 40
1.0
100
AcDbArc
 50
33.0557311509
 51
90.0
  0
ARC
  5
3DB
100
AcDbEntity
  8
0
100
AcDbCircle
 62
7
  6
CONTINUOUS
 10
357.8200781868
 20
502.7101449275
 40
1.0
100
AcDbArc
 50
270.0
 51
326.9442688491
  0
ARC
  5
3DC
100
AcDbEntity
  8
0
100
AcDbCircle
 62
7
  6
CONTINUOUS
 10
360.1479424941
 20
504.7098815927
 40
0.7529780629
100
AcDbArc
 50
179.9799622618
 51
181.6344728667
  0
ARC
  5
3DD
100
AcDbEntity
  8
0
100
AcDbCircle
 62
7
  6
CONTINUOUS
 10
359.2444440586
 20
506.8140322099
 40
0.3381716608
100
AcDbArc
 50
355.5804124773
 51
357.2713984541
  0
ARC
  5
3DE
100
AcDbEntity
  8
0
100
AcDbCircle
 62
7
  6
CONTINUOUS
 10
359.2461430373
 20
504.6063375118
 40
0.3364737457
100
AcDbArc
 50
2.7296232262
 51
4.4290951775
  0
ARC
  5
3DF
100
AcDbEntity
  8
0
100
AcDbCircle
 62
7
  6
CONTINUOUS
 10
355.3103059581
 20
577.4101449275
 40
0.3
100
AcDbArc
 50
0.0
 51
89.9999999998
  0
SPLINE
  5
3E0
100
AcDbEntity
  8
0
100
AcDbSpline
 62
7
  6
CONTINUOUS
 70
0
 71
3
 72
11
 73
7
 74
0
 42
0.0000001
 43
0.0000001
 44
0.0000000001
 40
0.0
 40
0.0
 40
0.0
 40
0.0
 40
0.2014265683
 40
0.4570300748
 40
0.735976405
 40
1.0
 40
1.0
 40
1.0
 40
1.0
 10
359.4718323036
 20
320.3601449275
 30
0.0
 10
359.4597227178
 20
320.3354422937
 30
0.0
 10
359.438928859
 20
320.2762382064
 30
0.0
 10
359.4156107379
 20
320.1783941978
 30
0.0
 10
359.3995861306
 20
320.0703689347
 30
0.0
 10
359.3949644772
 20
319.9962056473
 30
0.0
 10
359.3949644772
 20
319.9601449275
 30
0.0
  0
SPLINE
  5
3E1
100
AcDbEntity
  8
0
100
AcDbSpline
 62
7
  6
CONTINUOUS
 70
0
 71
3
 72
11
 73
7
 74
0
 42
0.0000001
 43
0.0000001
 44
0.0000000001
 40
0.0
 40
0.0
 40
0.0
 40
0.0
 40
0.3889221613
 40
0.5500349048
 40
0.6869289369
 40
1.0
 40
1.0
 40
1.0
 40
1.0
 10
359.3952707919
 20
319.9384043511
 30
0.0
 10
359.3957932051
 20
319.920319131
 30
0.0
 10
359.3973632664
 20
319.8949150331
 30
0.0
 10
359.4027400978
 20
319.8629099395
 30
0.0
 10
359.4091299948
 20
319.836788637
 30
0.0
 10
359.4214946161
 20
319.8101493009
 30
0.0
 10
359.4360587656
 20
319.8101446066
 30
0.0
  0
SPLINE
  5
3E2
100
AcDbEntity
  8
0
100
AcDbSpline
 62
7
  6
CONTINUOUS
 70
0
 71
3
 72
9
 73
5
 74
0
 42
0.0000001
 43
0.0000001
 44
0.0000000001
 40
0.0
 40
0.0
 40
0.0
 40
0.0
 40
0.2714208526
 40
1.0
 40
1.0
 40
1.0
 40
1.0
 10
359.5567170495
 20
319.6132276883
 30
0.0
 10
359.5590679249
 20
319.6267211954
 30
0.0
 10
359.5673673583
 20
319.6764950838
 30
0.0
 10
359.5742013908
 20
319.7265341027
 30
0.0
 10
359.5777973819
 20
319.7631242584
 30
0.0
  0
SPLINE
  5
3E3
100
AcDbEntity
  8
0
100
AcDbSpline
 62
7
  6
CONTINUOUS
 70
0
 71
3
 72
9
 73
5
 74
0
 42
0.0000001
 43
0.0000001
 44
0.0000000001
 40
0.0
 40
0.0
 40
0.0
 40
0.0
 40
0.2883227941
 40
1.0
 40
1.0
 40
1.0
 40
1.0
 10
359.5782007278
 20
319.7672938589
 30
0.0
 10
359.5791585658
 20
319.7773576171
 30
0.0
 10
359.5820581957
 20
319.8122875122
 30
0.0
 10
359.5834366887
 20
319.8474373334
 30
0.0
 10
359.5822350153
 20
319.8723613651
 30
0.0
  0
SPLINE
  5
3E4
100
AcDbEntity
  8
0
100
AcDbSpline
 62
7
  6
CONTINUOUS
 70
0
 71
3
 72
9
 73
5
 74
0
 42
0.0000001
 43
0.0000001
 44
0.0000000001
 40
0.0
 40
0.0
 40
0.0
 40
0.0
 40
0.5998942435
 40
1.0
 40
1.0
 40
1.0
 40
1.0
 10
359.5816119598
 20
319.8823218073
 30
0.0
 10
359.580770034
 20
319.8931161775
 30
0.0
 10
359.5785472845
 20
319.910942536
 30
0.0
 10
359.5724325047
 20
319.9285634764
 30
0.0
 10
359.5680142916
 20
319.9342754232
 30
0.0
  0
SPLINE
  5
3E5
100
AcDbEntity
  8
0
100
AcDbSpline
 62
7
  6
CONTINUOUS
 70
0
 71
3
 72
9
 73
5
 74
0
 42
0.0000001
 43
0.0000001
 44
0.0000000001
 40
0.0
 40
0.0
 40
0.0
 40
0.0
 40
0.526920012
 40
1.0
 40
1.0
 40
1.0
 40
1.0
 10
359.5680142916
 20
319.9342754232
 30
0.0
 10
359.5663161813
 20
319.9364707711
 30
0.0
 10
359.5623999506
 20
319.9402727337
 30
0.0
 10
359.5570320128
 20
319.9416400331
 30
0.0
 10
359.5545401535
 20
319.9416403097
 30
0.0
  0
LINE
  5
3E6
100
AcDbEntity
  8
0
100
AcDbLine
 62
7
  6
CONTINUOUS
 10
359.4353047241
 20
322.8129135758
 11
359.4768839717
 21
322.6601449275
  0
LINE
  5
3E7
100
AcDbEntity
  8
0
100
AcDbLine
 62
7
  6
CONTINUOUS
 10
359.4768839717
 20
319.2601449275
 11
359.4352687596
 21
319.1072431188
  0
SPLINE
  5
3E8
100
AcDbEntity
  8
0
100
AcDbSpline
 62
7
  6
CONTINUOUS
 70
0
 71
3
 72
11
 73
7
 74
0
 42
0.0000001
 43
0.0000001
 44
0.0000000001
 40
0.0
 40
0.0
 40
0.0
 40
0.0
 40
0.3128736006
 40
0.4499333437
 40
0.6111867829
 40
1.0
 40
1.0
 40
1.0
 40
1.0
 10
359.4360586596
 20
322.1101449275
 30
0.0
 10
359.4213919444
 20
322.1101449275
 30
0.0
 10
359.4090178735
 20
322.0832115669
 30
0.0
 10
359.4026390508
 20
322.0568838742
 30
0.0
 10
359.3972787765
 20
322.0246100817
 30
0.0
 10
359.3957356693
 20
321.9990089565
 30
0.0
 10
359.3952390196
 20
321.9807891538
 30
0.0
  0
SPLINE
  5
3E9
100
AcDbEntity
  8
0
100
AcDbSpline
 62
7
  6
CONTINUOUS
 70
0
 71
3
 72
11
 73
7
 74
0
 42
0.0000001
 43
0.0000001
 44
0.0000000001
 40
0.0
 40
0.0
 40
0.0
 40
0.0
 40
0.2573458697
 40
0.5371866703
 40
0.7964027758
 40
1.0
 40
1.0
 40
1.0
 40
1.0
 10
359.3952390196
 20
321.9807891538
 30
0.0
 10
359.3942330938
 20
321.943886347
 30
0.0
 10
359.3977663445
 20
321.8667124211
 30
0.0
 10
359.4133011889
 20
321.7533761638
 30
0.0
 10
359.437215778
 20
321.6494913182
 30
0.0
 10
359.458976589
 20
321.5863696074
 30
0.0
 10
359.4718323036
 20
321.5601449275
 30
0.0
  0
SPLINE
  5
3EA
100
AcDbEntity
  8
0
100
AcDbSpline
 62
7
  6
CONTINUOUS
 70
0
 71
3
 72
9
 73
5
 74
0
 42
0.0000001
 43
0.0000001
 44
0.0000000001
 40
0.0
 40
0.0
 40
0.0
 40
0.0
 40
0.4729849262
 40
1.0
 40
1.0
 40
1.0
 40
1.0
 10
359.5545399043
 20
321.9786494699
 30
0.0
 10
359.5570317544
 20
321.9786494699
 30
0.0
 10
359.5624010455
 20
321.9800183626
 30
0.0
 10
359.566315662
 20
321.9838230384
 30
0.0
 10
359.5680148217
 20
321.9860188999
 30
0.0
  0
SPLINE
  5
3EB
100
AcDbEntity
  8
0
100
AcDbSpline
 62
7
  6
CONTINUOUS
 70
0
 71
3
 72
9
 73
5
 74
0
 42
0.0000001
 43
0.0000001
 44
0.0000000001
 40
0.0
 40
0.0
 40
0.0
 40
0.0
 40
0.4001452673
 40
1.0
 40
1.0
 40
1.0
 40
1.0
 10
359.5680148217
 20
321.9860188999
 30
0.0
 10
359.5724345922
 20
321.9917306663
 30
0.0
 10
359.5785538103
 20
322.0093509188
 30
0.0
 10
359.5807701303
 20
322.027178792
 30
0.0
 10
359.5816101545
 20
322.0379727413
 30
0.0
  0
SPLINE
  5
3EC
100
AcDbEntity
  8
0
100
AcDbSpline
 62
7
  6
CONTINUOUS
 70
0
 71
3
 72
9
 73
5
 74
0
 42
0.0000001
 43
0.0000001
 44
0.0000000001
 40
0.0
 40
0.0
 40
0.0
 40
0.0
 40
0.2107801826
 40
1.0
 40
1.0
 40
1.0
 40
1.0
 10
359.5822323123
 20
322.0479335203
 30
0.0
 10
359.5825880024
 20
322.0553146003
 30
0.0
 10
359.5832448834
 20
322.0903815972
 30
0.0
 10
359.5808310323
 20
322.1254361363
 30
0.0
 10
359.578207627
 20
322.1529803813
 30
0.0
  0
SPLINE
  5
3ED
100
AcDbEntity
  8
0
100
AcDbSpline
 62
7
  6
CONTINUOUS
 70
0
 71
3
 72
9
 73
5
 74
0
 42
0.0000001
 43
0.0000001
 44
0.0000000001
 40
0.0
 40
0.0
 40
0.0
 40
0.0
 40
0.227200136
 40
1.0
 40
1.0
 40
1.0
 40
1.0
 10
359.5778041569
 20
322.1571479711
 30
0.0
 10
359.5766816247
 20
322.1685600075
 30
0.0
 10
359.5711110115
 20
322.2187269282
 30
0.0
 10
359.5634096929
 20
322.2686404583
 30
0.0
 10
359.5567162946
 20
322.3070661515
 30
0.0
  0
SPLINE
  5
3EE
100
AcDbEntity
  8
0
100
AcDbSpline
 62
7
  6
CONTINUOUS
 70
0
 71
3
 72
10
 73
6
 74
0
 42
0.0000001
 43
0.0000001
 44
0.0000000001
 40
0.0
 40
0.0
 40
0.0
 40
0.0
 40
0.3443379449
 40
0.6221716378
 40
1.0
 40
1.0
 40
1.0
 40
1.0
 10
359.4768839717
 20
322.0699525487
 30
0.0
 10
359.4736566425
 20
322.0759008751
 30
0.0
 10
359.4672775799
 20
322.0864840314
 30
0.0
 10
359.4553724418
 20
322.1016616649
 30
0.0
 10
359.4434843015
 20
322.1101449275
 30
0.0
 10
359.4360586584
 20
322.1101449275
 30
0.0
  0
SPLINE
  5
3EF
100
AcDbEntity
  8
0
100
AcDbSpline
 62
7
  6
CONTINUOUS
 70
0
 71
3
 72
10
 73
6
 74
0
 42
0.0000001
 43
0.0000001
 44
0.0000000001
 40
0.0
 40
0.0
 40
0.0
 40
0.0
 40
0.1351947799
 40
0.3420608126
 40
1.0
 40
1.0
 40
1.0
 40
1.0
 10
359.5545401535
 20
319.9416403097
 30
0.0
 10
359.5490098631
 20
319.9416409236
 30
0.0
 10
359.5356468073
 20
319.9347906367
 30
0.0
 10
359.5078161051
 20
319.9050232084
 30
0.0
 10
359.489718876
 20
319.8739934621
 30
0.0
 10
359.4768839717
 20
319.8503373064
 30
0.0
  0
SPLINE
  5
3F0
100
AcDbEntity
  8
0
100
AcDbSpline
 62
7
  6
CONTINUOUS
 70
0
 71
3
 72
10
 73
6
 74
0
 42
0.0000001
 43
0.0000001
 44
0.0000000001
 40
0.0
 40
0.0
 40
0.0
 40
0.0
 40
0.1352257525
 40
0.3421679582
 40
1.0
 40
1.0
 40
1.0
 40
1.0
 10
359.5545399029
 20
321.9786494699
 30
0.0
 10
359.5490083741
 20
321.9786494699
 30
0.0
 10
359.5356432023
 20
321.9855056346
 30
0.0
 10
359.5078091706
 20
322.0152679607
 30
0.0
 10
359.4897167195
 20
322.0463003677
 30
0.0
 10
359.4768839717
 20
322.0699525487
 30
0.0
  0
SPLINE
  5
3F1
100
AcDbEntity
  8
0
100
AcDbSpline
 62
7
  6
CONTINUOUS
 70
0
 71
3
 72
9
 73
5
 74
0
 42
0.0000001
 43
0.0000001
 44
0.0000000001
 40
0.0
 40
0.0
 40
0.0
 40
0.0
 40
0.4729849262
 40
1.0
 40
1.0
 40
1.0
 40
1.0
 10
113.666072012
 20
319.9416403852
 30
0.0
 10
113.6635801619
 20
319.9416403852
 30
0.0
 10
113.6582108708
 20
319.9402714925
 30
0.0
 10
113.6542962543
 20
319.9364668167
 30
0.0
 10
113.6525970945
 20
319.9342709552
 30
0.0
  0
SPLINE
  5
3F2
100
AcDbEntity
  8
0
100
AcDbSpline
 62
7
  6
CONTINUOUS
 70
0
 71
3
 72
9
 73
5
 74
0
 42
0.0000001
 43
0.0000001
 44
0.0000000001
 40
0.0
 40
0.0
 40
0.0
 40
0.0
 40
0.4001452673
 40
1.0
 40
1.0
 40
1.0
 40
1.0
 10
113.6525970945
 20
319.9342709552
 30
0.0
 10
113.6481773241
 20
319.9285591888
 30
0.0
 10
113.642058106
 20
319.9109389363
 30
0.0
 10
113.639841786
 20
319.8931110631
 30
0.0
 10
113.6390017618
 20
319.8823171138
 30
0.0
  0
SPLINE
  5
3F3
100
AcDbEntity
  8
0
100
AcDbSpline
 62
7
  6
CONTINUOUS
 70
0
 71
3
 72
9
 73
5
 74
0
 42
0.0000001
 43
0.0000001
 44
0.0000000001
 40
0.0
 40
0.0
 40
0.0
 40
0.0
 40
0.2107801826
 40
1.0
 40
1.0
 40
1.0
 40
1.0
 10
113.638379604
 20
319.8723563348
 30
0.0
 10
113.6380239139
 20
319.8649752548
 30
0.0
 10
113.6373670329
 20
319.8299082579
 30
0.0
 10
113.6397808839
 20
319.7948537188
 30
0.0
 10
113.6424042892
 20
319.7673094738
 30
0.0
  0
SPLINE
  5
3F4
100
AcDbEntity
  8
0
100
AcDbSpline
 62
7
  6
CONTINUOUS
 70
0
 71
3
 72
9
 73
5
 74
0
 42
0.0000001
 43
0.0000001
 44
0.0000000001
 40
0.0
 40
0.0
 40
0.0
 40
0.0
 40
0.227200136
 40
1.0
 40
1.0
 40
1.0
 40
1.0
 10
113.6428077594
 20
319.763141884
 30
0.0
 10
113.6439302915
 20
319.7517298476
 30
0.0
 10
113.6495009047
 20
319.7015629269
 30
0.0
 10
113.6572022234
 20
319.6516493968
 30
0.0
 10
113.6638956217
 20
319.6132237036
 30
0.0
  0
SPLINE
  5
3F5
100
AcDbEntity
  8
0
100
AcDbSpline
 62
7
  6
CONTINUOUS
 70
0
 71
3
 72
11
 73
7
 74
0
 42
0.0000001
 43
0.0000001
 44
0.0000000001
 40
0.0
 40
0.0
 40
0.0
 40
0.0
 40
0.264032643
 40
0.5429656821
 40
0.7985609761
 40
1.0
 40
1.0
 40
1.0
 40
1.0
 10
113.8256474194
 20
319.9601449275
 30
0.0
 10
113.8256474194
 20
319.9962068842
 30
0.0
 10
113.8210257391
 20
320.0703696025
 30
0.0
 10
113.8050012337
 20
320.1783931444
 30
0.0
 10
113.7816838457
 20
320.2762360418
 30
0.0
 10
113.7608899476
 20
320.3354407654
 30
0.0
 10
113.7487796127
 20
320.3601449275
 30
0.0
  0
LINE
  5
3F6
100
AcDbEntity
  8
0
100
AcDbLine
 62
7
  6
CONTINUOUS
 10
113.7437279446
 20
322.6601449275
 11
113.7853431567
 21
322.8130467363
  0
SPLINE
  5
3F7
100
AcDbEntity
  8
0
100
AcDbSpline
 62
7
  6
CONTINUOUS
 70
0
 71
3
 72
11
 73
7
 74
0
 42
0.0000001
 43
0.0000001
 44
0.0000000001
 40
0.0
 40
0.0
 40
0.0
 40
0.0
 40
0.3130831588
 40
0.449986665
 40
0.6111064495
 40
1.0
 40
1.0
 40
1.0
 40
1.0
 10
113.7845533788
 20
319.810144715
 30
0.0
 10
113.7991192356
 20
319.810150142
 30
0.0
 10
113.8114836879
 20
319.8367936533
 30
0.0
 10
113.8178735415
 20
319.8629183637
 30
0.0
 10
113.8232495302
 20
319.8949256207
 30
0.0
 10
113.824819563
 20
319.9203307032
 30
0.0
 10
113.8253415426
 20
319.938416027
 30
0.0
  0
LINE
  5
3F8
100
AcDbEntity
  8
0
100
AcDbLine
 62
7
  6
CONTINUOUS
 10
113.7853071921
 20
319.1073762793
 11
113.7437279446
 21
319.2601449275
  0
SPLINE
  5
3F9
100
AcDbEntity
  8
0
100
AcDbSpline
 62
7
  6
CONTINUOUS
 70
0
 71
3
 72
11
 73
7
 74
0
 42
0.0000001
 43
0.0000001
 44
0.0000000001
 40
0.0
 40
0.0
 40
0.0
 40
0.0
 40
0.2014265683
 40
0.4570300748
 40
0.735976405
 40
1.0
 40
1.0
 40
1.0
 40
1.0
 10
113.7487796127
 20
321.5601449275
 30
0.0
 10
113.7608891985
 20
321.5848475614
 30
0.0
 10
113.7816830573
 20
321.6440516487
 30
0.0
 10
113.8050011783
 20
321.7418956573
 30
0.0
 10
113.8210257856
 20
321.8499209204
 30
0.0
 10
113.825647439
 20
321.9240842078
 30
0.0
 10
113.825647439
 20
321.9601449275
 30
0.0
  0
SPLINE
  5
3FA
100
AcDbEntity
  8
0
100
AcDbSpline
 62
7
  6
CONTINUOUS
 70
0
 71
3
 72
11
 73
7
 74
0
 42
0.0000001
 43
0.0000001
 44
0.0000000001
 40
0.0
 40
0.0
 40
0.0
 40
0.0
 40
0.3889221613
 40
0.5500349048
 40
0.6869289369
 40
1.0
 40
1.0
 40
1.0
 40
1.0
 10
113.8253411244
 20
321.981885504
 30
0.0
 10
113.8248187112
 20
321.999970724
 30
0.0
 10
113.8232486498
 20
322.0253748219
 30
0.0
 10
113.8178718184
 20
322.0573799156
 30
0.0
 10
113.8114819215
 20
322.083501218
 30
0.0
 10
113.7991173001
 20
322.1101405542
 30
0.0
 10
113.7845531507
 20
322.1101452485
 30
0.0
  0
SPLINE
  5
3FB
100
AcDbEntity
  8
0
100
AcDbSpline
 62
7
  6
CONTINUOUS
 70
0
 71
3
 72
9
 73
5
 74
0
 42
0.0000001
 43
0.0000001
 44
0.0000000001
 40
0.0
 40
0.0
 40
0.0
 40
0.0
 40
0.2714208526
 40
1.0
 40
1.0
 40
1.0
 40
1.0
 10
113.6638948667
 20
322.3070621668
 30
0.0
 10
113.6615439913
 20
322.2935686597
 30
0.0
 10
113.6532445579
 20
322.2437947713
 30
0.0
 10
113.6464105255
 20
322.1937557524
 30
0.0
 10
113.6428145344
 20
322.1571655967
 30
0.0
  0
SPLINE
  5
3FC
100
AcDbEntity
  8
0
100
AcDbSpline
 62
7
  6
CONTINUOUS
 70
0
 71
3
 72
9
 73
5
 74
0
 42
0.0000001
 43
0.0000001
 44
0.0000000001
 40
0.0
 40
0.0
 40
0.0
 40
0.0
 40
0.2883227941
 40
1.0
 40
1.0
 40
1.0
 40
1.0
 10
113.6424111885
 20
322.1529959962
 30
0.0
 10
113.6414533505
 20
322.142932238
 30
0.0
 10
113.6385537206
 20
322.1080023429
 30
0.0
 10
113.6371752275
 20
322.0728525217
 30
0.0
 10
113.6383769009
 20
322.04792849
 30
0.0
  0
SPLINE
  5
3FD
100
AcDbEntity
  8
0
100
AcDbSpline
 62
7
  6
CONTINUOUS
 70
0
 71
3
 72
9
 73
5
 74
0
 42
0.0000001
 43
0.0000001
 44
0.0000000001
 40
0.0
 40
0.0
 40
0.0
 40
0.0
 40
0.5998942435
 40
1.0
 40
1.0
 40
1.0
 40
1.0
 10
113.6389999565
 20
322.0379680478
 30
0.0
 10
113.6398418822
 20
322.0271736776
 30
0.0
 10
113.6420646318
 20
322.0093473191
 30
0.0
 10
113.6481794115
 20
321.9917263787
 30
0.0
 10
113.6525976247
 20
321.9860144319
 30
0.0
  0
SPLINE
  5
3FE
100
AcDbEntity
  8
0
100
AcDbSpline
 62
7
  6
CONTINUOUS
 70
0
 71
3
 72
9
 73
5
 74
0
 42
0.0000001
 43
0.0000001
 44
0.0000000001
 40
0.0
 40
0.0
 40
0.0
 40
0.0
 40
0.5269200119
 40
1.0
 40
1.0
 40
1.0
 40
1.0
 10
113.6525976247
 20
321.9860144319
 30
0.0
 10
113.6542957349
 20
321.983819084
 30
0.0
 10
113.6582119656
 20
321.9800171214
 30
0.0
 10
113.6635799035
 20
321.9786498219
 30
0.0
 10
113.6660717628
 20
321.9786495453
 30
0.0
  0
SPLINE
  5
3FF
100
AcDbEntity
  8
0
100
AcDbSpline
 62
7
  6
CONTINUOUS
 70
0
 71
3
 72
10
 73
6
 74
0
 42
0.0000001
 43
0.0000001
 44
0.0000000001
 40
0.0
 40
0.0
 40
0.0
 40
0.0
 40
0.1352257525
 40
0.3421679582
 40
1.0
 40
1.0
 40
1.0
 40
1.0
 10
113.6660720134
 20
319.9416403852
 30
0.0
 10
113.6716035422
 20
319.9416403852
 30
0.0
 10
113.684968714
 20
319.9347842205
 30
0.0
 10
113.7128027456
 20
319.9050218944
 30
0.0
 10
113.7308951967
 20
319.8739894874
 30
0.0
 10
113.7437279446
 20
319.8503373064
 30
0.0
  0
SPLINE
  5
400
100
AcDbEntity
  8
0
100
AcDbSpline
 62
7
  6
CONTINUOUS
 70
0
 71
3
 72
10
 73
6
 74
0
 42
0.0000001
 43
0.0000001
 44
0.0000000001
 40
0.0
 40
0.0
 40
0.0
 40
0.0
 40
0.1351947799
 40
0.3420608126
 40
1.0
 40
1.0
 40
1.0
 40
1.0
 10
113.6660717628
 20
321.9786495453
 30
0.0
 10
113.6716020532
 20
321.9786489315
 30
0.0
 10
113.6849651089
 20
321.9854992184
 30
0.0
 10
113.7127958112
 20
322.0152666467
 30
0.0
 10
113.7308930402
 20
322.046296393
 30
0.0
 10
113.7437279446
 20
322.0699525487
 30
0.0
  0
SPLINE
  5
401
100
AcDbEntity
  8
0
100
AcDbSpline
 62
7
  6
CONTINUOUS
 70
0
 71
3
 72
11
 73
7
 74
0
 42
0.0000001
 43
0.0000001
 44
0.0000000001
 40
0.0
 40
0.0
 40
0.0
 40
0.0
 40
0.2014265683
 40
0.4570300748
 40
0.735976405
 40
1.0
 40
1.0
 40
1.0
 40
1.0
 10
359.4718323036
 20
135.6101449275
 30
0.0
 10
359.4597227178
 20
135.5854422937
 30
0.0
 10
359.438928859
 20
135.5262382064
 30
0.0
 10
359.4156107379
 20
135.4283941978
 30
0.0
 10
359.3995861306
 20
135.3203689347
 30
0.0
 10
359.3949644772
 20
135.2462056473
 30
0.0
 10
359.3949644772
 20
135.2101449275
 30
0.0
  0
SPLINE
  5
402
100
AcDbEntity
  8
0
100
AcDbSpline
 62
7
  6
CONTINUOUS
 70
0
 71
3
 72
11
 73
7
 74
0
 42
0.0000001
 43
0.0000001
 44
0.0000000001
 40
0.0
 40
0.0
 40
0.0
 40
0.0
 40
0.3889221613
 40
0.5500349048
 40
0.6869289369
 40
1.0
 40
1.0
 40
1.0
 40
1.0
 10
359.3952707919
 20
135.1884043511
 30
0.0
 10
359.3957932051
 20
135.170319131
 30
0.0
 10
359.3973632664
 20
135.1449150331
 30
0.0
 10
359.4027400978
 20
135.1129099395
 30
0.0
 10
359.4091299948
 20
135.086788637
 30
0.0
 10
359.4214946161
 20
135.0601493009
 30
0.0
 10
359.4360587656
 20
135.0601446066
 30
0.0
  0
SPLINE
  5
403
100
AcDbEntity
  8
0
100
AcDbSpline
 62
7
  6
CONTINUOUS
 70
0
 71
3
 72
9
 73
5
 74
0
 42
0.0000001
 43
0.0000001
 44
0.0000000001
 40
0.0
 40
0.0
 40
0.0
 40
0.0
 40
0.2714208526
 40
1.0
 40
1.0
 40
1.0
 40
1.0
 10
359.5567170495
 20
134.8632276883
 30
0.0
 10
359.5590679249
 20
134.8767211954
 30
0.0
 10
359.5673673583
 20
134.9264950838
 30
0.0
 10
359.5742013908
 20
134.9765341027
 30
0.0
 10
359.5777973819
 20
135.0131242584
 30
0.0
  0
SPLINE
  5
404
100
AcDbEntity
  8
0
100
AcDbSpline
 62
7
  6
CONTINUOUS
 70
0
 71
3
 72
9
 73
5
 74
0
 42
0.0000001
 43
0.0000001
 44
0.0000000001
 40
0.0
 40
0.0
 40
0.0
 40
0.0
 40
0.2883227941
 40
1.0
 40
1.0
 40
1.0
 40
1.0
 10
359.5782007278
 20
135.0172938589
 30
0.0
 10
359.5791585658
 20
135.0273576171
 30
0.0
 10
359.5820581957
 20
135.0622875122
 30
0.0
 10
359.5834366887
 20
135.0974373334
 30
0.0
 10
359.5822350153
 20
135.1223613651
 30
0.0
  0
SPLINE
  5
405
100
AcDbEntity
  8
0
100
AcDbSpline
 62
7
  6
CONTINUOUS
 70
0
 71
3
 72
9
 73
5
 74
0
 42
0.0000001
 43
0.0000001
 44
0.0000000001
 40
0.0
 40
0.0
 40
0.0
 40
0.0
 40
0.5998942435
 40
1.0
 40
1.0
 40
1.0
 40
1.0
 10
359.5816119598
 20
135.1323218073
 30
0.0
 10
359.580770034
 20
135.1431161775
 30
0.0
 10
359.5785472845
 20
135.160942536
 30
0.0
 10
359.5724325047
 20
135.1785634764
 30
0.0
 10
359.5680142916
 20
135.1842754232
 30
0.0
  0
SPLINE
  5
406
100
AcDbEntity
  8
0
100
AcDbSpline
 62
7
  6
CONTINUOUS
 70
0
 71
3
 72
9
 73
5
 74
0
 42
0.0000001
 43
0.0000001
 44
0.0000000001
 40
0.0
 40
0.0
 40
0.0
 40
0.0
 40
0.5269200119
 40
1.0
 40
1.0
 40
1.0
 40
1.0
 10
359.5680142916
 20
135.1842754232
 30
0.0
 10
359.5663161813
 20
135.1864707711
 30
0.0
 10
359.5623999506
 20
135.1902727337
 30
0.0
 10
359.5570320128
 20
135.1916400331
 30
0.0
 10
359.5545401535
 20
135.1916403097
 30
0.0
  0
LINE
  5
407
100
AcDbEntity
  8
0
100
AcDbLine
 62
7
  6
CONTINUOUS
 10
359.4353047241
 20
138.0629135758
 11
359.4768839717
 21
137.9101449275
  0
LINE
  5
408
100
AcDbEntity
  8
0
100
AcDbLine
 62
7
  6
CONTINUOUS
 10
359.4768839717
 20
134.5101449275
 11
359.4352687596
 21
134.3572431188
  0
SPLINE
  5
409
100
AcDbEntity
  8
0
100
AcDbSpline
 62
7
  6
CONTINUOUS
 70
0
 71
3
 72
11
 73
7
 74
0
 42
0.0000001
 43
0.0000001
 44
0.0000000001
 40
0.0
 40
0.0
 40
0.0
 40
0.0
 40
0.3128736006
 40
0.4499333437
 40
0.6111867829
 40
1.0
 40
1.0
 40
1.0
 40
1.0
 10
359.4360586596
 20
137.3601449275
 30
0.0
 10
359.4213919444
 20
137.3601449275
 30
0.0
 10
359.4090178735
 20
137.3332115669
 30
0.0
 10
359.4026390508
 20
137.3068838742
 30
0.0
 10
359.3972787765
 20
137.2746100817
 30
0.0
 10
359.3957356693
 20
137.2490089565
 30
0.0
 10
359.3952390196
 20
137.2307891538
 30
0.0
  0
SPLINE
  5
40A
100
AcDbEntity
  8
0
100
AcDbSpline
 62
7
  6
CONTINUOUS
 70
0
 71
3
 72
11
 73
7
 74
0
 42
0.0000001
 43
0.0000001
 44
0.0000000001
 40
0.0
 40
0.0
 40
0.0
 40
0.0
 40
0.2573458697
 40
0.5371866703
 40
0.7964027758
 40
1.0
 40
1.0
 40
1.0
 40
1.0
 10
359.3952390196
 20
137.2307891538
 30
0.0
 10
359.3942330938
 20
137.193886347
 30
0.0
 10
359.3977663445
 20
137.1167124211
 30
0.0
 10
359.4133011889
 20
137.0033761638
 30
0.0
 10
359.437215778
 20
136.8994913182
 30
0.0
 10
359.458976589
 20
136.8363696074
 30
0.0
 10
359.4718323036
 20
136.8101449275
 30
0.0
  0
SPLINE
  5
40B
100
AcDbEntity
  8
0
100
AcDbSpline
 62
7
  6
CONTINUOUS
 70
0
 71
3
 72
9
 73
5
 74
0
 42
0.0000001
 43
0.0000001
 44
0.0000000001
 40
0.0
 40
0.0
 40
0.0
 40
0.0
 40
0.4729849262
 40
1.0
 40
1.0
 40
1.0
 40
1.0
 10
359.5545399043
 20
137.2286494699
 30
0.0
 10
359.5570317544
 20
137.2286494699
 30
0.0
 10
359.5624010455
 20
137.2300183626
 30
0.0
 10
359.566315662
 20
137.2338230384
 30
0.0
 10
359.5680148217
 20
137.2360188999
 30
0.0
  0
SPLINE
  5
40C
100
AcDbEntity
  8
0
100
AcDbSpline
 62
7
  6
CONTINUOUS
 70
0
 71
3
 72
9
 73
5
 74
0
 42
0.0000001
 43
0.0000001
 44
0.0000000001
 40
0.0
 40
0.0
 40
0.0
 40
0.0
 40
0.4001452673
 40
1.0
 40
1.0
 40
1.0
 40
1.0
 10
359.5680148217
 20
137.2360188999
 30
0.0
 10
359.5724345922
 20
137.2417306663
 30
0.0
 10
359.5785538103
 20
137.2593509188
 30
0.0
 10
359.5807701303
 20
137.277178792
 30
0.0
 10
359.5816101545
 20
137.2879727413
 30
0.0
  0
SPLINE
  5
40D
100
AcDbEntity
  8
0
100
AcDbSpline
 62
7
  6
CONTINUOUS
 70
0
 71
3
 72
9
 73
5
 74
0
 42
0.0000001
 43
0.0000001
 44
0.0000000001
 40
0.0
 40
0.0
 40
0.0
 40
0.0
 40
0.2107801826
 40
1.0
 40
1.0
 40
1.0
 40
1.0
 10
359.5822323123
 20
137.2979335203
 30
0.0
 10
359.5825880024
 20
137.3053146003
 30
0.0
 10
359.5832448834
 20
137.3403815972
 30
0.0
 10
359.5808310323
 20
137.3754361363
 30
0.0
 10
359.578207627
 20
137.4029803813
 30
0.0
  0
SPLINE
  5
40E
100
AcDbEntity
  8
0
100
AcDbSpline
 62
7
  6
CONTINUOUS
 70
0
 71
3
 72
9
 73
5
 74
0
 42
0.0000001
 43
0.0000001
 44
0.0000000001
 40
0.0
 40
0.0
 40
0.0
 40
0.0
 40
0.227200136
 40
1.0
 40
1.0
 40
1.0
 40
1.0
 10
359.5778041569
 20
137.4071479711
 30
0.0
 10
359.5766816247
 20
137.4185600075
 30
0.0
 10
359.5711110115
 20
137.4687269282
 30
0.0
 10
359.5634096929
 20
137.5186404583
 30
0.0
 10
359.5567162946
 20
137.5570661515
 30
0.0
  0
SPLINE
  5
40F
100
AcDbEntity
  8
0
100
AcDbSpline
 62
7
  6
CONTINUOUS
 70
0
 71
3
 72
10
 73
6
 74
0
 42
0.0000001
 43
0.0000001
 44
0.0000000001
 40
0.0
 40
0.0
 40
0.0
 40
0.0
 40
0.3443379449
 40
0.6221716378
 40
1.0
 40
1.0
 40
1.0
 40
1.0
 10
359.4768839717
 20
137.3199525487
 30
0.0
 10
359.4736566425
 20
137.3259008751
 30
0.0
 10
359.4672775799
 20
137.3364840314
 30
0.0
 10
359.4553724418
 20
137.3516616649
 30
0.0
 10
359.4434843015
 20
137.3601449275
 30
0.0
 10
359.4360586584
 20
137.3601449275
 30
0.0
  0
SPLINE
  5
410
100
AcDbEntity
  8
0
100
AcDbSpline
 62
7
  6
CONTINUOUS
 70
0
 71
3
 72
10
 73
6
 74
0
 42
0.0000001
 43
0.0000001
 44
0.0000000001
 40
0.0
 40
0.0
 40
0.0
 40
0.0
 40
0.1351947799
 40
0.3420608126
 40
1.0
 40
1.0
 40
1.0
 40
1.0
 10
359.5545401535
 20
135.1916403097
 30
0.0
 10
359.5490098631
 20
135.1916409236
 30
0.0
 10
359.5356468073
 20
135.1847906367
 30
0.0
 10
359.5078161051
 20
135.1550232084
 30
0.0
 10
359.489718876
 20
135.1239934621
 30
0.0
 10
359.4768839717
 20
135.1003373064
 30
0.0
  0
SPLINE
  5
411
100
AcDbEntity
  8
0
100
AcDbSpline
 62
7
  6
CONTINUOUS
 70
0
 71
3
 72
10
 73
6
 74
0
 42
0.0000001
 43
0.0000001
 44
0.0000000001
 40
0.0
 40
0.0
 40
0.0
 40
0.0
 40
0.1352257525
 40
0.3421679582
 40
1.0
 40
1.0
 40
1.0
 40
1.0
 10
359.5545399029
 20
137.2286494699
 30
0.0
 10
359.5490083741
 20
137.2286494699
 30
0.0
 10
359.5356432023
 20
137.2355056346
 30
0.0
 10
359.5078091706
 20
137.2652679607
 30
0.0
 10
359.4897167195
 20
137.2963003677
 30
0.0
 10
359.4768839717
 20
137.3199525487
 30
0.0
  0
SPLINE
  5
412
100
AcDbEntity
  8
0
100
AcDbSpline
 62
7
  6
CONTINUOUS
 70
0
 71
3
 72
11
 73
7
 74
0
 42
0.0000001
 43
0.0000001
 44
0.0000000001
 40
0.0
 40
0.0
 40
0.0
 40
0.0
 40
0.2014265683
 40
0.4570300748
 40
0.735976405
 40
1.0
 40
1.0
 40
1.0
 40
1.0
 10
359.4718323036
 20
505.1101449275
 30
0.0
 10
359.4597227178
 20
505.0854422937
 30
0.0
 10
359.438928859
 20
505.0262382064
 30
0.0
 10
359.4156107379
 20
504.9283941978
 30
0.0
 10
359.3995861306
 20
504.8203689347
 30
0.0
 10
359.3949644772
 20
504.7462056473
 30
0.0
 10
359.3949644772
 20
504.7101449275
 30
0.0
  0
SPLINE
  5
413
100
AcDbEntity
  8
0
100
AcDbSpline
 62
7
  6
CONTINUOUS
 70
0
 71
3
 72
11
 73
7
 74
0
 42
0.0000001
 43
0.0000001
 44
0.0000000001
 40
0.0
 40
0.0
 40
0.0
 40
0.0
 40
0.3889221613
 40
0.5500349048
 40
0.6869289369
 40
1.0
 40
1.0
 40
1.0
 40
1.0
 10
359.3952707919
 20
504.6884043511
 30
0.0
 10
359.3957932051
 20
504.670319131
 30
0.0
 10
359.3973632664
 20
504.6449150331
 30
0.0
 10
359.4027400978
 20
504.6129099395
 30
0.0
 10
359.4091299948
 20
504.586788637
 30
0.0
 10
359.4214946161
 20
504.5601493009
 30
0.0
 10
359.4360587656
 20
504.5601446066
 30
0.0
  0
SPLINE
  5
414
100
AcDbEntity
  8
0
100
AcDbSpline
 62
7
  6
CONTINUOUS
 70
0
 71
3
 72
9
 73
5
 74
0
 42
0.0000001
 43
0.0000001
 44
0.0000000001
 40
0.0
 40
0.0
 40
0.0
 40
0.0
 40
0.2714208526
 40
1.0
 40
1.0
 40
1.0
 40
1.0
 10
359.5567170495
 20
504.3632276883
 30
0.0
 10
359.5590679249
 20
504.3767211954
 30
0.0
 10
359.5673673583
 20
504.4264950838
 30
0.0
 10
359.5742013908
 20
504.4765341027
 30
0.0
 10
359.5777973819
 20
504.5131242584
 30
0.0
  0
SPLINE
  5
415
100
AcDbEntity
  8
0
100
AcDbSpline
 62
7
  6
CONTINUOUS
 70
0
 71
3
 72
9
 73
5
 74
0
 42
0.0000001
 43
0.0000001
 44
0.0000000001
 40
0.0
 40
0.0
 40
0.0
 40
0.0
 40
0.2883227941
 40
1.0
 40
1.0
 40
1.0
 40
1.0
 10
359.5782007278
 20
504.5172938589
 30
0.0
 10
359.5791585658
 20
504.5273576171
 30
0.0
 10
359.5820581957
 20
504.5622875122
 30
0.0
 10
359.5834366887
 20
504.5974373334
 30
0.0
 10
359.5822350153
 20
504.6223613651
 30
0.0
  0
SPLINE
  5
416
100
AcDbEntity
  8
0
100
AcDbSpline
 62
7
  6
CONTINUOUS
 70
0
 71
3
 72
9
 73
5
 74
0
 42
0.0000001
 43
0.0000001
 44
0.0000000001
 40
0.0
 40
0.0
 40
0.0
 40
0.0
 40
0.5998942435
 40
1.0
 40
1.0
 40
1.0
 40
1.0
 10
359.5816119598
 20
504.6323218073
 30
0.0
 10
359.580770034
 20
504.6431161775
 30
0.0
 10
359.5785472845
 20
504.660942536
 30
0.0
 10
359.5724325047
 20
504.6785634764
 30
0.0
 10
359.5680142916
 20
504.6842754232
 30
0.0
  0
SPLINE
  5
417
100
AcDbEntity
  8
0
100
AcDbSpline
 62
7
  6
CONTINUOUS
 70
0
 71
3
 72
9
 73
5
 74
0
 42
0.0000001
 43
0.0000001
 44
0.0000000001
 40
0.0
 40
0.0
 40
0.0
 40
0.0
 40
0.5269200119
 40
1.0
 40
1.0
 40
1.0
 40
1.0
 10
359.5680142916
 20
504.6842754232
 30
0.0
 10
359.5663161813
 20
504.6864707711
 30
0.0
 10
359.5623999506
 20
504.6902727337
 30
0.0
 10
359.5570320128
 20
504.6916400331
 30
0.0
 10
359.5545401535
 20
504.6916403097
 30
0.0
  0
LINE
  5
418
100
AcDbEntity
  8
0
100
AcDbLine
 62
7
  6
CONTINUOUS
 10
359.4353047241
 20
507.5629135758
 11
359.4768839717
 21
507.4101449275
  0
LINE
  5
419
100
AcDbEntity
  8
0
100
AcDbLine
 62
7
  6
CONTINUOUS
 10
359.4768839717
 20
504.0101449275
 11
359.4352687596
 21
503.8572431188
  0
SPLINE
  5
41A
100
AcDbEntity
  8
0
100
AcDbSpline
 62
7
  6
CONTINUOUS
 70
0
 71
3
 72
11
 73
7
 74
0
 42
0.0000001
 43
0.0000001
 44
0.0000000001
 40
0.0
 40
0.0
 40
0.0
 40
0.0
 40
0.3128736006
 40
0.4499333437
 40
0.6111867829
 40
1.0
 40
1.0
 40
1.0
 40
1.0
 10
359.4360586596
 20
506.8601449275
 30
0.0
 10
359.4213919444
 20
506.8601449275
 30
0.0
 10
359.4090178735
 20
506.8332115669
 30
0.0
 10
359.4026390508
 20
506.8068838742
 30
0.0
 10
359.3972787765
 20
506.7746100817
 30
0.0
 10
359.3957356693
 20
506.7490089565
 30
0.0
 10
359.3952390196
 20
506.7307891538
 30
0.0
  0
SPLINE
  5
41B
100
AcDbEntity
  8
0
100
AcDbSpline
 62
7
  6
CONTINUOUS
 70
0
 71
3
 72
11
 73
7
 74
0
 42
0.0000001
 43
0.0000001
 44
0.0000000001
 40
0.0
 40
0.0
 40
0.0
 40
0.0
 40
0.2573458697
 40
0.5371866703
 40
0.7964027758
 40
1.0
 40
1.0
 40
1.0
 40
1.0
 10
359.3952390196
 20
506.7307891538
 30
0.0
 10
359.3942330938
 20
506.693886347
 30
0.0
 10
359.3977663445
 20
506.6167124211
 30
0.0
 10
359.4133011889
 20
506.5033761638
 30
0.0
 10
359.437215778
 20
506.3994913182
 30
0.0
 10
359.458976589
 20
506.3363696074
 30
0.0
 10
359.4718323036
 20
506.3101449275
 30
0.0
  0
SPLINE
  5
41C
100
AcDbEntity
  8
0
100
AcDbSpline
 62
7
  6
CONTINUOUS
 70
0
 71
3
 72
9
 73
5
 74
0
 42
0.0000001
 43
0.0000001
 44
0.0000000001
 40
0.0
 40
0.0
 40
0.0
 40
0.0
 40
0.4729849262
 40
1.0
 40
1.0
 40
1.0
 40
1.0
 10
359.5545399043
 20
506.7286494699
 30
0.0
 10
359.5570317544
 20
506.7286494699
 30
0.0
 10
359.5624010455
 20
506.7300183626
 30
0.0
 10
359.566315662
 20
506.7338230384
 30
0.0
 10
359.5680148217
 20
506.7360188999
 30
0.0
  0
SPLINE
  5
41D
100
AcDbEntity
  8
0
100
AcDbSpline
 62
7
  6
CONTINUOUS
 70
0
 71
3
 72
9
 73
5
 74
0
 42
0.0000001
 43
0.0000001
 44
0.0000000001
 40
0.0
 40
0.0
 40
0.0
 40
0.0
 40
0.4001452673
 40
1.0
 40
1.0
 40
1.0
 40
1.0
 10
359.5680148217
 20
506.7360188999
 30
0.0
 10
359.5724345922
 20
506.7417306663
 30
0.0
 10
359.5785538103
 20
506.7593509188
 30
0.0
 10
359.5807701303
 20
506.777178792
 30
0.0
 10
359.5816101545
 20
506.7879727413
 30
0.0
  0
SPLINE
  5
41E
100
AcDbEntity
  8
0
100
AcDbSpline
 62
7
  6
CONTINUOUS
 70
0
 71
3
 72
9
 73
5
 74
0
 42
0.0000001
 43
0.0000001
 44
0.0000000001
 40
0.0
 40
0.0
 40
0.0
 40
0.0
 40
0.2107801826
 40
1.0
 40
1.0
 40
1.0
 40
1.0
 10
359.5822323123
 20
506.7979335203
 30
0.0
 10
359.5825880024
 20
506.8053146003
 30
0.0
 10
359.5832448834
 20
506.8403815972
 30
0.0
 10
359.5808310323
 20
506.8754361363
 30
0.0
 10
359.578207627
 20
506.9029803813
 30
0.0
  0
SPLINE
  5
41F
100
AcDbEntity
  8
0
100
AcDbSpline
 62
7
  6
CONTINUOUS
 70
0
 71
3
 72
9
 73
5
 74
0
 42
0.0000001
 43
0.0000001
 44
0.0000000001
 40
0.0
 40
0.0
 40
0.0
 40
0.0
 40
0.227200136
 40
1.0
 40
1.0
 40
1.0
 40
1.0
 10
359.5778041569
 20
506.9071479711
 30
0.0
 10
359.5766816247
 20
506.9185600075
 30
0.0
 10
359.5711110115
 20
506.9687269282
 30
0.0
 10
359.5634096929
 20
507.0186404583
 30
0.0
 10
359.5567162946
 20
507.0570661515
 30
0.0
  0
SPLINE
  5
420
100
AcDbEntity
  8
0
100
AcDbSpline
 62
7
  6
CONTINUOUS
 70
0
 71
3
 72
10
 73
6
 74
0
 42
0.0000001
 43
0.0000001
 44
0.0000000001
 40
0.0
 40
0.0
 40
0.0
 40
0.0
 40
0.3443379449
 40
0.6221716378
 40
1.0
 40
1.0
 40
1.0
 40
1.0
 10
359.4768839717
 20
506.8199525487
 30
0.0
 10
359.4736566425
 20
506.8259008751
 30
0.0
 10
359.4672775799
 20
506.8364840314
 30
0.0
 10
359.4553724418
 20
506.8516616649
 30
0.0
 10
359.4434843015
 20
506.8601449275
 30
0.0
 10
359.4360586584
 20
506.8601449275
 30
0.0
  0
SPLINE
  5
421
100
AcDbEntity
  8
0
100
AcDbSpline
 62
7
  6
CONTINUOUS
 70
0
 71
3
 72
10
 73
6
 74
0
 42
0.0000001
 43
0.0000001
 44
0.0000000001
 40
0.0
 40
0.0
 40
0.0
 40
0.0
 40
0.1351947799
 40
0.3420608126
 40
1.0
 40
1.0
 40
1.0
 40
1.0
 10
359.5545401535
 20
504.6916403097
 30
0.0
 10
359.5490098631
 20
504.6916409236
 30
0.0
 10
359.5356468073
 20
504.6847906367
 30
0.0
 10
359.5078161051
 20
504.6550232084
 30
0.0
 10
359.489718876
 20
504.6239934621
 30
0.0
 10
359.4768839717
 20
504.6003373064
 30
0.0
  0
SPLINE
  5
422
100
AcDbEntity
  8
0
100
AcDbSpline
 62
7
  6
CONTINUOUS
 70
0
 71
3
 72
10
 73
6
 74
0
 42
0.0000001
 43
0.0000001
 44
0.0000000001
 40
0.0
 40
0.0
 40
0.0
 40
0.0
 40
0.1352257525
 40
0.3421679582
 40
1.0
 40
1.0
 40
1.0
 40
1.0
 10
359.5545399029
 20
506.7286494699
 30
0.0
 10
359.5490083741
 20
506.7286494699
 30
0.0
 10
359.5356432023
 20
506.7355056346
 30
0.0
 10
359.5078091706
 20
506.7652679607
 30
0.0
 10
359.4897167195
 20
506.7963003677
 30
0.0
 10
359.4768839717
 20
506.8199525487
 30
0.0
  0
SPLINE
  5
423
100
AcDbEntity
  8
0
100
AcDbSpline
 62
7
  6
CONTINUOUS
 70
0
 71
3
 72
9
 73
5
 74
0
 42
0.0000001
 43
0.0000001
 44
0.0000000001
 40
0.0
 40
0.0
 40
0.0
 40
0.0
 40
0.4729849262
 40
1.0
 40
1.0
 40
1.0
 40
1.0
 10
113.666072012
 20
135.1916403852
 30
0.0
 10
113.6635801619
 20
135.1916403852
 30
0.0
 10
113.6582108708
 20
135.1902714925
 30
0.0
 10
113.6542962543
 20
135.1864668167
 30
0.0
 10
113.6525970945
 20
135.1842709552
 30
0.0
  0
SPLINE
  5
424
100
AcDbEntity
  8
0
100
AcDbSpline
 62
7
  6
CONTINUOUS
 70
0
 71
3
 72
9
 73
5
 74
0
 42
0.0000001
 43
0.0000001
 44
0.0000000001
 40
0.0
 40
0.0
 40
0.0
 40
0.0
 40
0.4001452673
 40
1.0
 40
1.0
 40
1.0
 40
1.0
 10
113.6525970945
 20
135.1842709552
 30
0.0
 10
113.6481773241
 20
135.1785591888
 30
0.0
 10
113.642058106
 20
135.1609389363
 30
0.0
 10
113.639841786
 20
135.1431110631
 30
0.0
 10
113.6390017618
 20
135.1323171138
 30
0.0
  0
SPLINE
  5
425
100
AcDbEntity
  8
0
100
AcDbSpline
 62
7
  6
CONTINUOUS
 70
0
 71
3
 72
9
 73
5
 74
0
 42
0.0000001
 43
0.0000001
 44
0.0000000001
 40
0.0
 40
0.0
 40
0.0
 40
0.0
 40
0.2107801826
 40
1.0
 40
1.0
 40
1.0
 40
1.0
 10
113.638379604
 20
135.1223563348
 30
0.0
 10
113.6380239139
 20
135.1149752548
 30
0.0
 10
113.6373670329
 20
135.0799082579
 30
0.0
 10
113.6397808839
 20
135.0448537188
 30
0.0
 10
113.6424042892
 20
135.0173094738
 30
0.0
  0
SPLINE
  5
426
100
AcDbEntity
  8
0
100
AcDbSpline
 62
7
  6
CONTINUOUS
 70
0
 71
3
 72
9
 73
5
 74
0
 42
0.0000001
 43
0.0000001
 44
0.0000000001
 40
0.0
 40
0.0
 40
0.0
 40
0.0
 40
0.227200136
 40
1.0
 40
1.0
 40
1.0
 40
1.0
 10
113.6428077594
 20
135.013141884
 30
0.0
 10
113.6439302915
 20
135.0017298476
 30
0.0
 10
113.6495009047
 20
134.9515629269
 30
0.0
 10
113.6572022234
 20
134.9016493968
 30
0.0
 10
113.6638956217
 20
134.8632237036
 30
0.0
  0
SPLINE
  5
427
100
AcDbEntity
  8
0
100
AcDbSpline
 62
7
  6
CONTINUOUS
 70
0
 71
3
 72
11
 73
7
 74
0
 42
0.0000001
 43
0.0000001
 44
0.0000000001
 40
0.0
 40
0.0
 40
0.0
 40
0.0
 40
0.264032643
 40
0.5429656821
 40
0.7985609761
 40
1.0
 40
1.0
 40
1.0
 40
1.0
 10
113.8256474194
 20
135.2101449275
 30
0.0
 10
113.8256474194
 20
135.2462068842
 30
0.0
 10
113.8210257391
 20
135.3203696025
 30
0.0
 10
113.8050012337
 20
135.4283931444
 30
0.0
 10
113.7816838457
 20
135.5262360418
 30
0.0
 10
113.7608899476
 20
135.5854407654
 30
0.0
 10
113.7487796127
 20
135.6101449275
 30
0.0
  0
LINE
  5
428
100
AcDbEntity
  8
0
100
AcDbLine
 62
7
  6
CONTINUOUS
 10
113.7437279446
 20
137.9101449275
 11
113.7853431567
 21
138.0630467363
  0
SPLINE
  5
429
100
AcDbEntity
  8
0
100
AcDbSpline
 62
7
  6
CONTINUOUS
 70
0
 71
3
 72
11
 73
7
 74
0
 42
0.0000001
 43
0.0000001
 44
0.0000000001
 40
0.0
 40
0.0
 40
0.0
 40
0.0
 40
0.3130831588
 40
0.449986665
 40
0.6111064495
 40
1.0
 40
1.0
 40
1.0
 40
1.0
 10
113.7845533788
 20
135.060144715
 30
0.0
 10
113.7991192356
 20
135.060150142
 30
0.0
 10
113.8114836879
 20
135.0867936533
 30
0.0
 10
113.8178735415
 20
135.1129183637
 30
0.0
 10
113.8232495302
 20
135.1449256207
 30
0.0
 10
113.824819563
 20
135.1703307032
 30
0.0
 10
113.8253415426
 20
135.188416027
 30
0.0
  0
LINE
  5
42A
100
AcDbEntity
  8
0
100
AcDbLine
 62
7
  6
CONTINUOUS
 10
113.7853071921
 20
134.3573762793
 11
113.7437279446
 21
134.5101449275
  0
SPLINE
  5
42B
100
AcDbEntity
  8
0
100
AcDbSpline
 62
7
  6
CONTINUOUS
 70
0
 71
3
 72
11
 73
7
 74
0
 42
0.0000001
 43
0.0000001
 44
0.0000000001
 40
0.0
 40
0.0
 40
0.0
 40
0.0
 40
0.2014265683
 40
0.4570300748
 40
0.735976405
 40
1.0
 40
1.0
 40
1.0
 40
1.0
 10
113.7487796127
 20
136.8101449275
 30
0.0
 10
113.7608891985
 20
136.8348475614
 30
0.0
 10
113.7816830573
 20
136.8940516487
 30
0.0
 10
113.8050011783
 20
136.9918956573
 30
0.0
 10
113.8210257856
 20
137.0999209204
 30
0.0
 10
113.825647439
 20
137.1740842078
 30
0.0
 10
113.825647439
 20
137.2101449275
 30
0.0
  0
SPLINE
  5
42C
100
AcDbEntity
  8
0
100
AcDbSpline
 62
7
  6
CONTINUOUS
 70
0
 71
3
 72
11
 73
7
 74
0
 42
0.0000001
 43
0.0000001
 44
0.0000000001
 40
0.0
 40
0.0
 40
0.0
 40
0.0
 40
0.3889221613
 40
0.5500349048
 40
0.6869289369
 40
1.0
 40
1.0
 40
1.0
 40
1.0
 10
113.8253411244
 20
137.231885504
 30
0.0
 10
113.8248187112
 20
137.249970724
 30
0.0
 10
113.8232486498
 20
137.2753748219
 30
0.0
 10
113.8178718184
 20
137.3073799156
 30
0.0
 10
113.8114819215
 20
137.333501218
 30
0.0
 10
113.7991173001
 20
137.3601405542
 30
0.0
 10
113.7845531507
 20
137.3601452485
 30
0.0
  0
SPLINE
  5
42D
100
AcDbEntity
  8
0
100
AcDbSpline
 62
7
  6
CONTINUOUS
 70
0
 71
3
 72
9
 73
5
 74
0
 42
0.0000001
 43
0.0000001
 44
0.0000000001
 40
0.0
 40
0.0
 40
0.0
 40
0.0
 40
0.2714208526
 40
1.0
 40
1.0
 40
1.0
 40
1.0
 10
113.6638948667
 20
137.5570621668
 30
0.0
 10
113.6615439913
 20
137.5435686597
 30
0.0
 10
113.6532445579
 20
137.4937947713
 30
0.0
 10
113.6464105255
 20
137.4437557523
 30
0.0
 10
113.6428145344
 20
137.4071655967
 30
0.0
  0
SPLINE
  5
42E
100
AcDbEntity
  8
0
100
AcDbSpline
 62
7
  6
CONTINUOUS
 70
0
 71
3
 72
9
 73
5
 74
0
 42
0.0000001
 43
0.0000001
 44
0.0000000001
 40
0.0
 40
0.0
 40
0.0
 40
0.0
 40
0.2883227941
 40
1.0
 40
1.0
 40
1.0
 40
1.0
 10
113.6424111885
 20
137.4029959962
 30
0.0
 10
113.6414533505
 20
137.392932238
 30
0.0
 10
113.6385537206
 20
137.3580023429
 30
0.0
 10
113.6371752275
 20
137.3228525217
 30
0.0
 10
113.6383769009
 20
137.29792849
 30
0.0
  0
SPLINE
  5
42F
100
AcDbEntity
  8
0
100
AcDbSpline
 62
7
  6
CONTINUOUS
 70
0
 71
3
 72
9
 73
5
 74
0
 42
0.0000001
 43
0.0000001
 44
0.0000000001
 40
0.0
 40
0.0
 40
0.0
 40
0.0
 40
0.5998942435
 40
1.0
 40
1.0
 40
1.0
 40
1.0
 10
113.6389999565
 20
137.2879680478
 30
0.0
 10
113.6398418822
 20
137.2771736776
 30
0.0
 10
113.6420646318
 20
137.2593473191
 30
0.0
 10
113.6481794115
 20
137.2417263787
 30
0.0
 10
113.6525976247
 20
137.2360144319
 30
0.0
  0
SPLINE
  5
430
100
AcDbEntity
  8
0
100
AcDbSpline
 62
7
  6
CONTINUOUS
 70
0
 71
3
 72
9
 73
5
 74
0
 42
0.0000001
 43
0.0000001
 44
0.0000000001
 40
0.0
 40
0.0
 40
0.0
 40
0.0
 40
0.5269200119
 40
1.0
 40
1.0
 40
1.0
 40
1.0
 10
113.6525976247
 20
137.2360144319
 30
0.0
 10
113.6542957349
 20
137.233819084
 30
0.0
 10
113.6582119656
 20
137.2300171214
 30
0.0
 10
113.6635799035
 20
137.2286498219
 30
0.0
 10
113.6660717628
 20
137.2286495453
 30
0.0
  0
SPLINE
  5
431
100
AcDbEntity
  8
0
100
AcDbSpline
 62
7
  6
CONTINUOUS
 70
0
 71
3
 72
10
 73
6
 74
0
 42
0.0000001
 43
0.0000001
 44
0.0000000001
 40
0.0
 40
0.0
 40
0.0
 40
0.0
 40
0.1352257525
 40
0.3421679582
 40
1.0
 40
1.0
 40
1.0
 40
1.0
 10
113.6660720134
 20
135.1916403852
 30
0.0
 10
113.6716035422
 20
135.1916403852
 30
0.0
 10
113.684968714
 20
135.1847842205
 30
0.0
 10
113.7128027456
 20
135.1550218944
 30
0.0
 10
113.7308951967
 20
135.1239894874
 30
0.0
 10
113.7437279446
 20
135.1003373064
 30
0.0
  0
SPLINE
  5
432
100
AcDbEntity
  8
0
100
AcDbSpline
 62
7
  6
CONTINUOUS
 70
0
 71
3
 72
10
 73
6
 74
0
 42
0.0000001
 43
0.0000001
 44
0.0000000001
 40
0.0
 40
0.0
 40
0.0
 40
0.0
 40
0.1351947799
 40
0.3420608126
 40
1.0
 40
1.0
 40
1.0
 40
1.0
 10
113.6660717628
 20
137.2286495453
 30
0.0
 10
113.6716020532
 20
137.2286489315
 30
0.0
 10
113.6849651089
 20
137.2354992184
 30
0.0
 10
113.7127958111
 20
137.2652666467
 30
0.0
 10
113.7308930402
 20
137.296296393
 30
0.0
 10
113.7437279446
 20
137.3199525487
 30
0.0
  0
SPLINE
  5
433
100
AcDbEntity
  8
0
100
AcDbSpline
 62
7
  6
CONTINUOUS
 70
0
 71
3
 72
9
 73
5
 74
0
 42
0.0000001
 43
0.0000001
 44
0.0000000001
 40
0.0
 40
0.0
 40
0.0
 40
0.0
 40
0.4729849262
 40
1.0
 40
1.0
 40
1.0
 40
1.0
 10
113.666072012
 20
504.6916403852
 30
0.0
 10
113.6635801619
 20
504.6916403852
 30
0.0
 10
113.6582108708
 20
504.6902714925
 30
0.0
 10
113.6542962543
 20
504.6864668167
 30
0.0
 10
113.6525970945
 20
504.6842709552
 30
0.0
  0
SPLINE
  5
434
100
AcDbEntity
  8
0
100
AcDbSpline
 62
7
  6
CONTINUOUS
 70
0
 71
3
 72
9
 73
5
 74
0
 42
0.0000001
 43
0.0000001
 44
0.0000000001
 40
0.0
 40
0.0
 40
0.0
 40
0.0
 40
0.4001452673
 40
1.0
 40
1.0
 40
1.0
 40
1.0
 10
113.6525970945
 20
504.6842709552
 30
0.0
 10
113.6481773241
 20
504.6785591888
 30
0.0
 10
113.642058106
 20
504.6609389363
 30
0.0
 10
113.639841786
 20
504.6431110631
 30
0.0
 10
113.6390017618
 20
504.6323171138
 30
0.0
  0
SPLINE
  5
435
100
AcDbEntity
  8
0
100
AcDbSpline
 62
7
  6
CONTINUOUS
 70
0
 71
3
 72
9
 73
5
 74
0
 42
0.0000001
 43
0.0000001
 44
0.0000000001
 40
0.0
 40
0.0
 40
0.0
 40
0.0
 40
0.2107801826
 40
1.0
 40
1.0
 40
1.0
 40
1.0
 10
113.638379604
 20
504.6223563348
 30
0.0
 10
113.6380239139
 20
504.6149752548
 30
0.0
 10
113.6373670329
 20
504.5799082579
 30
0.0
 10
113.6397808839
 20
504.5448537188
 30
0.0
 10
113.6424042892
 20
504.5173094738
 30
0.0
  0
SPLINE
  5
436
100
AcDbEntity
  8
0
100
AcDbSpline
 62
7
  6
CONTINUOUS
 70
0
 71
3
 72
9
 73
5
 74
0
 42
0.0000001
 43
0.0000001
 44
0.0000000001
 40
0.0
 40
0.0
 40
0.0
 40
0.0
 40
0.227200136
 40
1.0
 40
1.0
 40
1.0
 40
1.0
 10
113.6428077594
 20
504.513141884
 30
0.0
 10
113.6439302915
 20
504.5017298476
 30
0.0
 10
113.6495009047
 20
504.4515629269
 30
0.0
 10
113.6572022234
 20
504.4016493968
 30
0.0
 10
113.6638956217
 20
504.3632237036
 30
0.0
  0
SPLINE
  5
437
100
AcDbEntity
  8
0
100
AcDbSpline
 62
7
  6
CONTINUOUS
 70
0
 71
3
 72
11
 73
7
 74
0
 42
0.0000001
 43
0.0000001
 44
0.0000000001
 40
0.0
 40
0.0
 40
0.0
 40
0.0
 40
0.264032643
 40
0.5429656821
 40
0.7985609761
 40
1.0
 40
1.0
 40
1.0
 40
1.0
 10
113.8256474194
 20
504.7101449275
 30
0.0
 10
113.8256474194
 20
504.7462068842
 30
0.0
 10
113.8210257391
 20
504.8203696025
 30
0.0
 10
113.8050012337
 20
504.9283931444
 30
0.0
 10
113.7816838457
 20
505.0262360418
 30
0.0
 10
113.7608899476
 20
505.0854407654
 30
0.0
 10
113.7487796127
 20
505.1101449275
 30
0.0
  0
LINE
  5
438
100
AcDbEntity
  8
0
100
AcDbLine
 62
7
  6
CONTINUOUS
 10
113.7437279446
 20
507.4101449275
 11
113.7853431567
 21
507.5630467363
  0
SPLINE
  5
439
100
AcDbEntity
  8
0
100
AcDbSpline
 62
7
  6
CONTINUOUS
 70
0
 71
3
 72
11
 73
7
 74
0
 42
0.0000001
 43
0.0000001
 44
0.0000000001
 40
0.0
 40
0.0
 40
0.0
 40
0.0
 40
0.3130831588
 40
0.449986665
 40
0.6111064495
 40
1.0
 40
1.0
 40
1.0
 40
1.0
 10
113.7845533788
 20
504.560144715
 30
0.0
 10
113.7991192356
 20
504.560150142
 30
0.0
 10
113.8114836879
 20
504.5867936533
 30
0.0
 10
113.8178735415
 20
504.6129183637
 30
0.0
 10
113.8232495302
 20
504.6449256207
 30
0.0
 10
113.824819563
 20
504.6703307032
 30
0.0
 10
113.8253415426
 20
504.688416027
 30
0.0
  0
LINE
  5
43A
100
AcDbEntity
  8
0
100
AcDbLine
 62
7
  6
CONTINUOUS
 10
113.7853071921
 20
503.8573762793
 11
113.7437279446
 21
504.0101449275
  0
SPLINE
  5
43B
100
AcDbEntity
  8
0
100
AcDbSpline
 62
7
  6
CONTINUOUS
 70
0
 71
3
 72
11
 73
7
 74
0
 42
0.0000001
 43
0.0000001
 44
0.0000000001
 40
0.0
 40
0.0
 40
0.0
 40
0.0
 40
0.2014265683
 40
0.4570300748
 40
0.735976405
 40
1.0
 40
1.0
 40
1.0
 40
1.0
 10
113.7487796127
 20
506.3101449275
 30
0.0
 10
113.7608891985
 20
506.3348475614
 30
0.0
 10
113.7816830573
 20
506.3940516487
 30
0.0
 10
113.8050011783
 20
506.4918956573
 30
0.0
 10
113.8210257856
 20
506.5999209204
 30
0.0
 10
113.825647439
 20
506.6740842078
 30
0.0
 10
113.825647439
 20
506.7101449275
 30
0.0
  0
SPLINE
  5
43C
100
AcDbEntity
  8
0
100
AcDbSpline
 62
7
  6
CONTINUOUS
 70
0
 71
3
 72
11
 73
7
 74
0
 42
0.0000001
 43
0.0000001
 44
0.0000000001
 40
0.0
 40
0.0
 40
0.0
 40
0.0
 40
0.3889221613
 40
0.5500349048
 40
0.6869289369
 40
1.0
 40
1.0
 40
1.0
 40
1.0
 10
113.8253411244
 20
506.731885504
 30
0.0
 10
113.8248187112
 20
506.749970724
 30
0.0
 10
113.8232486498
 20
506.7753748219
 30
0.0
 10
113.8178718184
 20
506.8073799156
 30
0.0
 10
113.8114819215
 20
506.833501218
 30
0.0
 10
113.7991173001
 20
506.8601405542
 30
0.0
 10
113.7845531507
 20
506.8601452485
 30
0.0
  0
SPLINE
  5
43D
100
AcDbEntity
  8
0
100
AcDbSpline
 62
7
  6
CONTINUOUS
 70
0
 71
3
 72
9
 73
5
 74
0
 42
0.0000001
 43
0.0000001
 44
0.0000000001
 40
0.0
 40
0.0
 40
0.0
 40
0.0
 40
0.2714208526
 40
1.0
 40
1.0
 40
1.0
 40
1.0
 10
113.6638948667
 20
507.0570621668
 30
0.0
 10
113.6615439913
 20
507.0435686597
 30
0.0
 10
113.6532445579
 20
506.9937947713
 30
0.0
 10
113.6464105255
 20
506.9437557523
 30
0.0
 10
113.6428145344
 20
506.9071655967
 30
0.0
  0
SPLINE
  5
43E
100
AcDbEntity
  8
0
100
AcDbSpline
 62
7
  6
CONTINUOUS
 70
0
 71
3
 72
9
 73
5
 74
0
 42
0.0000001
 43
0.0000001
 44
0.0000000001
 40
0.0
 40
0.0
 40
0.0
 40
0.0
 40
0.2883227941
 40
1.0
 40
1.0
 40
1.0
 40
1.0
 10
113.6424111885
 20
506.9029959962
 30
0.0
 10
113.6414533505
 20
506.892932238
 30
0.0
 10
113.6385537206
 20
506.8580023429
 30
0.0
 10
113.6371752275
 20
506.8228525217
 30
0.0
 10
113.6383769009
 20
506.79792849
 30
0.0
  0
SPLINE
  5
43F
100
AcDbEntity
  8
0
100
AcDbSpline
 62
7
  6
CONTINUOUS
 70
0
 71
3
 72
9
 73
5
 74
0
 42
0.0000001
 43
0.0000001
 44
0.0000000001
 40
0.0
 40
0.0
 40
0.0
 40
0.0
 40
0.5998942435
 40
1.0
 40
1.0
 40
1.0
 40
1.0
 10
113.6389999565
 20
506.7879680478
 30
0.0
 10
113.6398418822
 20
506.7771736776
 30
0.0
 10
113.6420646318
 20
506.7593473191
 30
0.0
 10
113.6481794115
 20
506.7417263787
 30
0.0
 10
113.6525976247
 20
506.7360144319
 30
0.0
  0
SPLINE
  5
440
100
AcDbEntity
  8
0
100
AcDbSpline
 62
7
  6
CONTINUOUS
 70
0
 71
3
 72
9
 73
5
 74
0
 42
0.0000001
 43
0.0000001
 44
0.0000000001
 40
0.0
 40
0.0
 40
0.0
 40
0.0
 40
0.5269200119
 40
1.0
 40
1.0
 40
1.0
 40
1.0
 10
113.6525976247
 20
506.7360144319
 30
0.0
 10
113.6542957349
 20
506.733819084
 30
0.0
 10
113.6582119656
 20
506.7300171214
 30
0.0
 10
113.6635799035
 20
506.7286498219
 30
0.0
 10
113.6660717628
 20
506.7286495453
 30
0.0
  0
SPLINE
  5
441
100
AcDbEntity
  8
0
100
AcDbSpline
 62
7
  6
CONTINUOUS
 70
0
 71
3
 72
10
 73
6
 74
0
 42
0.0000001
 43
0.0000001
 44
0.0000000001
 40
0.0
 40
0.0
 40
0.0
 40
0.0
 40
0.1352257525
 40
0.3421679582
 40
1.0
 40
1.0
 40
1.0
 40
1.0
 10
113.6660720134
 20
504.6916403852
 30
0.0
 10
113.6716035422
 20
504.6916403852
 30
0.0
 10
113.684968714
 20
504.6847842205
 30
0.0
 10
113.7128027456
 20
504.6550218944
 30
0.0
 10
113.7308951967
 20
504.6239894874
 30
0.0
 10
113.7437279446
 20
504.6003373064
 30
0.0
  0
SPLINE
  5
442
100
AcDbEntity
  8
0
100
AcDbSpline
 62
7
  6
CONTINUOUS
 70
0
 71
3
 72
10
 73
6
 74
0
 42
0.0000001
 43
0.0000001
 44
0.0000000001
 40
0.0
 40
0.0
 40
0.0
 40
0.0
 40
0.1351947799
 40
0.3420608126
 40
1.0
 40
1.0
 40
1.0
 40
1.0
 10
113.6660717628
 20
506.7286495453
 30
0.0
 10
113.6716020532
 20
506.7286489315
 30
0.0
 10
113.6849651089
 20
506.7354992184
 30
0.0
 10
113.7127958112
 20
506.7652666467
 30
0.0
 10
113.7308930402
 20
506.796296393
 30
0.0
 10
113.7437279446
 20
506.8199525487
 30
0.0
  0
SPLINE
  5
443
100
AcDbEntity
  8
0
100
AcDbSpline
 62
7
  6
CONTINUOUS
 70
0
 71
3
 72
9
 73
5
 74
0
 42
0.0000001
 43
0.0000001
 44
0.0000000001
 40
0.0
 40
0.0
 40
0.0
 40
0.0
 40
0.5052132037
 40
1.0
 40
1.0
 40
1.0
 40
1.0
 10
139.7880627717
 20
68.343566914
 30
0.0
 10
139.7355291792
 20
68.360022939
 30
0.0
 10
139.6301045585
 20
68.3879288571
 30
0.0
 10
139.5231551969
 20
68.4094954035
 30
0.0
 10
139.4697966791
 20
68.4172187741
 30
0.0
  0
SPLINE
  5
444
100
AcDbEntity
  8
0
100
AcDbSpline
 62
7
  6
CONTINUOUS
 70
0
 71
3
 72
9
 73
5
 74
0
 42
0.0000001
 43
0.0000001
 44
0.0000000001
 40
0.0
 40
0.0
 40
0.0
 40
0.0
 40
0.5615257471
 40
1.0
 40
1.0
 40
1.0
 40
1.0
 10
139.4697966791
 20
68.4172187741
 30
0.0
 10
139.4527605086
 20
68.419684672
 30
0.0
 10
139.4223370724
 20
68.4234848064
 30
0.0
 10
139.3916966856
 20
68.4254854095
 30
0.0
 10
139.3782551506
 20
68.4254854095
 30
0.0
  0
SPLINE
  5
445
100
AcDbEntity
  8
0
100
AcDbSpline
 62
7
  6
CONTINUOUS
 70
0
 71
3
 72
9
 73
5
 74
0
 42
0.0000001
 43
0.0000001
 44
0.0000000001
 40
0.0
 40
0.0
 40
0.0
 40
0.0
 40
0.2586153298
 40
1.0
 40
1.0
 40
1.0
 40
1.0
 10
139.9439777215
 20
68.301449522
 30
0.0
 10
139.9304122021
 20
68.3045898175
 30
0.0
 10
139.8780662745
 20
68.3171918899
 30
0.0
 10
139.8261549208
 20
68.3316346373
 30
0.0
 10
139.7880627717
 20
68.343566914
 30
0.0
  0
SPLINE
  5
446
100
AcDbEntity
  8
0
100
AcDbSpline
 62
7
  6
CONTINUOUS
 70
0
 71
3
 72
10
 73
6
 74
0
 42
0.0000001
 43
0.0000001
 44
0.0000000001
 40
0.0
 40
0.0
 40
0.0
 40
0.0
 40
0.1334729267
 40
0.3386532333
 40
1.0
 40
1.0
 40
1.0
 40
1.0
 10
139.3380634423
 20
68.4144462876
 30
0.0
 10
139.3380651861
 20
68.4125152613
 30
0.0
 10
139.340526038
 20
68.4078475197
 30
0.0
 10
139.3513122185
 20
68.398280664
 30
0.0
 10
139.3625022677
 20
68.3922027196
 30
0.0
 10
139.3710481404
 20
68.3878996912
 30
0.0
  0
SPLINE
  5
447
100
AcDbEntity
  8
0
100
AcDbSpline
 62
7
  6
CONTINUOUS
 70
0
 71
3
 72
9
 73
5
 74
0
 42
0.0000001
 43
0.0000001
 44
0.0000000001
 40
0.0
 40
0.0
 40
0.0
 40
0.0
 40
0.4361085343
 40
1.0
 40
1.0
 40
1.0
 40
1.0
 10
139.3710481404
 20
68.3878996912
 30
0.0
 10
139.3851496352
 20
68.3807992891
 30
0.0
 10
139.4186244912
 20
68.3668350731
 30
0.0
 10
139.4528178342
 20
68.3549313618
 30
0.0
 10
139.4722315322
 20
68.3486185821
 30
0.0
  0
SPLINE
  5
448
100
AcDbEntity
  8
0
100
AcDbSpline
 62
7
  6
CONTINUOUS
 70
0
 71
3
 72
9
 73
5
 74
0
 42
0.0000001
 43
0.0000001
 44
0.0000000001
 40
0.0
 40
0.0
 40
0.0
 40
0.0
 40
0.4384975121
 40
1.0
 40
1.0
 40
1.0
 40
1.0
 10
333.8423567657
 20
68.4254853976
 30
0.0
 10
333.828919149
 20
68.4254853976
 30
0.0
 10
333.7982893165
 20
68.4234858407
 30
0.0
 10
333.7678762527
 20
68.4196878876
 30
0.0
 10
333.7508466044
 20
68.4172233057
 30
0.0
  0
SPLINE
  5
449
100
AcDbEntity
  8
0
100
AcDbSpline
 62
7
  6
CONTINUOUS
 70
0
 71
3
 72
9
 73
5
 74
0
 42
0.0000001
 43
0.0000001
 44
0.0000000001
 40
0.0
 40
0.0
 40
0.0
 40
0.0
 40
0.4947532691
 40
1.0
 40
1.0
 40
1.0
 40
1.0
 10
333.7508466044
 20
68.4172233057
 30
0.0
 10
333.6974863644
 20
68.4095008513
 30
0.0
 10
333.590526138
 20
68.3879344858
 30
0.0
 10
333.4850913167
 20
68.3600256266
 30
0.0
 10
333.4325491446
 20
68.343566914
 30
0.0
  0
SPLINE
  5
44A
100
AcDbEntity
  8
0
100
AcDbSpline
 62
7
  6
CONTINUOUS
 70
0
 71
3
 72
9
 73
5
 74
0
 42
0.0000001
 43
0.0000001
 44
0.0000000001
 40
0.0
 40
0.0
 40
0.0
 40
0.0
 40
0.2585856506
 40
1.0
 40
1.0
 40
1.0
 40
1.0
 10
333.2788381843
 20
68.3019605504
 30
0.0
 10
333.2922092412
 20
68.3050693235
 30
0.0
 10
333.3438111713
 20
68.3175405705
 30
0.0
 10
333.3949888921
 20
68.3318012527
 30
0.0
 10
333.4325491446
 20
68.343566914
 30
0.0
  0
SPLINE
  5
44B
100
AcDbEntity
  8
0
100
AcDbSpline
 62
7
  6
CONTINUOUS
 70
0
 71
3
 72
9
 73
5
 74
0
 42
0.0000001
 43
0.0000001
 44
0.0000000001
 40
0.0
 40
0.0
 40
0.0
 40
0.0
 40
0.563256365
 40
1.0
 40
1.0
 40
1.0
 40
1.0
 10
333.7483803841
 20
68.3486185821
 30
0.0
 10
333.7676809711
 20
68.3548945813
 30
0.0
 10
333.8017151495
 20
68.3667382881
 30
0.0
 10
333.8350386155
 20
68.3806171891
 30
0.0
 10
333.8491066276
 20
68.3876697311
 30
0.0
  0
SPLINE
  5
44C
100
AcDbEntity
  8
0
100
AcDbSpline
 62
7
  6
CONTINUOUS
 70
0
 71
3
 72
10
 73
6
 74
0
 42
0.0000001
 43
0.0000001
 44
0.0000000001
 40
0.0
 40
0.0
 40
0.0
 40
0.0
 40
0.6618445847
 40
0.8669420785
 40
1.0
 40
1.0
 40
1.0
 40
1.0
 10
333.8491066276
 20
68.3876697311
 30
0.0
 10
333.8577670147
 20
68.3920113356
 30
0.0
 10
333.8691057321
 20
68.3981432095
 30
0.0
 10
333.8800432835
 20
68.4077883298
 30
0.0
 10
333.8825466214
 20
68.412498705
 30
0.0
 10
333.8825484304
 20
68.4144463325
 30
0.0
  0
SPLINE
  5
44D
100
AcDbEntity
  8
0
100
AcDbSpline
 62
7
  6
CONTINUOUS
 70
0
 71
3
 72
11
 73
7
 74
0
 42
0.0000001
 43
0.0000001
 44
0.0000000001
 40
0.0
 40
0.0
 40
0.0
 40
0.0
 40
0.3348297128
 40
0.6018438962
 40
0.8141260944
 40
1.0
 40
1.0
 40
1.0
 40
1.0
 10
129.0016090369
 20
69.265910321
 30
0.0
 10
128.9880295278
 20
69.2701120024
 30
0.0
 10
128.9639733046
 20
69.2790524461
 30
0.0
 10
128.9341206282
 20
69.2970058306
 30
0.0
 10
128.914783208
 20
69.3185318401
 30
0.0
 10
128.9103059581
 20
69.3356759222
 30
0.0
 10
128.9103059581
 20
69.343566914
 30
0.0
  0
SPLINE
  5
44E
100
AcDbEntity
  8
0
100
AcDbSpline
 62
7
  6
CONTINUOUS
 70
0
 71
3
 72
9
 73
5
 74
0
 42
0.0000001
 43
0.0000001
 44
0.0000000001
 40
0.0
 40
0.0
 40
0.0
 40
0.0
 40
0.4384975121
 40
1.0
 40
1.0
 40
1.0
 40
1.0
 10
130.3423567657
 20
69.4254853976
 30
0.0
 10
130.328919149
 20
69.4254853976
 30
0.0
 10
130.2982893165
 20
69.4234858407
 30
0.0
 10
130.2678762527
 20
69.4196878876
 30
0.0
 10
130.2508466044
 20
69.4172233057
 30
0.0
  0
SPLINE
  5
44F
100
AcDbEntity
  8
0
100
AcDbSpline
 62
7
  6
CONTINUOUS
 70
0
 71
3
 72
9
 73
5
 74
0
 42
0.0000001
 43
0.0000001
 44
0.0000000001
 40
0.0
 40
0.0
 40
0.0
 40
0.0
 40
0.4947532691
 40
1.0
 40
1.0
 40
1.0
 40
1.0
 10
130.2508466044
 20
69.4172233057
 30
0.0
 10
130.1974863644
 20
69.4095008513
 30
0.0
 10
130.090526138
 20
69.3879344858
 30
0.0
 10
129.9850913167
 20
69.3600256266
 30
0.0
 10
129.9325491446
 20
69.343566914
 30
0.0
  0
SPLINE
  5
450
100
AcDbEntity
  8
0
100
AcDbSpline
 62
7
  6
CONTINUOUS
 70
0
 71
3
 72
12
 73
8
 74
0
 42
0.0000001
 43
0.0000001
 44
0.0000000001
 40
0.0
 40
0.0
 40
0.0
 40
0.0
 40
0.0846814842
 40
0.1894725046
 40
0.4452942743
 40
0.7295579544
 40
1.0
 40
1.0
 40
1.0
 40
1.0
 10
129.0016090369
 20
69.2659103203
 30
0.0
 10
129.0270478073
 20
69.2580392251
 30
0.0
 10
129.0857312435
 20
69.2462570449
 30
0.0
 10
129.225366381
 20
69.2341966966
 30
0.0
 10
129.4287336245
 20
69.241649949
 30
0.0
 10
129.6814133714
 20
69.2770009417
 30
0.0
 10
129.851395273
 20
69.3181456534
 30
0.0
 10
129.9325491446
 20
69.343566914
 30
0.0
  0
SPLINE
  5
451
100
AcDbEntity
  8
0
100
AcDbSpline
 62
7
  6
CONTINUOUS
 70
0
 71
3
 72
17
 73
13
 74
0
 42
0.0000001
 43
0.0000001
 44
0.0000000001
 40
0.0
 40
0.0
 40
0.0
 40
0.0
 40
0.1862416112
 40
0.365277842
 40
0.530030582
 40
0.6742096612
 40
0.7930778648
 40
0.8843054691
 40
0.91996355
 40
0.9499145633
 40
0.9757638693
 40
1.0
 40
1.0
 40
1.0
 40
1.0
 10
127.6288105005
 20
69.2659108981
 30
0.0
 10
127.6730725474
 20
69.2590632635
 30
0.0
 10
127.7602440714
 20
69.2478443093
 30
0.0
 10
127.8874247668
 20
69.2383607369
 30
0.0
 10
128.0048368622
 20
69.2367317472
 30
0.0
 10
128.107688616
 20
69.2429352549
 30
0.0
 10
128.1918837527
 20
69.2566089102
 30
0.0
 10
128.2487069339
 20
69.274763083
 30
0.0
 10
128.2813632825
 20
69.2939806493
 30
0.0
 10
128.2978342517
 20
69.3088749281
 30
0.0
 10
128.3080760719
 20
69.3255704503
 30
0.0
 10
128.3103059581
 20
69.3377384506
 30
0.0
 10
128.3103059581
 20
69.343566914
 30
0.0
  0
SPLINE
  5
452
100
AcDbEntity
  8
0
100
AcDbSpline
 62
7
  6
CONTINUOUS
 70
0
 71
3
 72
9
 73
5
 74
0
 42
0.0000001
 43
0.0000001
 44
0.0000000001
 40
0.0
 40
0.0
 40
0.0
 40
0.0
 40
0.5052132037
 40
1.0
 40
1.0
 40
1.0
 40
1.0
 10
127.2880627717
 20
69.343566914
 30
0.0
 10
127.2355291792
 20
69.360022939
 30
0.0
 10
127.1301045585
 20
69.3879288571
 30
0.0
 10
127.0231551969
 20
69.4094954035
 30
0.0
 10
126.9697966791
 20
69.4172187741
 30
0.0
  0
SPLINE
  5
453
100
AcDbEntity
  8
0
100
AcDbSpline
 62
7
  6
CONTINUOUS
 70
0
 71
3
 72
9
 73
5
 74
0
 42
0.0000001
 43
0.0000001
 44
0.0000000001
 40
0.0
 40
0.0
 40
0.0
 40
0.0
 40
0.260274333
 40
1.0
 40
1.0
 40
1.0
 40
1.0
 10
126.9697966791
 20
69.4172187741
 30
0.0
 10
126.966902456
 20
69.417637698
 30
0.0
 10
126.9557771417
 20
69.419209225
 30
0.0
 10
126.9446294766
 20
69.4206252728
 30
0.0
 10
126.9363708401
 20
69.4215602488
 30
0.0
  0
SPLINE
  5
454
100
AcDbEntity
  8
0
100
AcDbSpline
 62
7
  6
CONTINUOUS
 70
0
 71
3
 72
9
 73
5
 74
0
 42
0.0000001
 43
0.0000001
 44
0.0000000001
 40
0.0
 40
0.0
 40
0.0
 40
0.0
 40
0.2858181778
 40
1.0
 40
1.0
 40
1.0
 40
1.0
 10
126.9363708401
 20
69.4215602488
 30
0.0
 10
126.9308552357
 20
69.4221846809
 30
0.0
 10
126.9115407933
 20
69.4241780071
 30
0.0
 10
126.8921251848
 20
69.4254854095
 30
0.0
 10
126.8782551506
 20
69.4254854095
 30
0.0
  0
SPLINE
  5
455
100
AcDbEntity
  8
0
100
AcDbSpline
 62
7
  6
CONTINUOUS
 70
0
 71
3
 72
9
 73
5
 74
0
 42
0.0000001
 43
0.0000001
 44
0.0000000001
 40
0.0
 40
0.0
 40
0.0
 40
0.0
 40
0.2604677474
 40
1.0
 40
1.0
 40
1.0
 40
1.0
 10
127.6288105005
 20
69.2659108994
 30
0.0
 10
127.5988091844
 20
69.2705523036
 30
0.0
 10
127.4839646493
 20
69.2904060256
 30
0.0
 10
127.370316156
 20
69.3178012336
 30
0.0
 10
127.2880627717
 20
69.343566914
 30
0.0
  0
SPLINE
  5
456
100
AcDbEntity
  8
0
100
AcDbSpline
 62
7
  6
CONTINUOUS
 70
0
 71
3
 72
13
 73
9
 74
0
 42
0.0000001
 43
0.0000001
 44
0.0000000001
 40
0.0
 40
0.0
 40
0.0
 40
0.0
 40
0.3613706177
 40
0.5245106933
 40
0.6682095874
 40
0.7883590459
 40
0.8827570912
 40
1.0
 40
1.0
 40
1.0
 40
1.0
 10
128.6103059581
 20
69.4254853115
 30
0.0
 10
128.5713769949
 20
69.4254853115
 30
0.0
 10
128.5147988738
 20
69.422619077
 30
0.0
 10
128.4434796902
 20
69.4121724517
 30
0.0
 10
128.3986408079
 20
69.4022959134
 30
0.0
 10
128.361549757
 20
69.3899318878
 30
0.0
 10
128.3303019226
 20
69.3752267901
 30
0.0
 10
128.3103059581
 20
69.356197008
 30
0.0
 10
128.3103059581
 20
69.343566914
 30
0.0
  0
SPLINE
  5
457
100
AcDbEntity
  8
0
100
AcDbSpline
 62
7
  6
CONTINUOUS
 70
0
 71
3
 72
13
 73
9
 74
0
 42
0.0000001
 43
0.0000001
 44
0.0000000001
 40
0.0
 40
0.0
 40
0.0
 40
0.0
 40
0.1172325944
 40
0.211629782
 40
0.3317826183
 40
0.4754892625
 40
0.6386378198
 40
1.0
 40
1.0
 40
1.0
 40
1.0
 10
128.9103059581
 20
69.343566914
 30
0.0
 10
128.9103059581
 20
69.3561958964
 30
0.0
 10
128.8903119885
 20
69.3752251566
 30
0.0
 10
128.8590648937
 20
69.389930163
 30
0.0
 10
128.8219731694
 20
69.402295613
 30
0.0
 10
128.7771321529
 20
69.4121724946
 30
0.0
 10
128.7058121277
 20
69.4226190132
 30
0.0
 10
128.649234011
 20
69.4254853115
 30
0.0
 10
128.6103059581
 20
69.4254853115
 30
0.0
  0
SPLINE
  5
458
100
AcDbEntity
  8
0
100
AcDbSpline
 62
7
  6
CONTINUOUS
 70
0
 71
3
 72
10
 73
6
 74
0
 42
0.0000001
 43
0.0000001
 44
0.0000000001
 40
0.0
 40
0.0
 40
0.0
 40
0.0
 40
0.1334729267
 40
0.3386532333
 40
1.0
 40
1.0
 40
1.0
 40
1.0
 10
126.8380634423
 20
69.4144462876
 30
0.0
 10
126.8380651861
 20
69.4125152613
 30
0.0
 10
126.840526038
 20
69.4078475197
 30
0.0
 10
126.8513122185
 20
69.398280664
 30
0.0
 10
126.8625022677
 20
69.3922027196
 30
0.0
 10
126.8710481404
 20
69.3878996912
 30
0.0
  0
SPLINE
  5
459
100
AcDbEntity
  8
0
100
AcDbSpline
 62
7
  6
CONTINUOUS
 70
0
 71
3
 72
9
 73
5
 74
0
 42
0.0000001
 43
0.0000001
 44
0.0000000001
 40
0.0
 40
0.0
 40
0.0
 40
0.0
 40
0.4392455595
 40
1.0
 40
1.0
 40
1.0
 40
1.0
 10
126.8710481404
 20
69.3878996912
 30
0.0
 10
126.8836530021
 20
69.3815528757
 30
0.0
 10
126.9132750456
 20
69.3689759797
 30
0.0
 10
126.9435382679
 20
69.3581719329
 30
0.0
 10
126.9606219199
 20
69.3524496433
 30
0.0
  0
SPLINE
  5
45A
100
AcDbEntity
  8
0
100
AcDbSpline
 62
7
  6
CONTINUOUS
 70
0
 71
3
 72
9
 73
5
 74
0
 42
0.0000001
 43
0.0000001
 44
0.0000000001
 40
0.0
 40
0.0
 40
0.0
 40
0.0
 40
0.563256365
 40
1.0
 40
1.0
 40
1.0
 40
1.0
 10
130.2483803841
 20
69.3486185821
 30
0.0
 10
130.2676809711
 20
69.3548945813
 30
0.0
 10
130.3017151495
 20
69.3667382881
 30
0.0
 10
130.3350386155
 20
69.3806171891
 30
0.0
 10
130.3491066276
 20
69.3876697311
 30
0.0
  0
SPLINE
  5
45B
100
AcDbEntity
  8
0
100
AcDbSpline
 62
7
  6
CONTINUOUS
 70
0
 71
3
 72
10
 73
6
 74
0
 42
0.0000001
 43
0.0000001
 44
0.0000000001
 40
0.0
 40
0.0
 40
0.0
 40
0.0
 40
0.6618445847
 40
0.8669420785
 40
1.0
 40
1.0
 40
1.0
 40
1.0
 10
130.3491066276
 20
69.3876697311
 30
0.0
 10
130.3577670147
 20
69.3920113356
 30
0.0
 10
130.3691057321
 20
69.3981432095
 30
0.0
 10
130.3800432835
 20
69.4077883298
 30
0.0
 10
130.3825466214
 20
69.412498705
 30
0.0
 10
130.3825484304
 20
69.4144463325
 30
0.0
  0
SPLINE
  5
45C
100
AcDbEntity
  8
0
100
AcDbSpline
 62
7
  6
CONTINUOUS
 70
0
 71
3
 72
11
 73
7
 74
0
 42
0.0000001
 43
0.0000001
 44
0.0000000001
 40
0.0
 40
0.0
 40
0.0
 40
0.0
 40
0.3348297128
 40
0.6018438962
 40
0.8141260944
 40
1.0
 40
1.0
 40
1.0
 40
1.0
 10
345.0016090369
 20
69.265910321
 30
0.0
 10
344.9880295278
 20
69.2701120024
 30
0.0
 10
344.9639733046
 20
69.2790524461
 30
0.0
 10
344.9341206282
 20
69.2970058306
 30
0.0
 10
344.914783208
 20
69.3185318401
 30
0.0
 10
344.9103059581
 20
69.3356759222
 30
0.0
 10
344.9103059581
 20
69.343566914
 30
0.0
  0
SPLINE
  5
45D
100
AcDbEntity
  8
0
100
AcDbSpline
 62
7
  6
CONTINUOUS
 70
0
 71
3
 72
9
 73
5
 74
0
 42
0.0000001
 43
0.0000001
 44
0.0000000001
 40
0.0
 40
0.0
 40
0.0
 40
0.0
 40
0.2126160204
 40
1.0
 40
1.0
 40
1.0
 40
1.0
 10
346.3423567657
 20
69.4254853976
 30
0.0
 10
346.3382289229
 20
69.4254853976
 30
0.0
 10
346.3188146659
 20
69.425041435
 30
0.0
 10
346.2994527743
 20
69.4232820251
 30
0.0
 10
346.2842630604
 20
69.4215627861
 30
0.0
  0
SPLINE
  5
45E
100
AcDbEntity
  8
0
100
AcDbSpline
 62
7
  6
CONTINUOUS
 70
0
 71
3
 72
9
 73
5
 74
0
 42
0.0000001
 43
0.0000001
 44
0.0000000001
 40
0.0
 40
0.0
 40
0.0
 40
0.0
 40
0.4947532691
 40
1.0
 40
1.0
 40
1.0
 40
1.0
 10
346.2508466044
 20
69.4172233057
 30
0.0
 10
346.1974863644
 20
69.4095008513
 30
0.0
 10
346.090526138
 20
69.3879344858
 30
0.0
 10
345.9850913167
 20
69.3600256266
 30
0.0
 10
345.9325491446
 20
69.343566914
 30
0.0
  0
SPLINE
  5
45F
100
AcDbEntity
  8
0
100
AcDbSpline
 62
7
  6
CONTINUOUS
 70
0
 71
3
 72
12
 73
8
 74
0
 42
0.0000001
 43
0.0000001
 44
0.0000000001
 40
0.0
 40
0.0
 40
0.0
 40
0.0
 40
0.0846814842
 40
0.1894725046
 40
0.4452942743
 40
0.7295579544
 40
1.0
 40
1.0
 40
1.0
 40
1.0
 10
345.0016090369
 20
69.2659103203
 30
0.0
 10
345.0270478073
 20
69.2580392251
 30
0.0
 10
345.0857312435
 20
69.2462570449
 30
0.0
 10
345.225366381
 20
69.2341966966
 30
0.0
 10
345.4287336245
 20
69.241649949
 30
0.0
 10
345.6814133714
 20
69.2770009417
 30
0.0
 10
345.851395273
 20
69.3181456534
 30
0.0
 10
345.9325491446
 20
69.343566914
 30
0.0
  0
SPLINE
  5
460
100
AcDbEntity
  8
0
100
AcDbSpline
 62
7
  6
CONTINUOUS
 70
0
 71
3
 72
17
 73
13
 74
0
 42
0.0000001
 43
0.0000001
 44
0.0000000001
 40
0.0
 40
0.0
 40
0.0
 40
0.0
 40
0.1862416112
 40
0.365277842
 40
0.530030582
 40
0.6742096612
 40
0.7930778648
 40
0.8843054691
 40
0.91996355
 40
0.9499145633
 40
0.9757638693
 40
1.0
 40
1.0
 40
1.0
 40
1.0
 10
343.6288105005
 20
69.2659108981
 30
0.0
 10
343.6730725474
 20
69.2590632635
 30
0.0
 10
343.7602440714
 20
69.2478443093
 30
0.0
 10
343.8874247668
 20
69.2383607369
 30
0.0
 10
344.0048368622
 20
69.2367317472
 30
0.0
 10
344.107688616
 20
69.2429352549
 30
0.0
 10
344.1918837527
 20
69.2566089102
 30
0.0
 10
344.2487069339
 20
69.274763083
 30
0.0
 10
344.2813632825
 20
69.2939806493
 30
0.0
 10
344.2978342517
 20
69.3088749281
 30
0.0
 10
344.3080760719
 20
69.3255704503
 30
0.0
 10
344.3103059581
 20
69.3377384506
 30
0.0
 10
344.3103059581
 20
69.343566914
 30
0.0
  0
SPLINE
  5
461
100
AcDbEntity
  8
0
100
AcDbSpline
 62
7
  6
CONTINUOUS
 70
0
 71
3
 72
9
 73
5
 74
0
 42
0.0000001
 43
0.0000001
 44
0.0000000001
 40
0.0
 40
0.0
 40
0.0
 40
0.0
 40
0.5052132037
 40
1.0
 40
1.0
 40
1.0
 40
1.0
 10
343.2880627717
 20
69.343566914
 30
0.0
 10
343.2355291792
 20
69.360022939
 30
0.0
 10
343.1301045585
 20
69.3879288571
 30
0.0
 10
343.0231551969
 20
69.4094954035
 30
0.0
 10
342.9697966791
 20
69.4172187741
 30
0.0
  0
SPLINE
  5
462
100
AcDbEntity
  8
0
100
AcDbSpline
 62
7
  6
CONTINUOUS
 70
0
 71
3
 72
9
 73
5
 74
0
 42
0.0000001
 43
0.0000001
 44
0.0000000001
 40
0.0
 40
0.0
 40
0.0
 40
0.0
 40
0.5615257471
 40
1.0
 40
1.0
 40
1.0
 40
1.0
 10
342.9697966791
 20
69.4172187741
 30
0.0
 10
342.9527605086
 20
69.419684672
 30
0.0
 10
342.9223370724
 20
69.4234848064
 30
0.0
 10
342.8916966856
 20
69.4254854095
 30
0.0
 10
342.8782551506
 20
69.4254854095
 30
0.0
  0
SPLINE
  5
463
100
AcDbEntity
  8
0
100
AcDbSpline
 62
7
  6
CONTINUOUS
 70
0
 71
3
 72
9
 73
5
 74
0
 42
0.0000001
 43
0.0000001
 44
0.0000000001
 40
0.0
 40
0.0
 40
0.0
 40
0.0
 40
0.2604677474
 40
1.0
 40
1.0
 40
1.0
 40
1.0
 10
343.6288105005
 20
69.2659108994
 30
0.0
 10
343.5988091844
 20
69.2705523036
 30
0.0
 10
343.4839646493
 20
69.2904060256
 30
0.0
 10
343.370316156
 20
69.3178012336
 30
0.0
 10
343.2880627717
 20
69.343566914
 30
0.0
  0
SPLINE
  5
464
100
AcDbEntity
  8
0
100
AcDbSpline
 62
7
  6
CONTINUOUS
 70
0
 71
3
 72
13
 73
9
 74
0
 42
0.0000001
 43
0.0000001
 44
0.0000000001
 40
0.0
 40
0.0
 40
0.0
 40
0.0
 40
0.3613706177
 40
0.5245106933
 40
0.6682095874
 40
0.7883590459
 40
0.8827570912
 40
1.0
 40
1.0
 40
1.0
 40
1.0
 10
344.6103059581
 20
69.4254853115
 30
0.0
 10
344.5713769949
 20
69.4254853115
 30
0.0
 10
344.5147988738
 20
69.422619077
 30
0.0
 10
344.4434796902
 20
69.4121724517
 30
0.0
 10
344.3986408079
 20
69.4022959134
 30
0.0
 10
344.361549757
 20
69.3899318878
 30
0.0
 10
344.3303019226
 20
69.3752267901
 30
0.0
 10
344.3103059581
 20
69.356197008
 30
0.0
 10
344.3103059581
 20
69.343566914
 30
0.0
  0
SPLINE
  5
465
100
AcDbEntity
  8
0
100
AcDbSpline
 62
7
  6
CONTINUOUS
 70
0
 71
3
 72
13
 73
9
 74
0
 42
0.0000001
 43
0.0000001
 44
0.0000000001
 40
0.0
 40
0.0
 40
0.0
 40
0.0
 40
0.1172325944
 40
0.211629782
 40
0.3317826183
 40
0.4754892625
 40
0.6386378198
 40
1.0
 40
1.0
 40
1.0
 40
1.0
 10
344.9103059581
 20
69.343566914
 30
0.0
 10
344.9103059581
 20
69.3561958964
 30
0.0
 10
344.8903119885
 20
69.3752251566
 30
0.0
 10
344.8590648937
 20
69.389930163
 30
0.0
 10
344.8219731694
 20
69.402295613
 30
0.0
 10
344.7771321529
 20
69.4121724946
 30
0.0
 10
344.7058121277
 20
69.4226190132
 30
0.0
 10
344.649234011
 20
69.4254853115
 30
0.0
 10
344.6103059581
 20
69.4254853115
 30
0.0
  0
SPLINE
  5
466
100
AcDbEntity
  8
0
100
AcDbSpline
 62
7
  6
CONTINUOUS
 70
0
 71
3
 72
10
 73
6
 74
0
 42
0.0000001
 43
0.0000001
 44
0.0000000001
 40
0.0
 40
0.0
 40
0.0
 40
0.0
 40
0.1334729267
 40
0.3386532333
 40
1.0
 40
1.0
 40
1.0
 40
1.0
 10
342.8380634423
 20
69.4144462876
 30
0.0
 10
342.8380651861
 20
69.4125152613
 30
0.0
 10
342.840526038
 20
69.4078475197
 30
0.0
 10
342.8513122185
 20
69.398280664
 30
0.0
 10
342.8625022677
 20
69.3922027196
 30
0.0
 10
342.8710481404
 20
69.3878996912
 30
0.0
  0
SPLINE
  5
467
100
AcDbEntity
  8
0
100
AcDbSpline
 62
7
  6
CONTINUOUS
 70
0
 71
3
 72
9
 73
5
 74
0
 42
0.0000001
 43
0.0000001
 44
0.0000000001
 40
0.0
 40
0.0
 40
0.0
 40
0.0
 40
0.4361085343
 40
1.0
 40
1.0
 40
1.0
 40
1.0
 10
342.8710481404
 20
69.3878996912
 30
0.0
 10
342.8851496352
 20
69.3807992891
 30
0.0
 10
342.9186244912
 20
69.3668350731
 30
0.0
 10
342.9528178342
 20
69.3549313618
 30
0.0
 10
342.9722315322
 20
69.3486185821
 30
0.0
  0
SPLINE
  5
468
100
AcDbEntity
  8
0
100
AcDbSpline
 62
7
  6
CONTINUOUS
 70
0
 71
3
 72
9
 73
5
 74
0
 42
0.0000001
 43
0.0000001
 44
0.0000000001
 40
0.0
 40
0.0
 40
0.0
 40
0.0
 40
0.5601127974
 40
1.0
 40
1.0
 40
1.0
 40
1.0
 10
346.259970719
 20
69.3524431876
 30
0.0
 10
346.276948016
 20
69.3581295679
 30
0.0
 10
346.3070587719
 20
69.3688745619
 30
0.0
 10
346.3365365252
 20
69.3813681176
 30
0.0
 10
346.3491066276
 20
69.3876697311
 30
0.0
  0
SPLINE
  5
469
100
AcDbEntity
  8
0
100
AcDbSpline
 62
7
  6
CONTINUOUS
 70
0
 71
3
 72
10
 73
6
 74
0
 42
0.0000001
 43
0.0000001
 44
0.0000000001
 40
0.0
 40
0.0
 40
0.0
 40
0.0
 40
0.6618445847
 40
0.8669420785
 40
1.0
 40
1.0
 40
1.0
 40
1.0
 10
346.3491066276
 20
69.3876697311
 30
0.0
 10
346.3577670147
 20
69.3920113356
 30
0.0
 10
346.3691057321
 20
69.3981432095
 30
0.0
 10
346.3800432835
 20
69.4077883298
 30
0.0
 10
346.3825466214
 20
69.412498705
 30
0.0
 10
346.3825484304
 20
69.4144463325
 30
0.0
  0
SPLINE
  5
46A
100
AcDbEntity
  8
0
100
AcDbSpline
 62
7
  6
CONTINUOUS
 70
0
 71
3
 72
9
 73
5
 74
0
 42
0.0000001
 43
0.0000001
 44
0.0000000001
 40
0.0
 40
0.0
 40
0.0
 40
0.0
 40
0.5991282218
 40
1.0
 40
1.0
 40
1.0
 40
1.0
 10
119.4103059581
 20
576.9101449275
 30
0.0
 10
119.363797015
 20
576.9832010051
 30
0.0
 10
119.2944735323
 20
577.1031540877
 30
0.0
 10
119.1682520592
 20
577.2101449275
 30
0.0
 10
119.1103059581
 20
577.2101449275
 30
0.0
  0
SPLINE
  5
46B
100
AcDbEntity
  8
0
100
AcDbSpline
 62
7
  6
CONTINUOUS
 70
0
 71
3
 72
9
 73
5
 74
0
 42
0.0000001
 43
0.0000001
 44
0.0000000001
 40
0.0
 40
0.0
 40
0.0
 40
0.0
 40
0.4008718038
 40
1.0
 40
1.0
 40
1.0
 40
1.0
 10
354.1103059581
 20
577.2101449275
 30
0.0
 10
354.0523598535
 20
577.2101449275
 30
0.0
 10
353.9261383857
 20
577.1031540791
 30
0.0
 10
353.8568148992
 20
576.9832010018
 30
0.0
 10
353.8103059581
 20
576.9101449275
 30
0.0
  0
SPLINE
  5
46C
100
AcDbEntity
  8
0
100
AcDbSpline
 62
7
  6
CONTINUOUS
 70
0
 71
3
 72
9
 73
5
 74
0
 42
0.0000001
 43
0.0000001
 44
0.0000000001
 40
0.0
 40
0.0
 40
0.0
 40
0.0
 40
0.4008718038
 40
1.0
 40
1.0
 40
1.0
 40
1.0
 10
354.1103059581
 20
74.7101449275
 30
0.0
 10
354.1103059581
 20
74.7680910321
 30
0.0
 10
354.0033151097
 20
74.8943125
 30
0.0
 10
353.8833620323
 20
74.9636359865
 30
0.0
 10
353.8103059581
 20
75.0101449275
 30
0.0
  0
SPLINE
  5
46D
100
AcDbEntity
  8
0
100
AcDbSpline
 62
7
  6
CONTINUOUS
 70
0
 71
3
 72
9
 73
5
 74
0
 42
0.0000001
 43
0.0000001
 44
0.0000000001
 40
0.0
 40
0.0
 40
0.0
 40
0.0
 40
0.5991282218
 40
1.0
 40
1.0
 40
1.0
 40
1.0
 10
353.8103059581
 20
576.9101449275
 30
0.0
 10
353.8833620357
 20
576.9566538707
 30
0.0
 10
354.0033151183
 20
577.0259773534
 30
0.0
 10
354.1103059581
 20
577.1521988265
 30
0.0
 10
354.1103059581
 20
577.2101449275
 30
0.0
  0
SPLINE
  5
46E
100
AcDbEntity
  8
0
100
AcDbSpline
 62
7
  6
CONTINUOUS
 70
0
 71
3
 72
9
 73
5
 74
0
 42
0.0000001
 43
0.0000001
 44
0.0000000001
 40
0.0
 40
0.0
 40
0.0
 40
0.0
 40
0.4008718038
 40
1.0
 40
1.0
 40
1.0
 40
1.0
 10
119.1103059581
 20
74.7101449275
 30
0.0
 10
119.1682520627
 20
74.7101449275
 30
0.0
 10
119.2944735306
 20
74.817135776
 30
0.0
 10
119.3637970171
 20
74.9370888533
 30
0.0
 10
119.4103059581
 20
75.0101449275
 30
0.0
  0
SPLINE
  5
46F
100
AcDbEntity
  8
0
100
AcDbSpline
 62
7
  6
CONTINUOUS
 70
0
 71
3
 72
9
 73
5
 74
0
 42
0.0000001
 43
0.0000001
 44
0.0000000001
 40
0.0
 40
0.0
 40
0.0
 40
0.0
 40
0.5991282218
 40
1.0
 40
1.0
 40
1.0
 40
1.0
 10
353.8103059581
 20
75.0101449275
 30
0.0
 10
353.8568149013
 20
74.93708885
 30
0.0
 10
353.926138384
 20
74.8171357674
 30
0.0
 10
354.052359857
 20
74.7101449275
 30
0.0
 10
354.1103059581
 20
74.7101449275
 30
0.0
  0
SPLINE
  5
470
100
AcDbEntity
  8
0
100
AcDbSpline
 62
7
  6
CONTINUOUS
 70
0
 71
3
 72
9
 73
5
 74
0
 42
0.0000001
 43
0.0000001
 44
0.0000000001
 40
0.0
 40
0.0
 40
0.0
 40
0.0
 40
0.5991282218
 40
1.0
 40
1.0
 40
1.0
 40
1.0
 10
119.4103059581
 20
75.0101449275
 30
0.0
 10
119.3372498805
 20
74.9636359844
 30
0.0
 10
119.217296798
 20
74.8943125017
 30
0.0
 10
119.1103059581
 20
74.7680910286
 30
0.0
 10
119.1103059581
 20
74.7101449275
 30
0.0
  0
SPLINE
  5
471
100
AcDbEntity
  8
0
100
AcDbSpline
 62
7
  6
CONTINUOUS
 70
0
 71
3
 72
9
 73
5
 74
0
 42
0.0000001
 43
0.0000001
 44
0.0000000001
 40
0.0
 40
0.0
 40
0.0
 40
0.0
 40
0.4008718038
 40
1.0
 40
1.0
 40
1.0
 40
1.0
 10
119.1103059581
 20
577.2101449275
 30
0.0
 10
119.1103059581
 20
577.152198823
 30
0.0
 10
119.2172968066
 20
577.0259773551
 30
0.0
 10
119.3372498839
 20
576.9566538686
 30
0.0
 10
119.4103059581
 20
576.9101449275
 30
0.0
  0
SPLINE
  5
472
100
AcDbEntity
  8
0
100
AcDbSpline
 62
7
  6
CONTINUOUS
 70
0
 71
3
 72
11
 73
7
 74
0
 42
0.0000001
 43
0.0000001
 44
0.0000000001
 40
0.0
 40
0.0
 40
0.0
 40
0.0
 40
0.3507063881
 40
0.6494323818
 40
0.871633393
 40
1.0
 40
1.0
 40
1.0
 40
1.0
 10
119.0590424821
 20
576.9476570677
 30
0.0
 10
118.8919592856
 20
576.9657326798
 30
0.0
 10
118.5829651614
 20
577.0004043071
 30
0.0
 10
118.1674784605
 20
577.0523236451
 30
0.0
 10
117.8631295205
 20
577.1063034329
 30
0.0
 10
117.6958899063
 20
577.1438807845
 30
0.0
 10
117.6423594275
 20
577.1741851207
 30
0.0
  0
SPLINE
  5
473
100
AcDbEntity
  8
0
100
AcDbSpline
 62
7
  6
CONTINUOUS
 70
0
 71
3
 72
8
 73
4
 74
0
 42
0.0000001
 43
0.0000001
 44
0.0000000001
 40
0.0
 40
0.0
 40
0.0
 40
0.0
 40
1.0
 40
1.0
 40
1.0
 40
1.0
 10
117.6423594275
 20
577.1741851207
 30
0.0
 10
117.628385905
 20
577.1820957229
 30
0.0
 10
117.6103059581
 20
577.1940876253
 30
0.0
 10
117.6103059581
 20
577.2101449275
 30
0.0
  0
SPLINE
  5
474
100
AcDbEntity
  8
0
100
AcDbSpline
 62
7
  6
CONTINUOUS
 70
0
 71
3
 72
8
 73
4
 74
0
 42
0.0000001
 43
0.0000001
 44
0.0000000001
 40
0.0
 40
0.0
 40
0.0
 40
0.0
 40
1.0
 40
1.0
 40
1.0
 40
1.0
 10
117.6103059581
 20
74.7101449275
 30
0.0
 10
117.6103059581
 20
74.7262022138
 30
0.0
 10
117.6283858746
 20
74.7381941131
 30
0.0
 10
117.6423593806
 20
74.7461047117
 30
0.0
  0
SPLINE
  5
475
100
AcDbEntity
  8
0
100
AcDbSpline
 62
7
  6
CONTINUOUS
 70
0
 71
3
 72
11
 73
7
 74
0
 42
0.0000001
 43
0.0000001
 44
0.0000000001
 40
0.0
 40
0.0
 40
0.0
 40
0.0
 40
0.1283665777
 40
0.3505675912
 40
0.6492936176
 40
1.0
 40
1.0
 40
1.0
 40
1.0
 10
117.6423593806
 20
74.7461047117
 30
0.0
 10
117.6958898403
 20
74.7764090589
 30
0.0
 10
117.8631294586
 20
74.8139864015
 30
0.0
 10
118.1674784069
 20
74.8679662072
 30
0.0
 10
118.5829651439
 20
74.919885544
 30
0.0
 10
118.8919592938
 20
74.9545571765
 30
0.0
 10
119.0590424953
 20
74.972632789
 30
0.0
  0
SPLINE
  5
476
100
AcDbEntity
  8
0
100
AcDbSpline
 62
7
  6
CONTINUOUS
 70
0
 71
3
 72
12
 73
8
 74
0
 42
0.0000001
 43
0.0000001
 44
0.0000000001
 40
0.0
 40
0.0
 40
0.0
 40
0.0
 40
0.3892579518
 40
0.7055606294
 40
0.9143242937
 40
0.971634475
 40
1.0
 40
1.0
 40
1.0
 40
1.0
 10
119.372793818
 20
74.6588814516
 30
0.0
 10
119.3520520289
 20
74.4671532595
 30
0.0
 10
119.3129505525
 20
74.1186572118
 30
0.0
 10
119.2545360034
 20
73.6732690349
 30
0.0
 10
119.1985689979
 20
73.3825011722
 30
0.0
 10
119.1556679611
 20
73.2506449025
 30
0.0
 10
119.1243588584
 20
73.2101449275
 30
0.0
 10
119.1103059581
 20
73.2101449275
 30
0.0
  0
SPLINE
  5
477
100
AcDbEntity
  8
0
100
AcDbSpline
 62
7
  6
CONTINUOUS
 70
0
 71
3
 72
12
 73
8
 74
0
 42
0.0000001
 43
0.0000001
 44
0.0000000001
 40
0.0
 40
0.0
 40
0.0
 40
0.0
 40
0.0283655205
 40
0.0856756953
 40
0.2944393652
 40
0.6107420698
 40
1.0
 40
1.0
 40
1.0
 40
1.0
 10
354.1103059581
 20
73.2101449275
 30
0.0
 10
354.09625306
 20
73.2101449275
 30
0.0
 10
354.0649439544
 20
73.2506448894
 30
0.0
 10
354.0220429226
 20
73.3825011662
 30
0.0
 10
353.966075911
 20
73.6732690379
 30
0.0
 10
353.9076613626
 20
74.1186572285
 30
0.0
 10
353.8685598847
 20
74.4671532813
 30
0.0
 10
353.8478180967
 20
74.6588814647
 30
0.0
  0
SPLINE
  5
478
100
AcDbEntity
  8
0
100
AcDbSpline
 62
7
  6
CONTINUOUS
 70
0
 71
3
 72
12
 73
8
 74
0
 42
0.0000001
 43
0.0000001
 44
0.0000000001
 40
0.0
 40
0.0
 40
0.0
 40
0.0
 40
0.3892579518
 40
0.7055606294
 40
0.9143242937
 40
0.971634475
 40
1.0
 40
1.0
 40
1.0
 40
1.0
 10
353.8478180983
 20
577.2614084035
 30
0.0
 10
353.8685598874
 20
577.4531365956
 30
0.0
 10
353.9076613637
 20
577.8016326432
 30
0.0
 10
353.9660759129
 20
578.2470208202
 30
0.0
 10
354.0220429183
 20
578.5377886829
 30
0.0
 10
354.0649439552
 20
578.6696449526
 30
0.0
 10
354.0962530579
 20
578.7101449275
 30
0.0
 10
354.1103059581
 20
578.7101449275
 30
0.0
  0
SPLINE
  5
479
100
AcDbEntity
  8
0
100
AcDbSpline
 62
7
  6
CONTINUOUS
 70
0
 71
3
 72
12
 73
8
 74
0
 42
0.0000001
 43
0.0000001
 44
0.0000000001
 40
0.0
 40
0.0
 40
0.0
 40
0.0
 40
0.0283655205
 40
0.0856756953
 40
0.2944393652
 40
0.6107420698
 40
1.0
 40
1.0
 40
1.0
 40
1.0
 10
119.1103059581
 20
578.7101449275
 30
0.0
 10
119.1243588563
 20
578.7101449275
 30
0.0
 10
119.1556679618
 20
578.6696449657
 30
0.0
 10
119.1985689937
 20
578.5377886888
 30
0.0
 10
119.2545360053
 20
578.2470208171
 30
0.0
 10
119.3129505536
 20
577.8016326265
 30
0.0
 10
119.3520520316
 20
577.4531365738
 30
0.0
 10
119.3727938196
 20
577.2614083904
 30
0.0
  0
SPLINE
  5
47A
100
AcDbEntity
  8
0
100
AcDbSpline
 62
7
  6
CONTINUOUS
 70
0
 71
3
 72
11
 73
7
 74
0
 42
0.0000001
 43
0.0000001
 44
0.0000000001
 40
0.0
 40
0.0
 40
0.0
 40
0.0
 40
0.3507063881
 40
0.6494323818
 40
0.871633393
 40
1.0
 40
1.0
 40
1.0
 40
1.0
 10
354.1615694341
 20
74.9726327874
 30
0.0
 10
354.3286526307
 20
74.9545571753
 30
0.0
 10
354.6376467549
 20
74.919885548
 30
0.0
 10
355.0531334558
 20
74.86796621
 30
0.0
 10
355.3574823958
 20
74.8139864222
 30
0.0
 10
355.52472201
 20
74.7764090706
 30
0.0
 10
355.5782524888
 20
74.7461047343
 30
0.0
  0
SPLINE
  5
47B
100
AcDbEntity
  8
0
100
AcDbSpline
 62
7
  6
CONTINUOUS
 70
0
 71
3
 72
8
 73
4
 74
0
 42
0.0000001
 43
0.0000001
 44
0.0000000001
 40
0.0
 40
0.0
 40
0.0
 40
0.0
 40
1.0
 40
1.0
 40
1.0
 40
1.0
 10
355.5782524888
 20
74.7461047343
 30
0.0
 10
355.5922260112
 20
74.7381941322
 30
0.0
 10
355.6103059581
 20
74.7262022298
 30
0.0
 10
355.6103059581
 20
74.7101449275
 30
0.0
  0
SPLINE
  5
47C
100
AcDbEntity
  8
0
100
AcDbSpline
 62
7
  6
CONTINUOUS
 70
0
 71
3
 72
8
 73
4
 74
0
 42
0.0000001
 43
0.0000001
 44
0.0000000001
 40
0.0
 40
0.0
 40
0.0
 40
0.0
 40
1.0
 40
1.0
 40
1.0
 40
1.0
 10
355.6103059581
 20
577.2101449275
 30
0.0
 10
355.6103059581
 20
577.1940876413
 30
0.0
 10
355.5922260417
 20
577.182095742
 30
0.0
 10
355.5782525356
 20
577.1741851434
 30
0.0
  0
SPLINE
  5
47D
100
AcDbEntity
  8
0
100
AcDbSpline
 62
7
  6
CONTINUOUS
 70
0
 71
3
 72
11
 73
7
 74
0
 42
0.0000001
 43
0.0000001
 44
0.0000000001
 40
0.0
 40
0.0
 40
0.0
 40
0.0
 40
0.1283665777
 40
0.3505675912
 40
0.6492936176
 40
1.0
 40
1.0
 40
1.0
 40
1.0
 10
355.5782525356
 20
577.1741851434
 30
0.0
 10
355.5247220759
 20
577.1438807962
 30
0.0
 10
355.3574824577
 20
577.1063034536
 30
0.0
 10
355.0531335094
 20
577.0523236478
 30
0.0
 10
354.6376467724
 20
577.0004043111
 30
0.0
 10
354.3286526224
 20
576.9657326786
 30
0.0
 10
354.161569421
 20
576.9476570661
 30
0.0
  0
SPLINE
  5
47E
100
AcDbEntity
  8
0
100
AcDbSpline
 62
7
  6
CONTINUOUS
 70
0
 71
3
 72
15
 73
11
 74
0
 42
0.0000001
 43
0.0000001
 44
0.0000000001
 40
0.0
 40
0.0
 40
0.0
 40
0.0
 40
0.1250401496
 40
0.2500345084
 40
0.3750298084
 40
0.5000233733
 40
0.6250175742
 40
0.7500119824
 40
0.8750051062
 40
1.0
 40
1.0
 40
1.0
 40
1.0
 10
255.6103059581
 20
288.6679991136
 30
0.0
 10
255.8759766825
 20
288.6708669898
 30
0.0
 10
256.4130517979
 20
288.773189569
 30
0.0
 10
257.091916574
 20
289.2290225554
 30
0.0
 10
257.5462411116
 20
289.908420929
 30
0.0
 10
257.7055845807
 20
290.7103364971
 30
0.0
 10
257.5461281774
 20
291.5120969292
 30
0.0
 10
257.0916385108
 20
292.1918071049
 30
0.0
 10
256.4128874237
 20
292.6459741839
 30
0.0
 10
255.8758960013
 20
292.7522907415
 30
0.0
 10
255.6103059581
 20
292.7522907415
 30
0.0
  0
SPLINE
  5
47F
100
AcDbEntity
  8
0
100
AcDbSpline
 62
7
  6
CONTINUOUS
 70
0
 71
3
 72
15
 73
11
 74
0
 42
0.0000001
 43
0.0000001
 44
0.0000000001
 40
0.0
 40
0.0
 40
0.0
 40
0.0
 40
0.1250401496
 40
0.2500345084
 40
0.3750298084
 40
0.5000233733
 40
0.6250175742
 40
0.7500119824
 40
0.8750051062
 40
1.0
 40
1.0
 40
1.0
 40
1.0
 10
186.2103059581
 20
133.6679991136
 30
0.0
 10
186.4759766825
 20
133.6708669898
 30
0.0
 10
187.0130517979
 20
133.773189569
 30
0.0
 10
187.691916574
 20
134.2290225554
 30
0.0
 10
188.1462411116
 20
134.908420929
 30
0.0
 10
188.3055845807
 20
135.7103364971
 30
0.0
 10
188.1461281774
 20
136.5120969292
 30
0.0
 10
187.6916385108
 20
137.1918071049
 30
0.0
 10
187.0128874237
 20
137.6459741839
 30
0.0
 10
186.4758960013
 20
137.7522907415
 30
0.0
 10
186.2103059581
 20
137.7522907415
 30
0.0
  0
SPLINE
  5
480
100
AcDbEntity
  8
0
100
AcDbSpline
 62
7
  6
CONTINUOUS
 70
0
 71
3
 72
15
 73
11
 74
0
 42
0.0000001
 43
0.0000001
 44
0.0000000001
 40
0.0
 40
0.0
 40
0.0
 40
0.0
 40
0.1250401496
 40
0.2500345084
 40
0.3750298084
 40
0.5000233733
 40
0.6250175742
 40
0.7500119824
 40
0.8750051062
 40
1.0
 40
1.0
 40
1.0
 40
1.0
 10
148.2103059581
 20
137.7522907415
 30
0.0
 10
147.9446352338
 20
137.7494228653
 30
0.0
 10
147.4075601183
 20
137.647100286
 30
0.0
 10
146.7286953423
 20
137.1912672997
 30
0.0
 10
146.2743708046
 20
136.511868926
 30
0.0
 10
146.1150273356
 20
135.709953358
 30
0.0
 10
146.2744837388
 20
134.9081929259
 30
0.0
 10
146.7289734054
 20
134.2284827502
 30
0.0
 10
147.4077244926
 20
133.7743156712
 30
0.0
 10
147.9447159149
 20
133.6679991136
 30
0.0
 10
148.2103059581
 20
133.6679991136
 30
0.0
  0
SPLINE
  5
481
100
AcDbEntity
  8
0
100
AcDbSpline
 62
7
  6
CONTINUOUS
 70
0
 71
3
 72
15
 73
11
 74
0
 42
0.0000001
 43
0.0000001
 44
0.0000000001
 40
0.0
 40
0.0
 40
0.0
 40
0.0
 40
0.1250401496
 40
0.2500345084
 40
0.3750298084
 40
0.5000233733
 40
0.6250175742
 40
0.7500119824
 40
0.8750051062
 40
1.0
 40
1.0
 40
1.0
 40
1.0
 10
287.0103059581
 20
137.7522907415
 30
0.0
 10
286.7446352338
 20
137.7494228653
 30
0.0
 10
286.2075601183
 20
137.647100286
 30
0.0
 10
285.5286953423
 20
137.1912672997
 30
0.0
 10
285.0743708046
 20
136.511868926
 30
0.0
 10
284.9150273356
 20
135.709953358
 30
0.0
 10
285.0744837388
 20
134.9081929259
 30
0.0
 10
285.5289734054
 20
134.2284827502
 30
0.0
 10
286.2077244926
 20
133.7743156712
 30
0.0
 10
286.7447159149
 20
133.6679991136
 30
0.0
 10
287.0103059581
 20
133.6679991136
 30
0.0
  0
SPLINE
  5
482
100
AcDbEntity
  8
0
100
AcDbSpline
 62
7
  6
CONTINUOUS
 70
0
 71
3
 72
15
 73
11
 74
0
 42
0.0000001
 43
0.0000001
 44
0.0000000001
 40
0.0
 40
0.0
 40
0.0
 40
0.0
 40
0.1250401496
 40
0.2500345084
 40
0.3750298084
 40
0.5000233733
 40
0.6250175742
 40
0.7500119824
 40
0.8750051062
 40
1.0
 40
1.0
 40
1.0
 40
1.0
 10
325.0103059581
 20
133.6679991136
 30
0.0
 10
325.2759766825
 20
133.6708669898
 30
0.0
 10
325.8130517979
 20
133.773189569
 30
0.0
 10
326.491916574
 20
134.2290225554
 30
0.0
 10
326.9462411116
 20
134.908420929
 30
0.0
 10
327.1055845807
 20
135.7103364971
 30
0.0
 10
326.9461281774
 20
136.5120969292
 30
0.0
 10
326.4916385108
 20
137.1918071049
 30
0.0
 10
325.8128874237
 20
137.6459741839
 30
0.0
 10
325.2758960013
 20
137.7522907415
 30
0.0
 10
325.0103059581
 20
137.7522907415
 30
0.0
  0
SPLINE
  5
483
100
AcDbEntity
  8
0
100
AcDbSpline
 62
7
  6
CONTINUOUS
 70
0
 71
3
 72
15
 73
11
 74
0
 42
0.0000001
 43
0.0000001
 44
0.0000000001
 40
0.0
 40
0.0
 40
0.0
 40
0.0
 40
0.1250401496
 40
0.2500345084
 40
0.3750298084
 40
0.5000233733
 40
0.6250175742
 40
0.7500119824
 40
0.8750051062
 40
1.0
 40
1.0
 40
1.0
 40
1.0
 10
217.6103059581
 20
292.7522907415
 30
0.0
 10
217.3446352338
 20
292.7494228653
 30
0.0
 10
216.8075601183
 20
292.647100286
 30
0.0
 10
216.1286953423
 20
292.1912672997
 30
0.0
 10
215.6743708046
 20
291.511868926
 30
0.0
 10
215.5150273356
 20
290.709953358
 30
0.0
 10
215.6744837388
 20
289.9081929259
 30
0.0
 10
216.1289734054
 20
289.2284827502
 30
0.0
 10
216.8077244926
 20
288.7743156712
 30
0.0
 10
217.3447159149
 20
288.6679991136
 30
0.0
 10
217.6103059581
 20
288.6679991136
 30
0.0
  0
ENDSEC
  0
SECTION
  2
OBJECTS
  0
DICTIONARY
  5
C
100
AcDbDictionary
280
0
281
1
  3
ACAD_GROUP
350
D
  3
ACAD_MLINESTYLE
350
17
  3
ACAD_LAYOUT
350
1A
  3
ACAD_PLOTSETTINGS
350
19
  3
ACAD_PLOTSTYLENAME
350
E
  0
DICTIONARY
  5
D
102
{ACAD_REACTORS
330
C
102
}
100
AcDbDictionary
280
0
281
1
  0
ACDBDICTIONARYWDFLT
  5
E
102
{ACAD_REACTORS
330
C
102
}
100
AcDbDictionary
281
1
  3
Normal
350
F
100
AcDbDictionaryWithDefault
340
F
  0
DICTIONARY
  5
17
102
{ACAD_REACTORS
330
C
102
}
100
AcDbDictionary
280
0
281
1
  3
Standard
350
18
  0
DICTIONARY
  5
19
102
{ACAD_REACTORS
330
C
102
}
100
AcDbDictionary
281
1
  0
DICTIONARY
  5
1A
102
{ACAD_REACTORS
330
C
102
}
100
AcDbDictionary
281
1
  3
Model
350
484
  3
Layout1
350
485
  0
ACDBPLACEHOLDER
  5
F
102
{ACAD_REACTORS
330
E
102
}
  0
MLINESTYLE
  5
18
102
{ACAD_REACTORS
330
17
102
}
100
AcDbMlineStyle
  2
STANDARD
 70
0
  3

 62
256
 51
90.0
 52
90.0
 71
2
 49
0.5
 62
256
  6
BYLAYER
 49
-0.5
 62
256
  6
BYLAYER
  0
LAYOUT
  5
484
102
{ACAD_REACTORS
330
1A
102
}
100
AcDbPlotSettings
  1

  2
none_device
  4

  6

 40
0.0
 41
0.0
 42
0.0
 43
0.0
 44
210.0
 45
297.0
 46
0.0
 47
0.0
 48
0.0
 49
0.0
140
0.0
141
0.0
142
1.0
143
1.0
 70
1024
 72
1
 73
0
 74
0
  7

 75
0
147
1.0
148
0.0
149
0.0
100
AcDbLayout
  1
Model
 70
0
 71
0
 10
0.0
 20
0.0
 11
210.0
 21
297.0
 12
0.0
 22
0.0
 32
0.0
 14
0.0
 24
0.0
 34
0.0
 15
0.0
 25
0.0
 35
0.0
146
0.0
 13
0.0
 23
0.0
 33
0.0
 16
1.0
 26
0.0
 36
0.0
 17
0.0
 27
1.0
 37
0.0
 76
0
330
210
345
0
346
0
  0
LAYOUT
  5
485
102
{ACAD_REACTORS
330
1A
102
}
100
AcDbPlotSettings
  1

  2
none_device
  4

  6

 40
0.0
 41
0.0
 42
0.0
 43
0.0
 44
210.0
 45
297.0
 46
0.0
 47
0.0
 48
0.0
 49
0.0
140
0.0
141
0.0
142
1.0
143
1.0
 70
0
 72
1
 73
0
 74
0
  7

 75
0
147
1.0
148
0.0
149
0.0
100
AcDbLayout
  1
Layout1
 70
0
 71
1
 10
0.0
 20
0.0
 11
210.0
 21
297.0
 12
0.0
 22
0.0
 32
0.0
 14
0.0
 24
0.0
 34
0.0
 15
0.0
 25
0.0
 35
0.0
146
0.0
 13
0.0
 23
0.0
 33
0.0
 16
1.0
 26
0.0
 36
0.0
 17
0.0
 27
1.0
 37
0.0
 76
0
330
211
345
0
346
0
  0
ENDSEC
  0
EOF
