999
DXF file: C:\Users\sesa63760\Dev\_Creo\CAD\MCADID0000508_3D-CAD\drw0001_2.dxf
999
Pro/ENGINEER 2019471 by Parametric Technology Corporation
  0
SECTION
  2
HEADER
  9
$ACADVER
  1
AC1024
  9
$DWGCODEPAGE
  3
ANSI_1252
  9
$EXTMAX
 10
169.2756541449
 20
239.4041394336
 30
0.0
  9
$EXTMIN
 10
0.0
 20
0.0
 30
0.0
  9
$LIMMIN
 10
0.0
 20
0.0
  9
$LIMMAX
 10
169.2756541449
 20
239.4041394336
  9
$VIEWCTR
 10
84.6378270725
 20
119.7020697168
  9
$VIEWSIZE
 40
239.4041394336
  9
$CLAYER
  8
0
  9
$LTSCALE
 40
15.6056031631
  9
$CELTYPE
  6
BYLAYER
  9
$DIMSCALE
 40
1.0
  9
$DIMASZ
 40
2.0151863589
  9
$DIMEXO
 40
1.0
  9
$DIMDLI
 40
10.7820530945
  9
$DIMEXE
 40
1.0
  9
$DIMCEN
 40
2.553644154
  9
$DIMLFAC
 40
1.0
  9
$DIMBLK
  1
_FILLED
  9
$DIMALT
 70
0
  9
$DIMALTF
 40
0.0393700787
  9
$DIMTXT
 40
2.8212609024
  9
$DIMTOL
 70
1
  9
$DIMLIM
 70
0
  9
$DIMTFAC
 40
1.0
  9
$DIMTP
 40
0.01
  9
$DIMTM
 40
0.01
  9
$DIMGAP
 40
0.625
  9
$DIMDSEP
 70
46
  9
$AUNITS
 70
0
  9
$PDMODE
 70
3
  9
$PDSIZE
 40
0.3125
  9
$HANDSEED
  5
3BE
  9
$TILEMODE
 70
1
  9
$MEASUREMENT
 70
1
  9
$INSUNITS
 70
4
  0
ENDSEC
  0
SECTION
  2
CLASSES
  0
CLASS
  1
ACDBDICTIONARYWDFLT
  2
AcDbDictionaryWithDefault
  3
AutoCAD 2000
 90
0
 91
1
280
0
281
0
  0
CLASS
  1
ACDBPLACEHOLDER
  2
AcDbPlaceHolder
  3
AutoCAD 2000
 90
0
 91
1
280
0
281
0
  0
CLASS
  1
LAYOUT
  2
AcDbLayout
  3
AutoCAD 2000
 90
0
 91
0
280
0
281
0
  0
ENDSEC
  0
SECTION
  2
TABLES
  0
TABLE
  2
VPORT
  5
8
100
AcDbSymbolTable
 70
2
  0
VPORT
  5
1F4
100
AcDbSymbolTableRecord
100
AcDbViewportTableRecord
  2
*ACTIVE
 70
0
 10
0.0
 20
0.0
 11
1.0
 21
1.0
 12
84.6378270725
 22
119.7020697168
 13
0.0
 23
0.0
 14
1.0
 24
1.0
 15
0.0
 25
0.0
 16
0.0
 26
0.0
 36
1.0
 17
0.0
 27
0.0
 37
0.0
 40
239.4041394336
 41
0.7070707071
 42
50.0
 43
0.0
 44
0.0
 50
0.0
 51
0.0
 71
0
 72
100
 73
1
 74
1
 75
0
 76
0
 77
0
 78
0
  0
ENDTAB
  0
TABLE
  2
LTYPE
  5
5
100
AcDbSymbolTable
 70
6
  0
LTYPE
  5
14
100
AcDbSymbolTableRecord
100
AcDbLinetypeTableRecord
  2
BYBLOCK
 70
0
  3

 72
65
 73
0
 40
0.0
  0
LTYPE
  5
15
100
AcDbSymbolTableRecord
100
AcDbLinetypeTableRecord
  2
BYLAYER
 70
0
  3

 72
65
 73
0
 40
0.0
  0
LTYPE
  5
16
100
AcDbSymbolTableRecord
100
AcDbLinetypeTableRecord
  2
CONTINUOUS
 70
64
  3
Solid line
 72
65
 73
0
 40
0.0
  0
LTYPE
  5
1F5
100
AcDbSymbolTableRecord
100
AcDbLinetypeTableRecord
  2
CENTER
 70
64
  3
____ _ ____ _ ____ _ ____ _ ____ _ ____ _ ____
 72
65
 73
4
 40
0.6
 49
0.375
 74
0
 49
-0.075
 74
0
 49
0.075
 74
0
 49
-0.075
 74
0
  0
LTYPE
  5
1F6
100
AcDbSymbolTableRecord
100
AcDbLinetypeTableRecord
  2
HIDDEN
 70
64
  3
- - - - - - - - - - - - - - - - - - - -
 72
65
 73
2
 40
0.2
 49
0.1
 74
0
 49
-0.1
 74
0
  0
LTYPE
  5
1F7
100
AcDbSymbolTableRecord
100
AcDbLinetypeTableRecord
  2
PHANTOM
 70
64
  3
_____ _ _ _____ _ _ _____ _ _ _____
 72
65
 73
6
 40
0.8
 49
0.45
 74
0
 49
-0.05
 74
0
 49
0.1
 74
0
 49
-0.05
 74
0
 49
0.1
 74
0
 49
-0.05
 74
0
  0
LTYPE
  5
1F8
100
AcDbSymbolTableRecord
100
AcDbLinetypeTableRecord
  2
DOT
 70
64
  3
. . . . . . . . . . . . . . . . . . . .
 72
65
 73
2
 40
0.2
 49
0.1
 74
0
 49
-0.1
 74
0
  0
LTYPE
  5
1F9
100
AcDbSymbolTableRecord
100
AcDbLinetypeTableRecord
  2
DASHED
 70
64
  3
- - - - - - - - - - - - - - - - - - - -
 72
65
 73
2
 40
0.2
 49
0.1
 74
0
 49
-0.1
 74
0
  0
ENDTAB
  0
TABLE
  2
LAYER
  5
2
100
AcDbSymbolTable
 70
36
  0
LAYER
  5
10
100
AcDbSymbolTableRecord
100
AcDbLayerTableRecord
  2
0
 70
0
 62
7
  6
CONTINUOUS
370
-3
390
F
  0
LAYER
  5
1FA
100
AcDbSymbolTableRecord
100
AcDbLayerTableRecord
  2
DEFAULT_1
 70
0
 62
7
  6
CENTER
370
-3
390
F
  0
LAYER
  5
1FB
100
AcDbSymbolTableRecord
100
AcDbLayerTableRecord
  2
DEFAULT_2
 70
0
 62
8
  6
HIDDEN
370
-3
390
F
  0
LAYER
  5
1FC
100
AcDbSymbolTableRecord
100
AcDbLayerTableRecord
  2
DEFAULT_3
 70
0
 62
7
  6
PHANTOM
370
-3
390
F
  0
LAYER
  5
1FD
100
AcDbSymbolTableRecord
100
AcDbLayerTableRecord
  2
00_COMPONENTS
 70
0
 62
7
  6
CONTINUOUS
370
-3
390
F
  0
LAYER
  5
1FE
100
AcDbSymbolTableRecord
100
AcDbLayerTableRecord
  2
01_1_DEFAULT_DATUMS
 70
0
 62
7
  6
CONTINUOUS
370
-3
390
F
  0
LAYER
  5
1FF
100
AcDbSymbolTableRecord
100
AcDbLayerTableRecord
  2
01_PLANES
 70
0
 62
7
  6
CONTINUOUS
370
-3
390
F
  0
LAYER
  5
200
100
AcDbSymbolTableRecord
100
AcDbLayerTableRecord
  2
02_COORD_SYS
 70
0
 62
7
  6
CONTINUOUS
370
-3
390
F
  0
LAYER
  5
201
100
AcDbSymbolTableRecord
100
AcDbLayerTableRecord
  2
03_AXES
 70
0
 62
7
  6
CONTINUOUS
370
-3
390
F
  0
LAYER
  5
202
100
AcDbSymbolTableRecord
100
AcDbLayerTableRecord
  2
04_POINTS
 70
0
 62
7
  6
CONTINUOUS
370
-3
390
F
  0
LAYER
  5
203
100
AcDbSymbolTableRecord
100
AcDbLayerTableRecord
  2
05_CURVES
 70
0
 62
7
  6
CONTINUOUS
370
-3
390
F
  0
LAYER
  5
204
100
AcDbSymbolTableRecord
100
AcDbLayerTableRecord
  2
06_SURFS
 70
0
 62
7
  6
CONTINUOUS
370
-3
390
F
  0
LAYER
  5
205
100
AcDbSymbolTableRecord
100
AcDbLayerTableRecord
  2
07_COSMETICS
 70
0
 62
7
  6
CONTINUOUS
370
-3
390
F
  0
LAYER
  5
206
100
AcDbSymbolTableRecord
100
AcDbLayerTableRecord
  2
10_NOTES
 70
0
 62
7
  6
CONTINUOUS
370
-3
390
F
  0
LAYER
  5
207
100
AcDbSymbolTableRecord
100
AcDbLayerTableRecord
  2
11_NOTES_PUB
 70
0
 62
7
  6
CONTINUOUS
370
-3
390
F
  0
LAYER
  5
208
100
AcDbSymbolTableRecord
100
AcDbLayerTableRecord
  2
13_REF_GTOL
 70
0
 62
7
  6
CONTINUOUS
370
-3
390
F
  0
LAYER
  5
209
100
AcDbSymbolTableRecord
100
AcDbLayerTableRecord
  2
16_MISC
 70
0
 62
7
  6
CONTINUOUS
370
-3
390
F
  0
LAYER
  5
20A
100
AcDbSymbolTableRecord
100
AcDbLayerTableRecord
  2
17_NO_PRINT
 70
0
 62
7
  6
CONTINUOUS
370
-3
390
F
  0
LAYER
  5
20B
100
AcDbSymbolTableRecord
100
AcDbLayerTableRecord
  2
18_DATUM_CAMS_JOINTS
 70
0
 62
7
  6
CONTINUOUS
370
-3
390
F
  0
LAYER
  5
20C
100
AcDbSymbolTableRecord
100
AcDbLayerTableRecord
  2
19_DATUM_FUNCTIONAL
 70
0
 62
7
  6
CONTINUOUS
370
-3
390
F
  0
LAYER
  5
20D
100
AcDbSymbolTableRecord
100
AcDbLayerTableRecord
  2
20_DATUM_KINEMATIC_SCHEME
 70
0
 62
7
  6
CONTINUOUS
370
-3
390
F
  0
ENDTAB
  0
TABLE
  2
STYLE
  5
3
100
AcDbSymbolTable
 70
1
  0
STYLE
  5
11
100
AcDbSymbolTableRecord
100
AcDbTextStyleTableRecord
  2
STANDARD
 70
0
 40
0.0
 41
0.8
 50
0.0
 71
0
 42
0.2
  3
txt
  4

  0
STYLE
  5
20E
100
AcDbSymbolTableRecord
100
AcDbTextStyleTableRecord
  2
TEXTSTYLE_1
 70
0
 40
0.0
 41
0.8
 50
0.0
 71
0
 42
0.2
  3
gdt
  4

  0
ENDTAB
  0
TABLE
  2
VIEW
  5
6
100
AcDbSymbolTable
 70
0
  0
ENDTAB
  0
TABLE
  2
UCS
  5
7
100
AcDbSymbolTable
 70
0
  0
ENDTAB
  0
TABLE
  2
APPID
  5
9
100
AcDbSymbolTable
 70
1
  0
APPID
  5
20F
100
AcDbSymbolTableRecord
100
AcDbRegAppTableRecord
  2
ACAD
 70
0
  0
ENDTAB
  0
TABLE
  2
BLOCK_RECORD
  5
1
100
AcDbSymbolTable
 70
0
  0
BLOCK_RECORD
  5
210
100
AcDbSymbolTableRecord
100
AcDbBlockTableRecord
  2
*Model_Space
  0
BLOCK_RECORD
  5
211
100
AcDbSymbolTableRecord
100
AcDbBlockTableRecord
  2
*Paper_Space
  0
BLOCK_RECORD
  5
212
100
AcDbSymbolTableRecord
100
AcDbBlockTableRecord
  2
_FILLED
  0
ENDTAB
  0
TABLE
  2
DIMSTYLE
  5
A
100
AcDbSymbolTable
 70
1
100
AcDbDimStyleTable
 71
0
  0
DIMSTYLE
105
213
100
AcDbSymbolTableRecord
100
AcDbDimStyleTableRecord
  2
STANDARD
 70
0
  3

  4

 40
1.0
 41
2.0151863589
 42
1.0
 43
0.38
 44
1.0
 45
0.0
 46
0.0
 47
0.01
 48
0.01
140
2.8212609024
141
0.09
142
0.0
143
25.4
144
1.0
145
0.0
146
1.0
147
0.625
 71
1
 72
0
 73
0
 74
0
 75
0
 76
0
 77
1
 78
8
 79
2
170
0
171
1
172
0
173
0
174
0
175
0
176
0
177
0
178
0
270
2
179
2
271
2
272
2
273
2
274
2
275
0
280
0
281
0
282
0
283
1
284
8
285
0
286
0
287
3
288
0
340
11
278
46
341
212
342
212
343
212
344
212
  0
ENDTAB
  0
ENDSEC
  0
SECTION
  2
BLOCKS
  0
BLOCK
  5
20
100
AcDbEntity
  8
0
100
AcDbBlockBegin
  2
*Model_Space
 70
0
 10
0.0
 20
0.0
 30
0.0
  3
*Model_Space
  1

  0
ENDBLK
  5
21
100
AcDbEntity
  8
0
100
AcDbBlockEnd
  0
BLOCK
  5
1C
100
AcDbEntity
  8
0
100
AcDbBlockBegin
  2
*Paper_Space
 70
0
 10
0.0
 20
0.0
 30
0.0
  3
*Paper_Space
  1

  0
ENDBLK
  5
1D
100
AcDbEntity
  8
0
100
AcDbBlockEnd
  0
BLOCK
  5
214
100
AcDbEntity
  8
0
100
AcDbBlockBegin
  2
_FILLED
 70
64
 10
0.0
 20
0.0
  3
_FILLED
  1

  0
SOLID
  5
215
100
AcDbEntity
  8
0
  6
BYBLOCK
 62
0
100
AcDbTrace
 10
0.0
 20
0.0
 11
-1.0
 21
0.25
 12
-1.0
 22
-0.25
 13
-1.0
 23
-0.25
  0
ENDBLK
  5
216
100
AcDbEntity
  8
0
  6
BYBLOCK
 62
0
100
AcDbBlockEnd
  0
ENDSEC
  0
SECTION
  2
ENTITIES
  0
LINE
  5
217
100
AcDbEntity
  8
0
100
AcDbLine
 62
7
  6
CONTINUOUS
 10
18.5599403622
 20
165.5125272331
 11
18.5599403622
 21
73.0125272331
  0
LINE
  5
218
100
AcDbEntity
  8
0
100
AcDbLine
 62
7
  6
CONTINUOUS
 10
19.0099403622
 20
165.0625272331
 11
19.0099403622
 21
73.4625272331
  0
LINE
  5
219
100
AcDbEntity
  8
0
100
AcDbLine
 62
7
  6
CONTINUOUS
 10
27.3623215165
 20
161.762527231
 11
27.3623215165
 21
76.7625272331
  0
LINE
  5
21A
100
AcDbEntity
  8
0
100
AcDbLine
 62
7
  6
CONTINUOUS
 10
27.579439646
 20
84.7625272331
 11
27.579439646
 21
76.7625272331
  0
LINE
  5
21B
100
AcDbEntity
  8
0
100
AcDbLine
 62
7
  6
CONTINUOUS
 10
27.8099403622
 20
96.7487055827
 11
27.8099403622
 21
104.7763437626
  0
LINE
  5
21C
100
AcDbEntity
  8
0
100
AcDbLine
 62
7
  6
CONTINUOUS
 10
27.8099403622
 20
133.7487056543
 11
27.8099403622
 21
141.7763436844
  0
LINE
  5
21D
100
AcDbEntity
  8
0
100
AcDbLine
 62
7
  6
CONTINUOUS
 10
28.0791350595
 20
76.762276452
 11
28.0791350595
 21
83.2174051208
  0
LINE
  5
21E
100
AcDbEntity
  8
0
100
AcDbLine
 62
7
  6
CONTINUOUS
 10
28.0956576758
 20
97.0125272332
 11
28.0956576758
 21
104.5125272331
  0
LINE
  5
21F
100
AcDbEntity
  8
0
100
AcDbLine
 62
7
  6
CONTINUOUS
 10
28.0956576758
 20
134.0125272331
 11
28.0956576758
 21
141.5125272331
  0
LINE
  5
220
100
AcDbEntity
  8
0
100
AcDbLine
 62
7
  6
CONTINUOUS
 10
28.6268189873
 20
152.7625272331
 11
28.6268189873
 21
84.7625272331
  0
LINE
  5
221
100
AcDbEntity
  8
0
100
AcDbLine
 62
7
  6
CONTINUOUS
 10
28.9266362354
 20
84.762370965
 11
28.9266362354
 21
152.7625802158
  0
LINE
  5
222
100
AcDbEntity
  8
0
100
AcDbLine
 62
7
  6
CONTINUOUS
 10
27.5769522111
 20
152.7625272331
 11
27.5851821039
 21
161.762527231
  0
LINE
  5
223
100
AcDbEntity
  8
0
100
AcDbLine
 62
7
  6
CONTINUOUS
 10
28.0848773811
 20
161.749289712
 11
28.0780728162
 21
154.3079917665
  0
LINE
  5
224
100
AcDbEntity
  8
0
100
AcDbLine
 62
7
  6
CONTINUOUS
 10
30.3099403622
 20
73.8149083874
 11
30.3099403622
 21
74.5317219304
  0
LINE
  5
225
100
AcDbEntity
  8
0
100
AcDbLine
 62
7
  6
CONTINUOUS
 10
30.3099403622
 20
82.0488775429
 11
30.3099403622
 21
83.3792231062
  0
LINE
  5
226
100
AcDbEntity
  8
0
100
AcDbLine
 62
7
  6
CONTINUOUS
 10
30.3099403622
 20
154.14583136
 11
30.3099403651
 21
155.4761769233
  0
LINE
  5
227
100
AcDbEntity
  8
0
100
AcDbLine
 62
7
  6
CONTINUOUS
 10
30.3099403622
 20
163.9724687928
 11
30.3099403623
 21
164.7101460789
  0
LINE
  5
228
100
AcDbEntity
  8
0
100
AcDbLine
 62
7
  6
CONTINUOUS
 10
33.8099403622
 20
155.4761769233
 11
33.8099403622
 21
155.2313659217
  0
LINE
  5
229
100
AcDbEntity
  8
0
100
AcDbLine
 62
7
  6
CONTINUOUS
 10
33.8099403622
 20
82.7651189327
 11
33.8099403622
 21
82.0488775429
  0
LINE
  5
22A
100
AcDbEntity
  8
0
100
AcDbLine
 62
7
  6
CONTINUOUS
 10
34.505196676
 20
114.7125272331
 11
34.505196676
 21
127.9125272331
  0
LINE
  5
22B
100
AcDbEntity
  8
0
100
AcDbLine
 62
7
  6
CONTINUOUS
 10
26.5599403622
 20
65.0125272331
 11
145.0599403622
 21
65.0125272331
  0
LINE
  5
22C
100
AcDbEntity
  8
0
100
AcDbLine
 62
7
  6
CONTINUOUS
 10
27.0099403622
 20
65.4625272331
 11
144.6099403622
 21
65.4625272331
  0
LINE
  5
22D
100
AcDbEntity
  8
0
100
AcDbLine
 62
7
  6
CONTINUOUS
 10
39.3106658884
 20
75.0649361808
 11
39.3107045417
 21
74.7651189327
  0
LINE
  5
22E
100
AcDbEntity
  8
0
100
AcDbLine
 62
7
  6
CONTINUOUS
 10
34.7932418132
 20
115.0005723704
 11
34.7932418132
 21
127.6244820959
  0
LINE
  5
22F
100
AcDbEntity
  8
0
100
AcDbLine
 62
7
  6
CONTINUOUS
 10
34.9599403622
 20
103.3125272331
 11
34.9599403622
 21
111.6125272331
  0
LINE
  5
230
100
AcDbEntity
  8
0
100
AcDbLine
 62
7
  6
CONTINUOUS
 10
35.3599403622
 20
109.4125272331
 11
35.3599403622
 21
105.6925272331
  0
LINE
  5
231
100
AcDbEntity
  8
0
100
AcDbLine
 62
7
  6
CONTINUOUS
 10
35.5962906721
 20
80.2625272331
 11
35.5962906721
 21
77.047050024
  0
LINE
  5
232
100
AcDbEntity
  8
0
100
AcDbLine
 62
7
  6
CONTINUOUS
 10
35.8411016737
 20
161.2331934406
 11
35.8411016737
 21
157.2625272331
  0
LINE
  5
233
100
AcDbEntity
  8
0
100
AcDbLine
 62
7
  6
CONTINUOUS
 10
36.0599403622
 20
111.2425272331
 11
36.0599403622
 21
109.4125272331
  0
LINE
  5
234
100
AcDbEntity
  8
0
100
AcDbLine
 62
7
  6
CONTINUOUS
 10
36.0599403622
 20
104.6925272331
 11
36.0599403622
 21
105.6925272331
  0
LINE
  5
235
100
AcDbEntity
  8
0
100
AcDbLine
 62
7
  6
CONTINUOUS
 10
36.1409269951
 20
157.26247951
 11
36.1409269951
 21
161.2331424362
  0
LINE
  5
236
100
AcDbEntity
  8
0
100
AcDbLine
 62
7
  6
CONTINUOUS
 10
36.3125320618
 20
80.2625272331
 11
36.3125320618
 21
77.7632914191
  0
LINE
  5
237
100
AcDbEntity
  8
0
100
AcDbLine
 62
7
  6
CONTINUOUS
 10
36.3599403622
 20
104.9925272331
 11
36.3599403622
 21
110.1125272331
  0
LINE
  5
238
100
AcDbEntity
  8
0
100
AcDbLine
 62
7
  6
CONTINUOUS
 10
36.6123614178
 20
77.7633958539
 11
36.612349309
 21
80.2627219572
  0
LINE
  5
239
100
AcDbEntity
  8
0
100
AcDbLine
 62
7
  6
CONTINUOUS
 10
37.0599403622
 20
104.0025272331
 11
37.0599403622
 21
104.9925272331
  0
LINE
  5
23A
100
AcDbEntity
  8
0
100
AcDbLine
 62
7
  6
CONTINUOUS
 10
37.0599403622
 20
110.1125272331
 11
37.0599403622
 21
111.1025272331
  0
LINE
  5
23B
100
AcDbEntity
  8
0
100
AcDbLine
 62
7
  6
CONTINUOUS
 10
37.1349403622
 20
111.2425272331
 11
37.1349403622
 21
111.6125272331
  0
LINE
  5
23C
100
AcDbEntity
  8
0
100
AcDbLine
 62
7
  6
CONTINUOUS
 10
37.2099403622
 20
105.6725272331
 11
37.2099403622
 21
107.5525272331
  0
LINE
  5
23D
100
AcDbEntity
  8
0
100
AcDbLine
 62
7
  6
CONTINUOUS
 10
38.2849403622
 20
111.6125272331
 11
38.2849403622
 21
111.2425272331
  0
LINE
  5
23E
100
AcDbEntity
  8
0
100
AcDbLine
 62
7
  6
CONTINUOUS
 10
38.6349403622
 20
121.5289737873
 11
38.6349403622
 21
120.8925272331
  0
LINE
  5
23F
100
AcDbEntity
  8
0
100
AcDbLine
 62
7
  6
CONTINUOUS
 10
38.8392741099
 20
163.9315486736
 11
38.8392741099
 21
164.2313659217
  0
LINE
  5
240
100
AcDbEntity
  8
0
100
AcDbLine
 62
7
  6
CONTINUOUS
 10
38.8599403622
 20
120.7825272331
 11
38.8599403622
 21
120.8925272331
  0
LINE
  5
241
100
AcDbEntity
  8
0
100
AcDbLine
 62
7
  6
CONTINUOUS
 10
38.8849296192
 20
120.8925272331
 11
38.8849296192
 21
121.5289737873
  0
LINE
  5
242
100
AcDbEntity
  8
0
100
AcDbLine
 62
7
  6
CONTINUOUS
 10
39.1599403622
 20
120.7825284905
 11
39.1599403622
 21
121.5289737873
  0
LINE
  5
243
100
AcDbEntity
  8
0
100
AcDbLine
 62
7
  6
CONTINUOUS
 10
39.4099403622
 20
120.0075272331
 11
39.4099403622
 21
120.5325272331
  0
LINE
  5
244
100
AcDbEntity
  8
0
100
AcDbLine
 62
7
  6
CONTINUOUS
 10
39.8849403622
 20
120.5825272331
 11
39.8849403622
 21
122.3325272331
  0
LINE
  5
245
100
AcDbEntity
  8
0
100
AcDbLine
 62
7
  6
CONTINUOUS
 10
40.0134938081
 20
122.3825272331
 11
40.0134938081
 21
122.9075272331
  0
LINE
  5
246
100
AcDbEntity
  8
0
100
AcDbLine
 62
7
  6
CONTINUOUS
 10
35.6017739243
 20
161.47252119
 11
35.5979241689
 21
157.2625272331
  0
LINE
  5
247
100
AcDbEntity
  8
0
100
AcDbLine
 62
7
  6
CONTINUOUS
 10
84.1074634111
 20
72.6609426229
 11
79.5124173134
 21
72.6609426229
  0
LINE
  5
248
100
AcDbEntity
  8
0
100
AcDbLine
 62
7
  6
CONTINUOUS
 10
30.3099403622
 20
73.8149083874
 11
79.4510254703
 21
73.8149083874
  0
LINE
  5
249
100
AcDbEntity
  8
0
100
AcDbLine
 62
7
  6
CONTINUOUS
 10
84.1688552541
 20
73.8149083874
 11
141.3099403622
 21
73.8149083874
  0
LINE
  5
24A
100
AcDbEntity
  8
0
100
AcDbLine
 62
7
  6
CONTINUOUS
 10
69.8099403622
 20
74.4571912772
 11
69.3863632087
 21
74.7402662333
  0
LINE
  5
24B
100
AcDbEntity
  8
0
100
AcDbLine
 62
7
  6
CONTINUOUS
 10
40.9099403622
 20
164.2317427131
 11
40.9099403622
 21
165.2625272331
  0
LINE
  5
24C
100
AcDbEntity
  8
0
100
AcDbLine
 62
7
  6
CONTINUOUS
 10
41.8099403622
 20
74.7402662333
 11
41.8099403622
 21
74.4571912772
  0
LINE
  5
24D
100
AcDbEntity
  8
0
100
AcDbLine
 62
7
  6
CONTINUOUS
 10
42.7099403622
 20
165.2625272331
 11
42.7099403622
 21
164.2317427131
  0
LINE
  5
24E
100
AcDbEntity
  8
0
100
AcDbLine
 62
7
  6
CONTINUOUS
 10
43.5599403622
 20
74.7402662333
 11
43.5599403622
 21
74.4625272331
  0
LINE
  5
24F
100
AcDbEntity
  8
0
100
AcDbLine
 62
7
  6
CONTINUOUS
 10
44.5599403622
 20
74.4625272331
 11
44.5599403622
 21
74.7402662333
  0
LINE
  5
250
100
AcDbEntity
  8
0
100
AcDbLine
 62
7
  6
CONTINUOUS
 10
45.2063869164
 20
122.9075272331
 11
45.2063869164
 21
122.3825272331
  0
LINE
  5
251
100
AcDbEntity
  8
0
100
AcDbLine
 62
7
  6
CONTINUOUS
 10
45.3349403622
 20
122.3325272331
 11
45.3349403622
 21
120.5825272331
  0
LINE
  5
252
100
AcDbEntity
  8
0
100
AcDbLine
 62
7
  6
CONTINUOUS
 10
45.8099403622
 20
120.5325272331
 11
45.8099403622
 21
120.0075272331
  0
LINE
  5
253
100
AcDbEntity
  8
0
100
AcDbLine
 62
7
  6
CONTINUOUS
 10
46.0599403622
 20
120.7825272331
 11
46.0599403622
 21
121.5289737873
  0
LINE
  5
254
100
AcDbEntity
  8
0
100
AcDbLine
 62
7
  6
CONTINUOUS
 10
46.2599403622
 20
154.5822052243
 11
46.2599403622
 21
155.0536356124
  0
LINE
  5
255
100
AcDbEntity
  8
0
100
AcDbLine
 62
7
  6
CONTINUOUS
 10
30.3099403622
 20
74.0320265168
 11
38.577612127
 21
74.0320265168
  0
LINE
  5
256
100
AcDbEntity
  8
0
100
AcDbLine
 62
7
  6
CONTINUOUS
 10
133.0422685974
 20
74.0320265168
 11
141.3099403622
 21
74.0320265168
  0
LINE
  5
257
100
AcDbEntity
  8
0
100
AcDbLine
 62
7
  6
CONTINUOUS
 10
41.8099403622
 20
74.4571912772
 11
69.8099403622
 21
74.4571912772
  0
LINE
  5
258
100
AcDbEntity
  8
0
100
AcDbLine
 62
7
  6
CONTINUOUS
 10
141.3101910086
 20
74.5317219304
 11
134.6575234362
 21
74.5317219304
  0
LINE
  5
259
100
AcDbEntity
  8
0
100
AcDbLine
 62
7
  6
CONTINUOUS
 10
36.9623572883
 20
74.5317219304
 11
30.3098812594
 21
74.5317219304
  0
LINE
  5
25A
100
AcDbEntity
  8
0
100
AcDbLine
 62
7
  6
CONTINUOUS
 10
84.2027124738
 20
74.5831653162
 11
79.4171682507
 21
74.5831653162
  0
LINE
  5
25B
100
AcDbEntity
  8
0
100
AcDbLine
 62
7
  6
CONTINUOUS
 10
69.8099403622
 20
74.7402662333
 11
41.8099403622
 21
74.7402662333
  0
LINE
  5
25C
100
AcDbEntity
  8
0
100
AcDbLine
 62
7
  6
CONTINUOUS
 10
39.3107045429
 20
74.7651189327
 11
132.3091761883
 21
74.7651189327
  0
LINE
  5
25D
100
AcDbEntity
  8
0
100
AcDbLine
 62
7
  6
CONTINUOUS
 10
132.3090326047
 20
75.0649448796
 11
39.3107635652
 21
75.0649448796
  0
LINE
  5
25E
100
AcDbEntity
  8
0
100
AcDbLine
 62
7
  6
CONTINUOUS
 10
144.257559208
 20
76.7625272358
 11
143.540745665
 21
76.7625272356
  0
LINE
  5
25F
100
AcDbEntity
  8
0
100
AcDbLine
 62
7
  6
CONTINUOUS
 10
28.0791350595
 20
76.7625272342
 11
27.3623215165
 21
76.7625272331
  0
LINE
  5
260
100
AcDbEntity
  8
0
100
AcDbLine
 62
7
  6
CONTINUOUS
 10
135.3073486626
 20
77.7632914214
 11
135.0075314145
 21
77.7632554228
  0
LINE
  5
261
100
AcDbEntity
  8
0
100
AcDbLine
 62
7
  6
CONTINUOUS
 10
36.6123553641
 20
77.7632913682
 11
36.3125320618
 21
77.7632913682
  0
LINE
  5
262
100
AcDbEntity
  8
0
100
AcDbLine
 62
7
  6
CONTINUOUS
 10
46.3599403622
 20
120.8925272331
 11
46.3599403622
 21
120.7825272331
  0
LINE
  5
263
100
AcDbEntity
  8
0
100
AcDbLine
 62
7
  6
CONTINUOUS
 10
46.412594452
 20
121.5289737873
 11
46.412594452
 21
120.8925272331
  0
LINE
  5
264
100
AcDbEntity
  8
0
100
AcDbLine
 62
7
  6
CONTINUOUS
 10
46.6349403622
 20
120.8925272331
 11
46.6349403622
 21
121.5289737873
  0
LINE
  5
265
100
AcDbEntity
  8
0
100
AcDbLine
 62
7
  6
CONTINUOUS
 10
46.7599403622
 20
154.5647448395
 11
46.7599403622
 21
155.0710959972
  0
LINE
  5
266
100
AcDbEntity
  8
0
100
AcDbLine
 62
7
  6
CONTINUOUS
 10
46.9349403622
 20
111.2425272331
 11
46.9349403622
 21
111.6125272331
  0
LINE
  5
267
100
AcDbEntity
  8
0
100
AcDbLine
 62
7
  6
CONTINUOUS
 10
47.7914403622
 20
154.5647448395
 11
47.7914403622
 21
154.680370518
  0
LINE
  5
268
100
AcDbEntity
  8
0
100
AcDbLine
 62
7
  6
CONTINUOUS
 10
48.0099403622
 20
107.5525272331
 11
48.0099403622
 21
105.6725272331
  0
LINE
  5
269
100
AcDbEntity
  8
0
100
AcDbLine
 62
7
  6
CONTINUOUS
 10
48.0849403622
 20
111.6125272331
 11
48.0849403622
 21
111.2425272331
  0
LINE
  5
26A
100
AcDbEntity
  8
0
100
AcDbLine
 62
7
  6
CONTINUOUS
 10
48.1599403622
 20
111.1025272331
 11
48.1599403622
 21
110.1125272331
  0
LINE
  5
26B
100
AcDbEntity
  8
0
100
AcDbLine
 62
7
  6
CONTINUOUS
 10
48.1599403622
 20
104.9925272331
 11
48.1599403622
 21
104.0025272331
  0
LINE
  5
26C
100
AcDbEntity
  8
0
100
AcDbLine
 62
7
  6
CONTINUOUS
 10
48.8599403622
 20
104.9925272331
 11
48.8599403622
 21
110.1125272331
  0
LINE
  5
26D
100
AcDbEntity
  8
0
100
AcDbLine
 62
7
  6
CONTINUOUS
 10
49.1599403622
 20
111.2425272331
 11
49.1599403622
 21
109.4125272331
  0
LINE
  5
26E
100
AcDbEntity
  8
0
100
AcDbLine
 62
7
  6
CONTINUOUS
 10
49.1599403622
 20
105.6925272331
 11
49.1599403622
 21
104.6925272331
  0
LINE
  5
26F
100
AcDbEntity
  8
0
100
AcDbLine
 62
7
  6
CONTINUOUS
 10
49.8599403622
 20
109.4125272331
 11
49.8599403622
 21
105.6925272331
  0
LINE
  5
270
100
AcDbEntity
  8
0
100
AcDbLine
 62
7
  6
CONTINUOUS
 10
50.2599403622
 20
111.6125272331
 11
50.2599403622
 21
103.3125272331
  0
LINE
  5
271
100
AcDbEntity
  8
0
100
AcDbLine
 62
7
  6
CONTINUOUS
 10
50.4266389112
 20
127.6244820959
 11
50.4266389112
 21
115.0005723704
  0
LINE
  5
272
100
AcDbEntity
  8
0
100
AcDbLine
 62
7
  6
CONTINUOUS
 10
50.7146840485
 20
114.7125272331
 11
50.7146840485
 21
127.9125272331
  0
LINE
  5
273
100
AcDbEntity
  8
0
100
AcDbLine
 62
7
  6
CONTINUOUS
 10
51.7784403622
 20
154.680370518
 11
51.7784403622
 21
154.5647448395
  0
LINE
  5
274
100
AcDbEntity
  8
0
100
AcDbLine
 62
7
  6
CONTINUOUS
 10
38.1200632953
 20
119.2246747528
 11
37.3498174311
 21
118.3003797157
  0
LINE
  5
275
100
AcDbEntity
  8
0
100
AcDbLine
 62
7
  6
CONTINUOUS
 10
39.6245850784
 20
122.5214359628
 11
39.0210316326
 21
121.9178825169
  0
LINE
  5
276
100
AcDbEntity
  8
0
100
AcDbLine
 62
7
  6
CONTINUOUS
 10
39.2331636669
 20
121.7057504826
 11
39.8367171128
 21
122.3093039284
  0
LINE
  5
277
100
AcDbEntity
  8
0
100
AcDbLine
 62
7
  6
CONTINUOUS
 10
35.5962906721
 20
80.2625272331
 11
36.6123553641
 21
80.2625272331
  0
LINE
  5
278
100
AcDbEntity
  8
0
100
AcDbLine
 62
7
  6
CONTINUOUS
 10
135.0075314145
 20
80.2625272331
 11
136.0235900524
 21
80.2625272331
  0
LINE
  5
279
100
AcDbEntity
  8
0
100
AcDbLine
 62
7
  6
CONTINUOUS
 10
30.3099403622
 20
82.0488775429
 11
33.8099403622
 21
82.0488775429
  0
LINE
  5
27A
100
AcDbEntity
  8
0
100
AcDbLine
 62
7
  6
CONTINUOUS
 10
137.8099403622
 20
82.0488775429
 11
141.3099403626
 21
82.0488775429
  0
LINE
  5
27B
100
AcDbEntity
  8
0
100
AcDbLine
 62
7
  6
CONTINUOUS
 10
35.0508364034
 20
82.7752295484
 11
136.569044321
 21
82.7752295484
  0
LINE
  5
27C
100
AcDbEntity
  8
0
100
AcDbLine
 62
7
  6
CONTINUOUS
 10
30.3099403622
 20
83.0794058581
 11
141.3099403626
 21
83.0794058581
  0
LINE
  5
27D
100
AcDbEntity
  8
0
100
AcDbLine
 62
7
  6
CONTINUOUS
 10
141.3100966303
 20
83.3792231062
 11
30.3098870592
 21
83.3792231062
  0
LINE
  5
27E
100
AcDbEntity
  8
0
100
AcDbLine
 62
7
  6
CONTINUOUS
 10
144.0404410785
 20
84.7625272331
 11
142.6932444891
 21
84.7625272331
  0
LINE
  5
27F
100
AcDbEntity
  8
0
100
AcDbLine
 62
7
  6
CONTINUOUS
 10
28.9266362354
 20
84.7625272331
 11
27.579439646
 21
84.7625272331
  0
LINE
  5
280
100
AcDbEntity
  8
0
100
AcDbLine
 62
7
  6
CONTINUOUS
 10
37.3498174291
 20
124.6246747528
 11
38.1200632953
 21
123.7003797134
  0
LINE
  5
281
100
AcDbEntity
  8
0
100
AcDbLine
 62
7
  6
CONTINUOUS
 10
55.8099403622
 20
135.6625272331
 11
55.8099403622
 21
98.7625272331
  0
LINE
  5
282
100
AcDbEntity
  8
0
100
AcDbLine
 62
7
  6
CONTINUOUS
 10
47.0998174291
 20
123.7003797134
 11
47.8700632934
 21
124.6246747505
  0
LINE
  5
283
100
AcDbEntity
  8
0
100
AcDbLine
 62
7
  6
CONTINUOUS
 10
34.7932418132
 20
115.0005723704
 11
34.505196676
 21
114.7125272331
  0
LINE
  5
284
100
AcDbEntity
  8
0
100
AcDbLine
 62
7
  6
CONTINUOUS
 10
55.8099403622
 20
135.6625272331
 11
57.8099403622
 21
137.6625272331
  0
LINE
  5
285
100
AcDbEntity
  8
0
100
AcDbLine
 62
7
  6
CONTINUOUS
 10
50.4266389112
 20
127.6244820959
 11
50.7146840485
 21
127.9125272331
  0
LINE
  5
286
100
AcDbEntity
  8
0
100
AcDbLine
 62
7
  6
CONTINUOUS
 10
34.505196676
 20
127.9125272331
 11
34.7932418132
 21
127.6244820959
  0
LINE
  5
287
100
AcDbEntity
  8
0
100
AcDbLine
 62
7
  6
CONTINUOUS
 10
50.7146840485
 20
114.7125272331
 11
50.4266389112
 21
115.0005723704
  0
LINE
  5
288
100
AcDbEntity
  8
0
100
AcDbLine
 62
7
  6
CONTINUOUS
 10
47.8700632953
 20
118.3003797134
 11
47.0998174291
 21
119.2246747528
  0
LINE
  5
289
100
AcDbEntity
  8
0
100
AcDbLine
 62
7
  6
CONTINUOUS
 10
58.2299403622
 20
154.5647448395
 11
58.2299403622
 21
154.680370518
  0
LINE
  5
28A
100
AcDbEntity
  8
0
100
AcDbLine
 62
7
  6
CONTINUOUS
 10
62.2169403622
 20
154.680370518
 11
62.2169403622
 21
154.5647448395
  0
LINE
  5
28B
100
AcDbEntity
  8
0
100
AcDbLine
 62
7
  6
CONTINUOUS
 10
63.2599403622
 20
155.0710959972
 11
63.2599403622
 21
154.5647448395
  0
LINE
  5
28C
100
AcDbEntity
  8
0
100
AcDbLine
 62
7
  6
CONTINUOUS
 10
143.5329683324
 20
96.7625276294
 11
143.8099403622
 21
96.7770435892
  0
LINE
  5
28D
100
AcDbEntity
  8
0
100
AcDbLine
 62
7
  6
CONTINUOUS
 10
45.3831636117
 20
122.3093039284
 11
45.9867170575
 21
121.7057504826
  0
LINE
  5
28E
100
AcDbEntity
  8
0
100
AcDbLine
 62
7
  6
CONTINUOUS
 10
46.1988490919
 20
121.9178825169
 11
45.595295646
 21
122.5214359628
  0
LINE
  5
28F
100
AcDbEntity
  8
0
100
AcDbLine
 62
7
  6
CONTINUOUS
 10
63.7599403622
 20
154.5822052243
 11
63.7599403622
 21
155.0536356124
  0
LINE
  5
290
100
AcDbEntity
  8
0
100
AcDbLine
 62
7
  6
CONTINUOUS
 10
67.0599403616
 20
74.7402662333
 11
67.0599403616
 21
74.4625272331
  0
LINE
  5
291
100
AcDbEntity
  8
0
100
AcDbLine
 62
7
  6
CONTINUOUS
 10
68.0599403622
 20
74.4625272331
 11
68.0599403622
 21
74.7402662333
  0
LINE
  5
292
100
AcDbEntity
  8
0
100
AcDbLine
 62
7
  6
CONTINUOUS
 10
27.8099403622
 20
96.7480088974
 11
28.0869434483
 21
96.7625197131
  0
LINE
  5
293
100
AcDbEntity
  8
0
100
AcDbLine
 62
7
  6
CONTINUOUS
 10
143.8099403622
 20
97.0125272331
 11
143.5242230487
 21
97.0125272331
  0
LINE
  5
294
100
AcDbEntity
  8
0
100
AcDbLine
 62
7
  6
CONTINUOUS
 10
28.0956576758
 20
97.0125272332
 11
27.8099403622
 21
97.0125272332
  0
LINE
  5
295
100
AcDbEntity
  8
0
100
AcDbLine
 62
7
  6
CONTINUOUS
 10
57.3099403622
 20
97.2625272331
 11
124.3099403622
 21
97.2625272331
  0
LINE
  5
296
100
AcDbEntity
  8
0
100
AcDbLine
 62
7
  6
CONTINUOUS
 10
28.08694343
 20
104.7625347393
 11
27.8099403622
 21
104.7770455619
  0
LINE
  5
297
100
AcDbEntity
  8
0
100
AcDbLine
 62
7
  6
CONTINUOUS
 10
69.8099403622
 20
74.4571912772
 11
69.8099403622
 21
74.7402662333
  0
LINE
  5
298
100
AcDbEntity
  8
0
100
AcDbLine
 62
7
  6
CONTINUOUS
 10
50.2599403622
 20
103.3125272331
 11
34.9599403622
 21
103.3125272331
  0
LINE
  5
299
100
AcDbEntity
  8
0
100
AcDbLine
 62
7
  6
CONTINUOUS
 10
37.0599403622
 20
104.0025272331
 11
48.1599403622
 21
104.0025272331
  0
LINE
  5
29A
100
AcDbEntity
  8
0
100
AcDbLine
 62
7
  6
CONTINUOUS
 10
27.8099403622
 20
104.5125272331
 11
28.0956576758
 21
104.5125272331
  0
LINE
  5
29B
100
AcDbEntity
  8
0
100
AcDbLine
 62
7
  6
CONTINUOUS
 10
143.5242230487
 20
104.5125272332
 11
143.8099403622
 21
104.5125272332
  0
LINE
  5
29C
100
AcDbEntity
  8
0
100
AcDbLine
 62
7
  6
CONTINUOUS
 10
36.0599403622
 20
104.6925272331
 11
37.0599403622
 21
104.6925272331
  0
LINE
  5
29D
100
AcDbEntity
  8
0
100
AcDbLine
 62
7
  6
CONTINUOUS
 10
48.1599403622
 20
104.6925272331
 11
49.1599403622
 21
104.6925272331
  0
LINE
  5
29E
100
AcDbEntity
  8
0
100
AcDbLine
 62
7
  6
CONTINUOUS
 10
36.3599403622
 20
104.9925272331
 11
48.8599403622
 21
104.9925272331
  0
LINE
  5
29F
100
AcDbEntity
  8
0
100
AcDbLine
 62
7
  6
CONTINUOUS
 10
48.0099403622
 20
105.6725272331
 11
37.2099403622
 21
105.6725272331
  0
LINE
  5
2A0
100
AcDbEntity
  8
0
100
AcDbLine
 62
7
  6
CONTINUOUS
 10
49.8599403622
 20
105.6925272331
 11
48.8599403622
 21
105.6925272331
  0
LINE
  5
2A1
100
AcDbEntity
  8
0
100
AcDbLine
 62
7
  6
CONTINUOUS
 10
36.3599403622
 20
105.6925272331
 11
35.3599403622
 21
105.6925272331
  0
LINE
  5
2A2
100
AcDbEntity
  8
0
100
AcDbLine
 62
7
  6
CONTINUOUS
 10
37.2099403622
 20
107.5525272331
 11
48.0099403622
 21
107.5525272331
  0
LINE
  5
2A3
100
AcDbEntity
  8
0
100
AcDbLine
 62
7
  6
CONTINUOUS
 10
143.8099403622
 20
104.748010873
 11
143.5329683917
 21
104.7625268368
  0
LINE
  5
2A4
100
AcDbEntity
  8
0
100
AcDbLine
 62
7
  6
CONTINUOUS
 10
79.5124173134
 20
72.6609426229
 11
79.4171682507
 21
74.5831653162
  0
LINE
  5
2A5
100
AcDbEntity
  8
0
100
AcDbLine
 62
7
  6
CONTINUOUS
 10
77.6099403622
 20
155.0536356124
 11
77.6099403622
 21
154.5822052243
  0
LINE
  5
2A6
100
AcDbEntity
  8
0
100
AcDbLine
 62
7
  6
CONTINUOUS
 10
78.1099403622
 20
154.5647448395
 11
78.1099403622
 21
155.0710959972
  0
LINE
  5
2A7
100
AcDbEntity
  8
0
100
AcDbLine
 62
7
  6
CONTINUOUS
 10
35.5962906721
 20
77.047050024
 11
36.3125320618
 21
77.7632914191
  0
LINE
  5
2A8
100
AcDbEntity
  8
0
100
AcDbLine
 62
7
  6
CONTINUOUS
 10
35.3599403622
 20
109.4125272331
 11
36.3599403622
 21
109.4125272331
  0
LINE
  5
2A9
100
AcDbEntity
  8
0
100
AcDbLine
 62
7
  6
CONTINUOUS
 10
48.8599403622
 20
109.4125272331
 11
49.8599403622
 21
109.4125272331
  0
LINE
  5
2AA
100
AcDbEntity
  8
0
100
AcDbLine
 62
7
  6
CONTINUOUS
 10
36.3599403622
 20
110.1125272331
 11
48.8599403622
 21
110.1125272331
  0
LINE
  5
2AB
100
AcDbEntity
  8
0
100
AcDbLine
 62
7
  6
CONTINUOUS
 10
36.0599403622
 20
110.4125272331
 11
37.0599403622
 21
110.4125272331
  0
LINE
  5
2AC
100
AcDbEntity
  8
0
100
AcDbLine
 62
7
  6
CONTINUOUS
 10
48.1599403622
 20
110.4125272331
 11
49.1599403622
 21
110.4125272331
  0
LINE
  5
2AD
100
AcDbEntity
  8
0
100
AcDbLine
 62
7
  6
CONTINUOUS
 10
37.0599403622
 20
111.1025272331
 11
48.1599403622
 21
111.1025272331
  0
LINE
  5
2AE
100
AcDbEntity
  8
0
100
AcDbLine
 62
7
  6
CONTINUOUS
 10
36.0599403622
 20
111.2425272331
 11
37.1349403622
 21
111.2425272331
  0
LINE
  5
2AF
100
AcDbEntity
  8
0
100
AcDbLine
 62
7
  6
CONTINUOUS
 10
38.2849403622
 20
111.2425272331
 11
46.9349403622
 21
111.2425272331
  0
LINE
  5
2B0
100
AcDbEntity
  8
0
100
AcDbLine
 62
7
  6
CONTINUOUS
 10
48.0849403622
 20
111.2425272331
 11
49.1599403622
 21
111.2425272331
  0
LINE
  5
2B1
100
AcDbEntity
  8
0
100
AcDbLine
 62
7
  6
CONTINUOUS
 10
34.9599403622
 20
111.6125272331
 11
50.2599403622
 21
111.6125272331
  0
LINE
  5
2B2
100
AcDbEntity
  8
0
100
AcDbLine
 62
7
  6
CONTINUOUS
 10
35.8411016737
 20
161.2331934406
 11
35.6017739243
 21
161.47252119
  0
LINE
  5
2B3
100
AcDbEntity
  8
0
100
AcDbLine
 62
7
  6
CONTINUOUS
 10
84.2027124738
 20
74.5831653162
 11
84.1074634111
 21
72.6609426229
  0
LINE
  5
2B4
100
AcDbEntity
  8
0
100
AcDbLine
 62
7
  6
CONTINUOUS
 10
39.3107045429
 20
74.7651189327
 11
38.577612127
 21
74.0320265168
  0
LINE
  5
2B5
100
AcDbEntity
  8
0
100
AcDbLine
 62
7
  6
CONTINUOUS
 10
34.505196676
 20
114.7125272331
 11
50.7146840485
 21
114.7125272331
  0
LINE
  5
2B6
100
AcDbEntity
  8
0
100
AcDbLine
 62
7
  6
CONTINUOUS
 10
50.4266389112
 20
115.0005723704
 11
34.7932418132
 21
115.0005723704
  0
LINE
  5
2B7
100
AcDbEntity
  8
0
100
AcDbLine
 62
7
  6
CONTINUOUS
 10
34.7932418132
 20
118.1660737551
 11
37.2065130449
 21
118.1660737551
  0
LINE
  5
2B8
100
AcDbEntity
  8
0
100
AcDbLine
 62
7
  6
CONTINUOUS
 10
48.0133676796
 20
118.1660737551
 11
50.4266375617
 21
118.1660737551
  0
LINE
  5
2B9
100
AcDbEntity
  8
0
100
AcDbLine
 62
7
  6
CONTINUOUS
 10
38.734640319
 20
119.5125272331
 11
46.4852404054
 21
119.5125272331
  0
LINE
  5
2BA
100
AcDbEntity
  8
0
100
AcDbLine
 62
7
  6
CONTINUOUS
 10
39.4099403622
 20
120.0075272331
 11
45.8099403622
 21
120.0075272331
  0
LINE
  5
2BB
100
AcDbEntity
  8
0
100
AcDbLine
 62
7
  6
CONTINUOUS
 10
38.5853873959
 20
164.4852526805
 11
38.839274148
 21
164.2313659217
  0
LINE
  5
2BC
100
AcDbEntity
  8
0
100
AcDbLine
 62
7
  6
CONTINUOUS
 10
132.7806065765
 20
164.2313659217
 11
133.0344933285
 21
164.4852526805
  0
LINE
  5
2BD
100
AcDbEntity
  8
0
100
AcDbLine
 62
7
  6
CONTINUOUS
 10
136.0181068001
 20
161.47252119
 11
135.7787790508
 21
161.2331934479
  0
LINE
  5
2BE
100
AcDbEntity
  8
0
100
AcDbLine
 62
7
  6
CONTINUOUS
 10
45.8099403622
 20
120.2575164901
 11
39.4099403622
 21
120.2575164901
  0
LINE
  5
2BF
100
AcDbEntity
  8
0
100
AcDbLine
 62
7
  6
CONTINUOUS
 10
45.8099403622
 20
120.5325272331
 11
39.4099403622
 21
120.5325272331
  0
LINE
  5
2C0
100
AcDbEntity
  8
0
100
AcDbLine
 62
7
  6
CONTINUOUS
 10
45.3349403622
 20
120.5825272331
 11
39.8849403622
 21
120.5825272331
  0
LINE
  5
2C1
100
AcDbEntity
  8
0
100
AcDbLine
 62
7
  6
CONTINUOUS
 10
46.6349403622
 20
120.8925272331
 11
46.0599403622
 21
120.8925272331
  0
LINE
  5
2C2
100
AcDbEntity
  8
0
100
AcDbLine
 62
7
  6
CONTINUOUS
 10
39.1599403622
 20
120.8925272331
 11
38.6349403622
 21
120.8925272331
  0
LINE
  5
2C3
100
AcDbEntity
  8
0
100
AcDbLine
 62
7
  6
CONTINUOUS
 10
38.6349403622
 20
121.5289737873
 11
39.1599403622
 21
121.5289737873
  0
LINE
  5
2C4
100
AcDbEntity
  8
0
100
AcDbLine
 62
7
  6
CONTINUOUS
 10
46.0599403622
 20
121.5289737873
 11
46.6349403622
 21
121.5289737873
  0
LINE
  5
2C5
100
AcDbEntity
  8
0
100
AcDbLine
 62
7
  6
CONTINUOUS
 10
45.3349403622
 20
122.3325272331
 11
39.8849403622
 21
122.3325272331
  0
LINE
  5
2C6
100
AcDbEntity
  8
0
100
AcDbLine
 62
7
  6
CONTINUOUS
 10
40.0134938081
 20
122.3825272331
 11
45.2063869164
 21
122.3825272331
  0
LINE
  5
2C7
100
AcDbEntity
  8
0
100
AcDbLine
 62
7
  6
CONTINUOUS
 10
40.0134938081
 20
122.6575379761
 11
45.2063869164
 21
122.6575379761
  0
LINE
  5
2C8
100
AcDbEntity
  8
0
100
AcDbLine
 62
7
  6
CONTINUOUS
 10
45.2063869164
 20
122.9075272331
 11
40.0134938081
 21
122.9075272331
  0
LINE
  5
2C9
100
AcDbEntity
  8
0
100
AcDbLine
 62
7
  6
CONTINUOUS
 10
46.4852404054
 20
123.4125272331
 11
38.734640319
 21
123.4125272331
  0
LINE
  5
2CA
100
AcDbEntity
  8
0
100
AcDbLine
 62
7
  6
CONTINUOUS
 10
50.4266389112
 20
124.9125272331
 11
48.484640319
 21
124.9125272331
  0
LINE
  5
2CB
100
AcDbEntity
  8
0
100
AcDbLine
 62
7
  6
CONTINUOUS
 10
36.7352403994
 20
124.9125272331
 11
34.7932418132
 21
124.9125272331
  0
LINE
  5
2CC
100
AcDbEntity
  8
0
100
AcDbLine
 62
7
  6
CONTINUOUS
 10
133.0422685974
 20
74.0320265168
 11
132.3091761883
 21
74.7651189327
  0
LINE
  5
2CD
100
AcDbEntity
  8
0
100
AcDbLine
 62
7
  6
CONTINUOUS
 10
135.3073486626
 20
77.7632914214
 11
136.0235900524
 21
77.047050024
  0
LINE
  5
2CE
100
AcDbEntity
  8
0
100
AcDbLine
 62
7
  6
CONTINUOUS
 10
94.7099403622
 20
155.0710959972
 11
94.7099403622
 21
154.5647448395
  0
LINE
  5
2CF
100
AcDbEntity
  8
0
100
AcDbLine
 62
7
  6
CONTINUOUS
 10
95.2099403622
 20
154.5822052243
 11
95.2099403622
 21
155.0536356124
  0
LINE
  5
2D0
100
AcDbEntity
  8
0
100
AcDbLine
 62
7
  6
CONTINUOUS
 10
143.5329683324
 20
133.7625276294
 11
143.8099403622
 21
133.7770435981
  0
LINE
  5
2D1
100
AcDbEntity
  8
0
100
AcDbLine
 62
7
  6
CONTINUOUS
 10
34.7932418132
 20
127.6244820959
 11
50.4266389112
 21
127.6244820959
  0
LINE
  5
2D2
100
AcDbEntity
  8
0
100
AcDbLine
 62
7
  6
CONTINUOUS
 10
50.7146840485
 20
127.9125272331
 11
34.505196676
 21
127.9125272331
  0
LINE
  5
2D3
100
AcDbEntity
  8
0
100
AcDbLine
 62
7
  6
CONTINUOUS
 10
42.2335175157
 20
74.7402662333
 11
41.8099403622
 21
74.4571912772
  0
LINE
  5
2D4
100
AcDbEntity
  8
0
100
AcDbLine
 62
7
  6
CONTINUOUS
 10
27.8099403622
 20
133.7480089067
 11
28.0869434484
 21
133.762519713
  0
LINE
  5
2D5
100
AcDbEntity
  8
0
100
AcDbLine
 62
7
  6
CONTINUOUS
 10
143.8099403622
 20
134.0125272331
 11
143.5242230487
 21
134.0125272331
  0
LINE
  5
2D6
100
AcDbEntity
  8
0
100
AcDbLine
 62
7
  6
CONTINUOUS
 10
28.0956576758
 20
134.0125272331
 11
27.8099403622
 21
134.0125272331
  0
LINE
  5
2D7
100
AcDbEntity
  8
0
100
AcDbLine
 62
7
  6
CONTINUOUS
 10
115.3512071802
 20
154.6683295665
 11
115.4349403622
 21
154.9625272331
  0
LINE
  5
2D8
100
AcDbEntity
  8
0
100
AcDbLine
 62
7
  6
CONTINUOUS
 10
120.4524142133
 20
154.742840764
 11
120.5149403622
 21
154.9625272331
  0
LINE
  5
2D9
100
AcDbEntity
  8
0
100
AcDbLine
 62
7
  6
CONTINUOUS
 10
124.3099403622
 20
137.6625272331
 11
57.8099403622
 21
137.6625272331
  0
LINE
  5
2DA
100
AcDbEntity
  8
0
100
AcDbLine
 62
7
  6
CONTINUOUS
 10
27.8099403622
 20
141.5125272331
 11
28.0956576758
 21
141.5125272331
  0
LINE
  5
2DB
100
AcDbEntity
  8
0
100
AcDbLine
 62
7
  6
CONTINUOUS
 10
143.5242230487
 20
141.5125272332
 11
143.8099403622
 21
141.5125272332
  0
LINE
  5
2DC
100
AcDbEntity
  8
0
100
AcDbLine
 62
7
  6
CONTINUOUS
 10
28.0869434299
 20
141.7625347394
 11
27.8099403622
 21
141.7770455527
  0
LINE
  5
2DD
100
AcDbEntity
  8
0
100
AcDbLine
 62
7
  6
CONTINUOUS
 10
110.2599403622
 20
154.7603011487
 11
110.2599403622
 21
155.0641118433
  0
LINE
  5
2DE
100
AcDbEntity
  8
0
100
AcDbLine
 62
7
  6
CONTINUOUS
 10
110.7599403622
 20
154.742840764
 11
110.7599403622
 21
155.081572228
  0
LINE
  5
2DF
100
AcDbEntity
  8
0
100
AcDbLine
 62
7
  6
CONTINUOUS
 10
110.9199403622
 20
154.742840764
 11
110.9199403622
 21
154.9625272331
  0
LINE
  5
2E0
100
AcDbEntity
  8
0
100
AcDbLine
 62
7
  6
CONTINUOUS
 10
115.0099403622
 20
154.7253803792
 11
115.0099403622
 21
154.6834754558
  0
LINE
  5
2E1
100
AcDbEntity
  8
0
100
AcDbLine
 62
7
  6
CONTINUOUS
 10
125.5324142133
 20
154.742840764
 11
125.5949403622
 21
154.9625272331
  0
LINE
  5
2E2
100
AcDbEntity
  8
0
100
AcDbLine
 62
7
  6
CONTINUOUS
 10
143.8099403622
 20
141.7480108645
 11
143.5329683917
 21
141.7625268368
  0
LINE
  5
2E3
100
AcDbEntity
  8
0
100
AcDbLine
 62
7
  6
CONTINUOUS
 10
117.5099403622
 20
154.6834754558
 11
117.5099403622
 21
154.7253803792
  0
LINE
  5
2E4
100
AcDbEntity
  8
0
100
AcDbLine
 62
7
  6
CONTINUOUS
 10
27.5769522111
 20
152.7625272331
 11
28.9266362354
 21
152.7625272331
  0
LINE
  5
2E5
100
AcDbEntity
  8
0
100
AcDbLine
 62
7
  6
CONTINUOUS
 10
142.6932444891
 20
152.7625272331
 11
144.0429285133
 21
152.7625272337
  0
LINE
  5
2E6
100
AcDbEntity
  8
0
100
AcDbLine
 62
7
  6
CONTINUOUS
 10
30.3097844247
 20
154.14583136
 11
141.3099935982
 21
154.14583136
  0
LINE
  5
2E7
100
AcDbEntity
  8
0
100
AcDbLine
 62
7
  6
CONTINUOUS
 10
141.3099403622
 20
154.4456486081
 11
30.3099403651
 21
154.4456486081
  0
LINE
  5
2E8
100
AcDbEntity
  8
0
100
AcDbLine
 62
7
  6
CONTINUOUS
 10
94.7099403622
 20
154.5647448395
 11
78.1099403622
 21
154.5647448395
  0
LINE
  5
2E9
100
AcDbEntity
  8
0
100
AcDbLine
 62
7
  6
CONTINUOUS
 10
63.2599403622
 20
154.5647448395
 11
46.7599403622
 21
154.5647448395
  0
LINE
  5
2EA
100
AcDbEntity
  8
0
100
AcDbLine
 62
7
  6
CONTINUOUS
 10
121.5099403622
 20
154.7253803792
 11
121.5099403622
 21
154.6834754558
  0
LINE
  5
2EB
100
AcDbEntity
  8
0
100
AcDbLine
 62
7
  6
CONTINUOUS
 10
124.0099403622
 20
154.6834754558
 11
124.0099403622
 21
154.7253803792
  0
LINE
  5
2EC
100
AcDbEntity
  8
0
100
AcDbLine
 62
7
  6
CONTINUOUS
 10
125.8099403622
 20
98.7625272331
 11
125.8099403622
 21
136.1625272331
  0
LINE
  5
2ED
100
AcDbEntity
  8
0
100
AcDbLine
 62
7
  6
CONTINUOUS
 10
115.5099403622
 20
154.6660150711
 11
117.0099403622
 21
154.6660150711
  0
LINE
  5
2EE
100
AcDbEntity
  8
0
100
AcDbLine
 62
7
  6
CONTINUOUS
 10
122.0099403622
 20
154.6660150711
 11
123.5099403622
 21
154.6660150711
  0
LINE
  5
2EF
100
AcDbEntity
  8
0
100
AcDbLine
 62
7
  6
CONTINUOUS
 10
128.2599403622
 20
154.742840764
 11
124.5099403622
 21
154.742840764
  0
LINE
  5
2F0
100
AcDbEntity
  8
0
100
AcDbLine
 62
7
  6
CONTINUOUS
 10
121.0099403622
 20
154.742840764
 11
118.0099403622
 21
154.742840764
  0
LINE
  5
2F1
100
AcDbEntity
  8
0
100
AcDbLine
 62
7
  6
CONTINUOUS
 10
114.5099403622
 20
154.742840764
 11
110.7599403622
 21
154.742840764
  0
LINE
  5
2F2
100
AcDbEntity
  8
0
100
AcDbLine
 62
7
  6
CONTINUOUS
 10
110.9199403622
 20
154.9625272331
 11
128.1599403622
 21
154.9625272331
  0
LINE
  5
2F3
100
AcDbEntity
  8
0
100
AcDbLine
 62
7
  6
CONTINUOUS
 10
46.7599403622
 20
155.0710959972
 11
49.2496944087
 21
155.0710959972
  0
LINE
  5
2F4
100
AcDbEntity
  8
0
100
AcDbLine
 62
7
  6
CONTINUOUS
 10
50.3201863157
 20
155.0710959972
 11
59.6881944087
 21
155.0710959972
  0
LINE
  5
2F5
100
AcDbEntity
  8
0
100
AcDbLine
 62
7
  6
CONTINUOUS
 10
60.7586863157
 20
155.0710959972
 11
63.2599403622
 21
155.0710959972
  0
LINE
  5
2F6
100
AcDbEntity
  8
0
100
AcDbLine
 62
7
  6
CONTINUOUS
 10
78.1099403622
 20
155.0710959972
 11
94.7099403622
 21
155.0710959972
  0
LINE
  5
2F7
100
AcDbEntity
  8
0
100
AcDbLine
 62
7
  6
CONTINUOUS
 10
110.7599403622
 20
155.081572228
 11
128.2599403622
 21
155.081572228
  0
LINE
  5
2F8
100
AcDbEntity
  8
0
100
AcDbLine
 62
7
  6
CONTINUOUS
 10
136.6844760293
 20
155.221255306
 11
34.9354046952
 21
155.221255306
  0
LINE
  5
2F9
100
AcDbEntity
  8
0
100
AcDbLine
 62
7
  6
CONTINUOUS
 10
141.3099403622
 20
155.4761769233
 11
137.8099403622
 21
155.4761769233
  0
LINE
  5
2FA
100
AcDbEntity
  8
0
100
AcDbLine
 62
7
  6
CONTINUOUS
 10
33.8099403622
 20
155.4761769233
 11
30.3099403651
 21
155.4761769233
  0
LINE
  5
2FB
100
AcDbEntity
  8
0
100
AcDbLine
 62
7
  6
CONTINUOUS
 10
136.0219565556
 20
157.2625272331
 11
135.4789618027
 21
157.2625272331
  0
LINE
  5
2FC
100
AcDbEntity
  8
0
100
AcDbLine
 62
7
  6
CONTINUOUS
 10
36.1409189218
 20
157.2625272331
 11
35.5979241689
 21
157.2625272331
  0
LINE
  5
2FD
100
AcDbEntity
  8
0
100
AcDbLine
 62
7
  6
CONTINUOUS
 10
113.4849403622
 20
154.9625272331
 11
113.5474665111
 21
154.742840764
  0
LINE
  5
2FE
100
AcDbEntity
  8
0
100
AcDbLine
 62
7
  6
CONTINUOUS
 10
128.1599403622
 20
154.9625272331
 11
128.1599403622
 21
154.742840764
  0
LINE
  5
2FF
100
AcDbEntity
  8
0
100
AcDbLine
 62
7
  6
CONTINUOUS
 10
128.2599403622
 20
155.081572228
 11
128.2599403622
 21
154.742840764
  0
LINE
  5
300
100
AcDbEntity
  8
0
100
AcDbLine
 62
7
  6
CONTINUOUS
 10
128.7599403622
 20
154.7603011487
 11
128.7599403622
 21
155.0641118433
  0
LINE
  5
301
100
AcDbEntity
  8
0
100
AcDbLine
 62
7
  6
CONTINUOUS
 10
128.9099403622
 20
164.2317427131
 11
128.9099403622
 21
165.2625272331
  0
LINE
  5
302
100
AcDbEntity
  8
0
100
AcDbLine
 62
7
  6
CONTINUOUS
 10
130.7099403622
 20
165.2625272331
 11
130.7099403622
 21
164.2317427131
  0
LINE
  5
303
100
AcDbEntity
  8
0
100
AcDbLine
 62
7
  6
CONTINUOUS
 10
132.3091762264
 20
75.0649361808
 11
132.3091762264
 21
74.7651189327
  0
LINE
  5
304
100
AcDbEntity
  8
0
100
AcDbLine
 62
7
  6
CONTINUOUS
 10
130.7099403622
 20
164.2315486736
 11
130.5099403622
 21
164.2304880146
  0
LINE
  5
305
100
AcDbEntity
  8
0
100
AcDbLine
 62
7
  6
CONTINUOUS
 10
42.7099403622
 20
164.2315486736
 11
42.5099403622
 21
164.2304880146
  0
LINE
  5
306
100
AcDbEntity
  8
0
100
AcDbLine
 62
7
  6
CONTINUOUS
 10
135.4789618027
 20
161.2331934885
 11
135.7787790508
 21
161.2331934885
  0
LINE
  5
307
100
AcDbEntity
  8
0
100
AcDbLine
 62
7
  6
CONTINUOUS
 10
35.8411016737
 20
161.2331934426
 11
36.1409189218
 21
161.2332294295
  0
LINE
  5
308
100
AcDbEntity
  8
0
100
AcDbLine
 62
7
  6
CONTINUOUS
 10
27.3623215165
 20
161.762527231
 11
27.5851821039
 21
161.762527231
  0
LINE
  5
309
100
AcDbEntity
  8
0
100
AcDbLine
 62
7
  6
CONTINUOUS
 10
144.0346986206
 20
161.7625272331
 11
144.257559208
 21
161.7625272331
  0
LINE
  5
30A
100
AcDbEntity
  8
0
100
AcDbLine
 62
7
  6
CONTINUOUS
 10
38.8394887779
 20
163.9315486736
 11
132.7804781583
 21
163.9315486736
  0
LINE
  5
30B
100
AcDbEntity
  8
0
100
AcDbLine
 62
7
  6
CONTINUOUS
 10
30.3080286247
 20
163.9724687928
 11
36.9501152514
 21
163.9724687928
  0
LINE
  5
30C
100
AcDbEntity
  8
0
100
AcDbLine
 62
7
  6
CONTINUOUS
 10
134.6697654731
 20
163.9724687928
 11
141.3102591862
 21
163.9724687928
  0
LINE
  5
30D
100
AcDbEntity
  8
0
100
AcDbLine
 62
7
  6
CONTINUOUS
 10
41.1099403622
 20
164.2304880146
 11
42.5099403622
 21
164.2304880146
  0
LINE
  5
30E
100
AcDbEntity
  8
0
100
AcDbLine
 62
7
  6
CONTINUOUS
 10
129.1180301322
 20
164.2304888518
 11
130.5099403622
 21
164.2304880146
  0
LINE
  5
30F
100
AcDbEntity
  8
0
100
AcDbLine
 62
7
  6
CONTINUOUS
 10
128.9099403622
 20
164.2314710883
 11
42.7099403622
 21
164.2314710234
  0
LINE
  5
310
100
AcDbEntity
  8
0
100
AcDbLine
 62
7
  6
CONTINUOUS
 10
141.3099403609
 20
164.4852526805
 11
133.0344933285
 21
164.4852526805
  0
LINE
  5
311
100
AcDbEntity
  8
0
100
AcDbLine
 62
7
  6
CONTINUOUS
 10
38.5853873959
 20
164.4852526805
 11
30.3099403623
 21
164.4852526805
  0
LINE
  5
312
100
AcDbEntity
  8
0
100
AcDbLine
 62
7
  6
CONTINUOUS
 10
141.309940362
 20
164.7101460789
 11
130.7099403622
 21
164.7101460789
  0
LINE
  5
313
100
AcDbEntity
  8
0
100
AcDbLine
 62
7
  6
CONTINUOUS
 10
128.9099403622
 20
164.7101460789
 11
42.7099403622
 21
164.7101460789
  0
LINE
  5
314
100
AcDbEntity
  8
0
100
AcDbLine
 62
7
  6
CONTINUOUS
 10
40.9099403622
 20
164.7101460789
 11
30.3099403623
 21
164.7101460789
  0
LINE
  5
315
100
AcDbEntity
  8
0
100
AcDbLine
 62
7
  6
CONTINUOUS
 10
40.9099403622
 20
165.2625272331
 11
42.7099403622
 21
165.2625272331
  0
LINE
  5
316
100
AcDbEntity
  8
0
100
AcDbLine
 62
7
  6
CONTINUOUS
 10
128.9099403622
 20
165.2625272331
 11
130.7099403622
 21
165.2625272331
  0
LINE
  5
317
100
AcDbEntity
  8
0
100
AcDbLine
 62
7
  6
CONTINUOUS
 10
129.1180301322
 20
164.2304888518
 11
128.9099403622
 21
164.2315487126
  0
LINE
  5
318
100
AcDbEntity
  8
0
100
AcDbLine
 62
7
  6
CONTINUOUS
 10
41.1099403622
 20
164.2304880146
 11
40.9099403622
 21
164.2315486736
  0
LINE
  5
319
100
AcDbEntity
  8
0
100
AcDbLine
 62
7
  6
CONTINUOUS
 10
118.5649403622
 20
154.9625272331
 11
118.6274665111
 21
154.742840764
  0
LINE
  5
31A
100
AcDbEntity
  8
0
100
AcDbLine
 62
7
  6
CONTINUOUS
 10
123.6449403622
 20
154.9625272331
 11
123.7284397397
 21
154.669151042
  0
LINE
  5
31B
100
AcDbEntity
  8
0
100
AcDbLine
 62
7
  6
CONTINUOUS
 10
136.0219565556
 20
157.2625272331
 11
136.0181068001
 21
161.47252119
  0
LINE
  5
31C
100
AcDbEntity
  8
0
100
AcDbLine
 62
7
  6
CONTINUOUS
 10
132.7806065715
 20
164.2313659217
 11
132.7806453506
 21
163.9315486736
  0
LINE
  5
31D
100
AcDbEntity
  8
0
100
AcDbLine
 62
7
  6
CONTINUOUS
 10
135.0075233408
 20
80.2626022783
 11
135.0075233408
 21
77.7633424974
  0
LINE
  5
31E
100
AcDbEntity
  8
0
100
AcDbLine
 62
7
  6
CONTINUOUS
 10
135.3073486626
 20
77.7632914214
 11
135.3073486626
 21
80.2625272331
  0
LINE
  5
31F
100
AcDbEntity
  8
0
100
AcDbLine
 62
7
  6
CONTINUOUS
 10
135.4789496951
 20
161.2330883661
 11
135.4789618027
 21
157.2625135833
  0
LINE
  5
320
100
AcDbEntity
  8
0
100
AcDbLine
 62
7
  6
CONTINUOUS
 10
135.7787790508
 20
157.2625272331
 11
135.7787790508
 21
161.2331934479
  0
LINE
  5
321
100
AcDbEntity
  8
0
100
AcDbLine
 62
7
  6
CONTINUOUS
 10
136.0235900524
 20
77.047050024
 11
136.0235900524
 21
80.2625272331
  0
LINE
  5
322
100
AcDbEntity
  8
0
100
AcDbLine
 62
7
  6
CONTINUOUS
 10
137.8099403622
 20
82.0488775429
 11
137.8099403622
 21
82.7651189327
  0
LINE
  5
323
100
AcDbEntity
  8
0
100
AcDbLine
 62
7
  6
CONTINUOUS
 10
137.8099403622
 20
155.2313659217
 11
137.8099403622
 21
155.4761769233
  0
LINE
  5
324
100
AcDbEntity
  8
0
100
AcDbLine
 62
7
  6
CONTINUOUS
 10
143.535001732
 20
161.7510518894
 11
143.5418079083
 21
154.3079917665
  0
LINE
  5
325
100
AcDbEntity
  8
0
100
AcDbLine
 62
7
  6
CONTINUOUS
 10
144.0346986206
 20
161.7625272331
 11
144.0429285133
 21
152.7625272337
  0
LINE
  5
326
100
AcDbEntity
  8
0
100
AcDbLine
 62
7
  6
CONTINUOUS
 10
141.309940362
 20
164.7101460789
 11
141.3099403602
 21
163.9724687928
  0
LINE
  5
327
100
AcDbEntity
  8
0
100
AcDbLine
 62
7
  6
CONTINUOUS
 10
141.3099403622
 20
155.4761769233
 11
141.3099403622
 21
154.14583136
  0
LINE
  5
328
100
AcDbEntity
  8
0
100
AcDbLine
 62
7
  6
CONTINUOUS
 10
141.3099403622
 20
83.3792231062
 11
141.3099403626
 21
82.0488775429
  0
LINE
  5
329
100
AcDbEntity
  8
0
100
AcDbLine
 62
7
  6
CONTINUOUS
 10
141.3099403622
 20
74.5317219304
 11
141.3099403622
 21
73.8149083874
  0
LINE
  5
32A
100
AcDbEntity
  8
0
100
AcDbLine
 62
7
  6
CONTINUOUS
 10
142.6932444891
 20
152.7626836026
 11
142.6932444891
 21
84.7624739295
  0
LINE
  5
32B
100
AcDbEntity
  8
0
100
AcDbLine
 62
7
  6
CONTINUOUS
 10
142.9930617372
 20
84.7625272331
 11
142.9930617372
 21
152.7625272335
  0
LINE
  5
32C
100
AcDbEntity
  8
0
100
AcDbLine
 62
7
  6
CONTINUOUS
 10
143.5242230487
 20
141.5125272332
 11
143.5242230487
 21
134.0125272331
  0
LINE
  5
32D
100
AcDbEntity
  8
0
100
AcDbLine
 62
7
  6
CONTINUOUS
 10
143.5242230487
 20
104.5125272332
 11
143.5242230487
 21
97.0125272331
  0
LINE
  5
32E
100
AcDbEntity
  8
0
100
AcDbLine
 62
7
  6
CONTINUOUS
 10
143.540745665
 20
83.2174051208
 11
143.540745665
 21
76.7624680193
  0
LINE
  5
32F
100
AcDbEntity
  8
0
100
AcDbLine
 62
7
  6
CONTINUOUS
 10
143.8099403622
 20
96.7771359244
 11
143.8099403622
 21
104.7479218419
  0
LINE
  5
330
100
AcDbEntity
  8
0
100
AcDbLine
 62
7
  6
CONTINUOUS
 10
143.8099403622
 20
133.7771359647
 11
143.8099403622
 21
141.7479218197
  0
LINE
  5
331
100
AcDbEntity
  8
0
100
AcDbLine
 62
7
  6
CONTINUOUS
 10
144.0404410785
 20
76.7625272358
 11
144.0404410785
 21
84.7625272331
  0
LINE
  5
332
100
AcDbEntity
  8
0
100
AcDbLine
 62
7
  6
CONTINUOUS
 10
144.6099403622
 20
173.0625272331
 11
27.0099403622
 21
173.0625272331
  0
LINE
  5
333
100
AcDbEntity
  8
0
100
AcDbLine
 62
7
  6
CONTINUOUS
 10
145.0599403622
 20
173.5125272331
 11
26.5599403622
 21
173.5125272331
  0
LINE
  5
334
100
AcDbEntity
  8
0
100
AcDbLine
 62
7
  6
CONTINUOUS
 10
144.257559208
 20
76.7625272358
 11
144.257559208
 21
161.7625272331
  0
LINE
  5
335
100
AcDbEntity
  8
0
100
AcDbLine
 62
7
  6
CONTINUOUS
 10
152.6099403622
 20
73.4625272331
 11
152.6099403622
 21
165.0625272331
  0
LINE
  5
336
100
AcDbEntity
  8
0
100
AcDbLine
 62
7
  6
CONTINUOUS
 10
153.0599403622
 20
73.0125272331
 11
153.0599403622
 21
165.5125272331
  0
ARC
  5
337
100
AcDbEntity
  8
0
100
AcDbCircle
 62
7
  6
CONTINUOUS
 10
26.5599403622
 20
73.0125272331
 40
8.0
100
AcDbArc
 50
180.0
 51
270.0
  0
ARC
  5
338
100
AcDbEntity
  8
0
100
AcDbCircle
 62
7
  6
CONTINUOUS
 10
27.0099403622
 20
73.4625272331
 40
8.0
100
AcDbArc
 50
180.0
 51
270.0
  0
ARC
  5
339
100
AcDbEntity
  8
0
100
AcDbCircle
 62
7
  6
CONTINUOUS
 10
39.3104948911
 20
77.7630811503
 40
2.997943045
100
AcDbArc
 50
179.9959694984
 51
270.0040071209
  0
ARC
  5
33A
100
AcDbEntity
  8
0
100
AcDbCircle
 62
7
  6
CONTINUOUS
 10
30.3099403622
 20
76.7625272331
 40
2.9476188458
100
AcDbArc
 50
180.0000000006
 51
269.9999999985
  0
ARC
  5
33B
100
AcDbEntity
  8
0
100
AcDbCircle
 62
7
  6
CONTINUOUS
 10
33.8099403622
 20
80.2625272331
 40
2.8024450343
100
AcDbArc
 50
0.0039811708
 51
63.7164278563
  0
CIRCLE
  5
33C
100
AcDbEntity
  8
0
100
AcDbCircle
 62
7
  6
CONTINUOUS
 10
31.3099403622
 20
77.7625272331
 40
2.8
  0
ARC
  5
33D
100
AcDbEntity
  8
0
100
AcDbCircle
 62
7
  6
CONTINUOUS
 10
30.3099403622
 20
76.7625272331
 40
2.7305007163
100
AcDbArc
 50
180.0
 51
269.9999999991
  0
ARC
  5
33E
100
AcDbEntity
  8
0
100
AcDbCircle
 62
7
  6
CONTINUOUS
 10
30.3099403622
 20
84.7625272331
 40
2.7136496902
100
AcDbArc
 50
214.7076254549
 51
270.0000000003
  0
ARC
  5
33F
100
AcDbEntity
  8
0
100
AcDbCircle
 62
7
  6
CONTINUOUS
 10
39.3100357717
 20
77.7626276239
 40
2.6975601234
100
AcDbArc
 50
179.9836835984
 51
270.015457524
  0
ARC
  5
340
100
AcDbEntity
  8
0
100
AcDbCircle
 62
7
  6
CONTINUOUS
 10
33.8099403622
 20
80.2625272331
 40
2.5025916996
100
AcDbArc
 50
0.0
 51
90.0
  0
ARC
  5
341
100
AcDbEntity
  8
0
100
AcDbCircle
 62
7
  6
CONTINUOUS
 10
30.3099403622
 20
76.7625272331
 40
2.2309350603
100
AcDbArc
 50
180.0064410377
 51
269.9984820087
  0
ARC
  5
342
100
AcDbEntity
  8
0
100
AcDbCircle
 62
7
  6
CONTINUOUS
 10
33.8099403622
 20
80.2625272331
 40
1.7863503098
100
AcDbArc
 50
0.0000000004
 51
90.0000000001
  0
ARC
  5
343
100
AcDbEntity
  8
0
100
AcDbCircle
 62
7
  6
CONTINUOUS
 10
30.3099403622
 20
84.7625272331
 40
1.683121375
100
AcDbArc
 50
180.0
 51
270.0
  0
ARC
  5
344
100
AcDbEntity
  8
0
100
AcDbCircle
 62
7
  6
CONTINUOUS
 10
57.3099403622
 20
98.7625272331
 40
1.5
100
AcDbArc
 50
180.0
 51
270.0
  0
ARC
  5
345
100
AcDbEntity
  8
0
100
AcDbCircle
 62
7
  6
CONTINUOUS
 10
30.3099403622
 20
84.7625272331
 40
1.3833954047
100
AcDbArc
 50
180.0064725476
 51
269.9977922132
  0
ARC
  5
346
100
AcDbEntity
  8
0
100
AcDbCircle
 62
7
  6
CONTINUOUS
 10
36.7352404054
 20
118.8125272331
 40
0.8
100
AcDbArc
 50
306.0925150775
 51
320.1944291271
  0
ARC
  5
347
100
AcDbEntity
  8
0
100
AcDbCircle
 62
7
  6
CONTINUOUS
 10
38.734640319
 20
118.7125272331
 40
0.8
100
AcDbArc
 50
90.0
 51
140.1944289086
  0
ARC
  5
348
100
AcDbEntity
  8
0
100
AcDbCircle
 62
7
  6
CONTINUOUS
 10
46.4852404054
 20
118.7125272331
 40
0.8
100
AcDbArc
 50
39.8055710914
 51
90.0
  0
ARC
  5
349
100
AcDbEntity
  8
0
100
AcDbCircle
 62
7
  6
CONTINUOUS
 10
48.484640319
 20
118.8125272331
 40
0.8
100
AcDbArc
 50
219.8055710894
 51
233.9074849225
  0
ARC
  5
34A
100
AcDbEntity
  8
0
100
AcDbCircle
 62
7
  6
CONTINUOUS
 10
26.5599403622
 20
165.5125272331
 40
8.0
100
AcDbArc
 50
90.0
 51
180.0
  0
ARC
  5
34B
100
AcDbEntity
  8
0
100
AcDbCircle
 62
7
  6
CONTINUOUS
 10
27.0099403622
 20
165.0625272331
 40
8.0
100
AcDbArc
 50
90.0
 51
180.0
  0
ARC
  5
34C
100
AcDbEntity
  8
0
100
AcDbCircle
 62
7
  6
CONTINUOUS
 10
60.2234403622
 20
151.2275272331
 40
3.987
100
AcDbArc
 50
60.0
 51
120.0
  0
ARC
  5
34D
100
AcDbEntity
  8
0
100
AcDbCircle
 62
7
  6
CONTINUOUS
 10
49.7849403622
 20
151.2275272331
 40
3.987
100
AcDbArc
 50
60.0
 51
120.0
  0
ARC
  5
34E
100
AcDbEntity
  8
0
100
AcDbCircle
 62
7
  6
CONTINUOUS
 10
38.8391188784
 20
161.2333481095
 40
2.9980106664
100
AcDbArc
 50
89.9970208224
 51
180.0029560218
  0
ARC
  5
34F
100
AcDbEntity
  8
0
100
AcDbCircle
 62
7
  6
CONTINUOUS
 10
30.3099403622
 20
161.7625272331
 40
2.9476188458
100
AcDbArc
 50
89.9999999995
 51
179.9999999994
  0
CIRCLE
  5
350
100
AcDbEntity
  8
0
100
AcDbCircle
 62
7
  6
CONTINUOUS
 10
31.3099403622
 20
160.7625272331
 40
2.8
  0
ARC
  5
351
100
AcDbEntity
  8
0
100
AcDbCircle
 62
7
  6
CONTINUOUS
 10
30.3099391339
 20
161.760494998
 40
2.7247577669
100
AcDbArc
 50
89.9999741705
 51
179.9572664737
  0
ARC
  5
352
100
AcDbEntity
  8
0
100
AcDbCircle
 62
7
  6
CONTINUOUS
 10
38.8385993576
 20
161.2338633336
 40
2.6975520939
100
AcDbArc
 50
89.9811097231
 51
180.0153111171
  0
ARC
  5
353
100
AcDbEntity
  8
0
100
AcDbCircle
 62
7
  6
CONTINUOUS
 10
33.8099403622
 20
157.2625272331
 40
2.3310122899
100
AcDbArc
 50
298.8704366256
 51
359.9988269634
  0
ARC
  5
354
100
AcDbEntity
  8
0
100
AcDbCircle
 62
7
  6
CONTINUOUS
 10
33.8099403622
 20
157.2625272331
 40
2.0311613115
100
AcDbArc
 50
270.0
 51
360.0
  0
ARC
  5
355
100
AcDbEntity
  8
0
100
AcDbCircle
 62
7
  6
CONTINUOUS
 10
30.3099403622
 20
152.7625272331
 40
1.683121375
100
AcDbArc
 50
89.9999999237
 51
180.0
  0
ARC
  5
356
100
AcDbEntity
  8
0
100
AcDbCircle
 62
7
  6
CONTINUOUS
 10
30.3099403622
 20
152.7625272331
 40
1.3833953507
100
AcDbArc
 50
90.0064588567
 51
179.9978054834
  0
ARC
  5
357
100
AcDbEntity
  8
0
100
AcDbCircle
 62
7
  6
CONTINUOUS
 10
36.7352404054
 20
124.1125272331
 40
0.8
100
AcDbArc
 50
39.8055710913
 51
90.0
  0
ARC
  5
358
100
AcDbEntity
  8
0
100
AcDbCircle
 62
7
  6
CONTINUOUS
 10
48.484640319
 20
124.1125272331
 40
0.8
100
AcDbArc
 50
90.0
 51
140.1944291252
  0
ARC
  5
359
100
AcDbEntity
  8
0
100
AcDbCircle
 62
7
  6
CONTINUOUS
 10
46.4852404054
 20
124.2125272331
 40
0.8
100
AcDbArc
 50
270.0
 51
320.1944289087
  0
ARC
  5
35A
100
AcDbEntity
  8
0
100
AcDbCircle
 62
7
  6
CONTINUOUS
 10
38.734640319
 20
124.2125272331
 40
0.8
100
AcDbArc
 50
219.8055710913
 51
270.0
  0
ARC
  5
35B
100
AcDbEntity
  8
0
100
AcDbCircle
 62
7
  6
CONTINUOUS
 10
39.4099403622
 20
121.5289737873
 40
0.55
100
AcDbArc
 50
135.0000000008
 51
180.0
  0
ARC
  5
35C
100
AcDbEntity
  8
0
100
AcDbCircle
 62
7
  6
CONTINUOUS
 10
40.0134938081
 20
122.1325272331
 40
0.55
100
AcDbArc
 50
90.0
 51
134.9999999994
  0
ARC
  5
35D
100
AcDbEntity
  8
0
100
AcDbCircle
 62
7
  6
CONTINUOUS
 10
45.2063869164
 20
122.1325272331
 40
0.55
100
AcDbArc
 50
44.9999999998
 51
90.0
  0
ARC
  5
35E
100
AcDbEntity
  8
0
100
AcDbCircle
 62
7
  6
CONTINUOUS
 10
45.8099403622
 20
121.5289737873
 40
0.55
100
AcDbArc
 50
0.0
 51
45.0000000002
  0
ARC
  5
35F
100
AcDbEntity
  8
0
100
AcDbCircle
 62
7
  6
CONTINUOUS
 10
45.8099403622
 20
120.7825272331
 40
0.55
100
AcDbArc
 50
270.0
 51
360.0
  0
ARC
  5
360
100
AcDbEntity
  8
0
100
AcDbCircle
 62
7
  6
CONTINUOUS
 10
39.4099403622
 20
120.7825272331
 40
0.55
100
AcDbArc
 50
180.0
 51
270.0
  0
ARC
  5
361
100
AcDbEntity
  8
0
100
AcDbCircle
 62
7
  6
CONTINUOUS
 10
40.0134938081
 20
122.1325272331
 40
0.25
100
AcDbArc
 50
90.0
 51
105.189535789
  0
ARC
  5
362
100
AcDbEntity
  8
0
100
AcDbCircle
 62
7
  6
CONTINUOUS
 10
39.4099403622
 20
121.5289737873
 40
0.25
100
AcDbArc
 50
134.9999999995
 51
180.0
  0
ARC
  5
363
100
AcDbEntity
  8
0
100
AcDbCircle
 62
7
  6
CONTINUOUS
 10
45.8099403622
 20
121.5289737873
 40
0.25
100
AcDbArc
 50
0.0
 51
45.0000000007
  0
ARC
  5
364
100
AcDbEntity
  8
0
100
AcDbCircle
 62
7
  6
CONTINUOUS
 10
45.2063869164
 20
122.1325272331
 40
0.25
100
AcDbArc
 50
44.9999999992
 51
90.0
  0
ARC
  5
365
100
AcDbEntity
  8
0
100
AcDbCircle
 62
7
  6
CONTINUOUS
 10
45.8099403622
 20
120.7825272331
 40
0.25
100
AcDbArc
 50
270.0
 51
0.0013652003
  0
ARC
  5
366
100
AcDbEntity
  8
0
100
AcDbCircle
 62
7
  6
CONTINUOUS
 10
39.4099403622
 20
120.7825272331
 40
0.25
100
AcDbArc
 50
179.9997118346
 51
270.0
  0
ARC
  5
367
100
AcDbEntity
  8
0
100
AcDbCircle
 62
7
  6
CONTINUOUS
 10
145.0599403622
 20
73.0125272331
 40
8.0
100
AcDbArc
 50
270.0
 51
360.0
  0
ARC
  5
368
100
AcDbEntity
  8
0
100
AcDbCircle
 62
7
  6
CONTINUOUS
 10
144.6099403622
 20
73.4625272331
 40
8.0
100
AcDbArc
 50
270.0
 51
360.0
  0
ARC
  5
369
100
AcDbEntity
  8
0
100
AcDbCircle
 62
7
  6
CONTINUOUS
 10
132.3093864357
 20
77.7630817672
 40
2.997943042
100
AcDbArc
 50
269.9959698215
 51
0.0040070219
  0
ARC
  5
36A
100
AcDbEntity
  8
0
100
AcDbCircle
 62
7
  6
CONTINUOUS
 10
141.3099403622
 20
76.7625272331
 40
2.9476188458
100
AcDbArc
 50
270.0000000004
 51
359.9999999996
  0
ARC
  5
36B
100
AcDbEntity
  8
0
100
AcDbCircle
 62
7
  6
CONTINUOUS
 10
137.8099403622
 20
80.2625272331
 40
2.8024514359
100
AcDbArc
 50
116.282527035
 51
179.9984656914
  0
CIRCLE
  5
36C
100
AcDbEntity
  8
0
100
AcDbCircle
 62
7
  6
CONTINUOUS
 10
140.3099403622
 20
77.7625272331
 40
2.8
  0
ARC
  5
36D
100
AcDbEntity
  8
0
100
AcDbCircle
 62
7
  6
CONTINUOUS
 10
141.3099403622
 20
76.7625272331
 40
2.7305007163
100
AcDbArc
 50
270.0
 51
360.0
  0
ARC
  5
36E
100
AcDbEntity
  8
0
100
AcDbCircle
 62
7
  6
CONTINUOUS
 10
141.3099403622
 20
84.7625272331
 40
2.7136496902
100
AcDbArc
 50
270.0000000079
 51
325.2923745451
  0
ARC
  5
36F
100
AcDbEntity
  8
0
100
AcDbCircle
 62
7
  6
CONTINUOUS
 10
132.3098514574
 20
77.762621041
 40
2.6975514903
100
AcDbArc
 50
269.9826084386
 51
0.0153229939
  0
ARC
  5
370
100
AcDbEntity
  8
0
100
AcDbCircle
 62
7
  6
CONTINUOUS
 10
137.8099403622
 20
80.2625272331
 40
2.5025916996
100
AcDbArc
 50
90.0
 51
180.0
  0
ARC
  5
371
100
AcDbEntity
  8
0
100
AcDbCircle
 62
7
  6
CONTINUOUS
 10
141.3099403622
 20
76.7625272331
 40
2.2309350626
100
AcDbArc
 50
270.0064375756
 51
359.9984791592
  0
ARC
  5
372
100
AcDbEntity
  8
0
100
AcDbCircle
 62
7
  6
CONTINUOUS
 10
137.8099403622
 20
80.2625272331
 40
1.7863503098
100
AcDbArc
 50
90.0000000002
 51
179.9999999993
  0
ARC
  5
373
100
AcDbEntity
  8
0
100
AcDbCircle
 62
7
  6
CONTINUOUS
 10
141.3099403622
 20
84.7625272331
 40
1.683121375
100
AcDbArc
 50
270.0000000101
 51
360.0
  0
ARC
  5
374
100
AcDbEntity
  8
0
100
AcDbCircle
 62
7
  6
CONTINUOUS
 10
124.3099403622
 20
98.7625272331
 40
1.5
100
AcDbArc
 50
270.0
 51
360.0
  0
ARC
  5
375
100
AcDbEntity
  8
0
100
AcDbCircle
 62
7
  6
CONTINUOUS
 10
141.3099403622
 20
84.7625272331
 40
1.3833954047
100
AcDbArc
 50
270.0064725483
 51
359.9977921905
  0
ARC
  5
376
100
AcDbEntity
  8
0
100
AcDbCircle
 62
7
  6
CONTINUOUS
 10
145.0599403622
 20
165.5125272331
 40
8.0
100
AcDbArc
 50
0.0
 51
90.0
  0
ARC
  5
377
100
AcDbEntity
  8
0
100
AcDbCircle
 62
7
  6
CONTINUOUS
 10
144.6099403622
 20
165.0625272331
 40
8.0
100
AcDbArc
 50
0.0
 51
90.0
  0
ARC
  5
378
100
AcDbEntity
  8
0
100
AcDbCircle
 62
7
  6
CONTINUOUS
 10
132.780761279
 20
161.2333487616
 40
2.998010626
100
AcDbArc
 50
359.9970198958
 51
90.0029567295
  0
ARC
  5
379
100
AcDbEntity
  8
0
100
AcDbCircle
 62
7
  6
CONTINUOUS
 10
141.3099403622
 20
161.7625272331
 40
2.9476188458
100
AcDbArc
 50
0.0000000003
 51
90.0000000045
  0
CIRCLE
  5
37A
100
AcDbEntity
  8
0
100
AcDbCircle
 62
7
  6
CONTINUOUS
 10
140.3099403622
 20
160.7625272331
 40
2.8
  0
ARC
  5
37B
100
AcDbEntity
  8
0
100
AcDbCircle
 62
7
  6
CONTINUOUS
 10
141.3099440893
 20
161.76049392
 40
2.7247587775
100
AcDbArc
 50
0.0427561772
 51
90.0000783883
  0
ARC
  5
37C
100
AcDbEntity
  8
0
100
AcDbCircle
 62
7
  6
CONTINUOUS
 10
132.78127486
 20
161.2338567484
 40
2.6975607221
100
AcDbArc
 50
359.9836803685
 51
90.0169209997
  0
ARC
  5
37D
100
AcDbEntity
  8
0
100
AcDbCircle
 62
7
  6
CONTINUOUS
 10
137.8099403622
 20
157.2625272331
 40
2.3310120358
100
AcDbArc
 50
180.0003355134
 51
241.1292400896
  0
ARC
  5
37E
100
AcDbEntity
  8
0
100
AcDbCircle
 62
7
  6
CONTINUOUS
 10
137.8099403622
 20
157.2625272331
 40
2.0311613115
100
AcDbArc
 50
180.0
 51
270.0
  0
ARC
  5
37F
100
AcDbEntity
  8
0
100
AcDbCircle
 62
7
  6
CONTINUOUS
 10
141.3099403622
 20
152.7625272331
 40
1.683121375
100
AcDbArc
 50
0.0000000131
 51
90.0
  0
ARC
  5
380
100
AcDbEntity
  8
0
100
AcDbCircle
 62
7
  6
CONTINUOUS
 10
124.3099403622
 20
136.1625272331
 40
1.5
100
AcDbArc
 50
0.0
 51
90.0
  0
ARC
  5
381
100
AcDbEntity
  8
0
100
AcDbCircle
 62
7
  6
CONTINUOUS
 10
141.3099403622
 20
152.7625272331
 40
1.3833954026
100
AcDbArc
 50
0.0064767457
 51
89.9977949938
  0
SPLINE
  5
382
100
AcDbEntity
  8
0
100
AcDbSpline
 62
7
  6
CONTINUOUS
 70
0
 71
3
 72
17
 73
13
 74
0
 42
0.0000001
 43
0.0000001
 44
0.0000000001
 40
0.0
 40
0.0
 40
0.0
 40
0.0
 40
0.0061668162
 40
0.0213428478
 40
0.0456839717
 40
0.0789417016
 40
0.1709145342
 40
0.2943668349
 40
0.4456688384
 40
0.6185904442
 40
0.8060028892
 40
1.0
 40
1.0
 40
1.0
 40
1.0
 10
63.7599403622
 20
154.5822052243
 30
0.0
 10
63.7598760369
 20
154.581177168
 30
0.0
 10
63.7552990743
 20
154.5799308326
 30
0.0
 10
63.7488353809
 20
154.5784502076
 30
0.0
 10
63.7362245259
 20
154.5769012176
 30
0.0
 10
63.7116670368
 20
154.5745691146
 30
0.0
 10
63.6699671934
 20
154.5720668035
 30
0.0
 10
63.6088677798
 20
154.5695405552
 30
0.0
 10
63.5340782798
 20
154.5674939378
 30
0.0
 10
63.4486436887
 20
154.5659460367
 30
0.0
 10
63.3560519767
 20
154.564977271
 30
0.0
 10
63.2923444375
 20
154.5647473168
 30
0.0
 10
63.2599403622
 20
154.5647448395
 30
0.0
  0
SPLINE
  5
383
100
AcDbEntity
  8
0
100
AcDbSpline
 62
7
  6
CONTINUOUS
 70
0
 71
3
 72
17
 73
13
 74
0
 42
0.0000001
 43
0.0000001
 44
0.0000000001
 40
0.0
 40
0.0
 40
0.0
 40
0.0
 40
0.1940223347
 40
0.3814843614
 40
0.554432064
 40
0.7057556161
 40
0.8291857743
 40
0.9210907951
 40
0.9543287952
 40
0.9786603291
 40
0.9938333127
 40
1.0
 40
1.0
 40
1.0
 40
1.0
 10
46.7599403622
 20
154.5647448395
 30
0.0
 10
46.7275320764
 20
154.5647473136
 30
0.0
 10
46.6638120484
 20
154.5649773465
 30
0.0
 10
46.5712034872
 20
154.5659462617
 30
0.0
 10
46.4857526901
 20
154.5674958301
 30
0.0
 10
46.4109589495
 20
154.5695426583
 30
0.0
 10
46.3498708694
 20
154.5720675215
 30
0.0
 10
46.308189638
 20
154.5745708844
 30
0.0
 10
46.2836480971
 20
154.5769023096
 30
0.0
 10
46.2710429737
 20
154.5784508188
 30
0.0
 10
46.2645810178
 20
154.579931214
 30
0.0
 10
46.2600047787
 20
154.5811771953
 30
0.0
 10
46.2599403622
 20
154.5822052243
 30
0.0
  0
SPLINE
  5
384
100
AcDbEntity
  8
0
100
AcDbSpline
 62
7
  6
CONTINUOUS
 70
0
 71
3
 72
17
 73
13
 74
0
 42
0.0000001
 43
0.0000001
 44
0.0000000001
 40
0.0
 40
0.0
 40
0.0
 40
0.0
 40
0.0061668162
 40
0.0213428478
 40
0.0456839717
 40
0.0789417016
 40
0.1709145342
 40
0.2943668349
 40
0.4456688384
 40
0.6185904442
 40
0.8060028892
 40
1.0
 40
1.0
 40
1.0
 40
1.0
 10
128.7599403622
 20
154.7603011487
 30
0.0
 10
128.7598760369
 20
154.7592730924
 30
0.0
 10
128.7552990743
 20
154.758026757
 30
0.0
 10
128.7488353809
 20
154.756546132
 30
0.0
 10
128.7362245259
 20
154.754997142
 30
0.0
 10
128.7116670368
 20
154.752665039
 30
0.0
 10
128.6699671934
 20
154.7501627279
 30
0.0
 10
128.6088677798
 20
154.7476364796
 30
0.0
 10
128.5340782798
 20
154.7455898623
 30
0.0
 10
128.4486436887
 20
154.7440419611
 30
0.0
 10
128.3560519767
 20
154.7430731954
 30
0.0
 10
128.2923444375
 20
154.7428432412
 30
0.0
 10
128.2599403622
 20
154.742840764
 30
0.0
  0
SPLINE
  5
385
100
AcDbEntity
  8
0
100
AcDbSpline
 62
7
  6
CONTINUOUS
 70
0
 71
3
 72
9
 73
5
 74
0
 42
0.0000001
 43
0.0000001
 44
0.0000000001
 40
0.0
 40
0.0
 40
0.0
 40
0.0
 40
0.2752990386
 40
1.0
 40
1.0
 40
1.0
 40
1.0
 10
124.5099403622
 20
154.742840764
 30
0.0
 10
124.477318882
 20
154.7428382772
 30
0.0
 10
124.3588272136
 20
154.7423658059
 30
0.0
 10
124.2403218768
 20
154.7406882596
 30
0.0
 10
124.1545021228
 20
154.7376581143
 30
0.0
  0
SPLINE
  5
386
100
AcDbEntity
  8
0
100
AcDbSpline
 62
7
  6
CONTINUOUS
 70
0
 71
3
 72
13
 73
9
 74
0
 42
0.0000001
 43
0.0000001
 44
0.0000000001
 40
0.0
 40
0.0
 40
0.0
 40
0.0
 40
0.4195532719
 40
0.7318643835
 40
0.8447986791
 40
0.9274679336
 40
0.9790219467
 40
1.0
 40
1.0
 40
1.0
 40
1.0
 10
124.1545021228
 20
154.7376581143
 30
0.0
 10
124.1341508299
 20
154.7369395457
 30
0.0
 10
124.0987389401
 20
154.7354586641
 30
0.0
 10
124.0575721762
 20
154.732965972
 30
0.0
 10
124.0333401851
 20
154.7306501841
 30
0.0
 10
124.0208987339
 20
154.7291072897
 30
0.0
 10
124.014514586
 20
154.7276437344
 30
0.0
 10
124.0100022909
 20
154.7263967118
 30
0.0
 10
124.0099403622
 20
154.7253803792
 30
0.0
  0
SPLINE
  5
387
100
AcDbEntity
  8
0
100
AcDbSpline
 62
7
  6
CONTINUOUS
 70
0
 71
3
 72
17
 73
13
 74
0
 42
0.0000001
 43
0.0000001
 44
0.0000000001
 40
0.0
 40
0.0
 40
0.0
 40
0.0
 40
0.0061668162
 40
0.0213428478
 40
0.0456839717
 40
0.0789417016
 40
0.1709145342
 40
0.2943668349
 40
0.4456688384
 40
0.6185904442
 40
0.8060028892
 40
1.0
 40
1.0
 40
1.0
 40
1.0
 10
124.0099403622
 20
154.6834754558
 30
0.0
 10
124.0098760369
 20
154.6824473995
 30
0.0
 10
124.0052990743
 20
154.6812010641
 30
0.0
 10
123.9988353809
 20
154.6797204391
 30
0.0
 10
123.9862245259
 20
154.6781714491
 30
0.0
 10
123.9616670368
 20
154.6758393461
 30
0.0
 10
123.9199671934
 20
154.673337035
 30
0.0
 10
123.8588677798
 20
154.6708107867
 30
0.0
 10
123.7840782799
 20
154.6687641694
 30
0.0
 10
123.6986436887
 20
154.6672162682
 30
0.0
 10
123.6060519768
 20
154.6662475025
 30
0.0
 10
123.5423444376
 20
154.6660175484
 30
0.0
 10
123.5099403623
 20
154.6660150711
 30
0.0
  0
SPLINE
  5
388
100
AcDbEntity
  8
0
100
AcDbSpline
 62
7
  6
CONTINUOUS
 70
0
 71
3
 72
17
 73
13
 74
0
 42
0.0000001
 43
0.0000001
 44
0.0000000001
 40
0.0
 40
0.0
 40
0.0
 40
0.0
 40
0.1940223347
 40
0.3814843614
 40
0.554432064
 40
0.7057556161
 40
0.8291857743
 40
0.9210907951
 40
0.9543287952
 40
0.9786603291
 40
0.9938333127
 40
1.0
 40
1.0
 40
1.0
 40
1.0
 10
122.0099403622
 20
154.6660150711
 30
0.0
 10
121.9775320764
 20
154.6660175451
 30
0.0
 10
121.9138120484
 20
154.666247578
 30
0.0
 10
121.8212034872
 20
154.6672164932
 30
0.0
 10
121.7357526901
 20
154.6687660616
 30
0.0
 10
121.6609589495
 20
154.6708128899
 30
0.0
 10
121.5998708694
 20
154.6733377531
 30
0.0
 10
121.558189638
 20
154.675841116
 30
0.0
 10
121.5336480971
 20
154.6781725411
 30
0.0
 10
121.5210429737
 20
154.6797210503
 30
0.0
 10
121.5145810178
 20
154.6812014455
 30
0.0
 10
121.5100047787
 20
154.6824474269
 30
0.0
 10
121.5099403622
 20
154.6834754558
 30
0.0
  0
SPLINE
  5
389
100
AcDbEntity
  8
0
100
AcDbSpline
 62
7
  6
CONTINUOUS
 70
0
 71
3
 72
13
 73
9
 74
0
 42
0.0000001
 43
0.0000001
 44
0.0000000001
 40
0.0
 40
0.0
 40
0.0
 40
0.0
 40
0.0209059576
 40
0.0724734633
 40
0.1552009385
 40
0.2682260569
 40
0.5807121274
 40
1.0
 40
1.0
 40
1.0
 40
1.0
 10
121.5099403622
 20
154.7253803792
 30
0.0
 10
121.509877064
 20
154.7264207274
 30
0.0
 10
121.5052242581
 20
154.7276685722
 30
0.0
 10
121.498678761
 20
154.7291652396
 30
0.0
 10
121.485879829
 20
154.7307216666
 30
0.0
 10
121.4609756485
 20
154.7330703967
 30
0.0
 10
121.4186848824
 20
154.735583561
 30
0.0
 10
121.3823158663
 20
154.7370750483
 30
0.0
 10
121.3614246006
 20
154.7377961499
 30
0.0
  0
SPLINE
  5
38A
100
AcDbEntity
  8
0
100
AcDbSpline
 62
7
  6
CONTINUOUS
 70
0
 71
3
 72
9
 73
5
 74
0
 42
0.0000001
 43
0.0000001
 44
0.0000000001
 40
0.0
 40
0.0
 40
0.0
 40
0.0
 40
0.2150038576
 40
1.0
 40
1.0
 40
1.0
 40
1.0
 10
121.3614246006
 20
154.7377961499
 30
0.0
 10
121.3362461855
 20
154.7386652304
 30
0.0
 10
121.2191099382
 20
154.7418281128
 30
0.0
 10
121.1019234992
 20
154.7428337419
 30
0.0
 10
121.0099403622
 20
154.742840764
 30
0.0
  0
SPLINE
  5
38B
100
AcDbEntity
  8
0
100
AcDbSpline
 62
7
  6
CONTINUOUS
 70
0
 71
3
 72
9
 73
5
 74
0
 42
0.0000001
 43
0.0000001
 44
0.0000000001
 40
0.0
 40
0.0
 40
0.0
 40
0.0
 40
0.2752990386
 40
1.0
 40
1.0
 40
1.0
 40
1.0
 10
118.0099403622
 20
154.742840764
 30
0.0
 10
117.977318882
 20
154.7428382772
 30
0.0
 10
117.8588272136
 20
154.7423658059
 30
0.0
 10
117.7403218768
 20
154.7406882596
 30
0.0
 10
117.6545021228
 20
154.7376581143
 30
0.0
  0
SPLINE
  5
38C
100
AcDbEntity
  8
0
100
AcDbSpline
 62
7
  6
CONTINUOUS
 70
0
 71
3
 72
13
 73
9
 74
0
 42
0.0000001
 43
0.0000001
 44
0.0000000001
 40
0.0
 40
0.0
 40
0.0
 40
0.0
 40
0.4195532719
 40
0.7318643835
 40
0.8447986791
 40
0.9274679336
 40
0.9790219467
 40
1.0
 40
1.0
 40
1.0
 40
1.0
 10
117.6545021228
 20
154.7376581143
 30
0.0
 10
117.6341508299
 20
154.7369395457
 30
0.0
 10
117.5987389401
 20
154.7354586641
 30
0.0
 10
117.5575721762
 20
154.732965972
 30
0.0
 10
117.5333401851
 20
154.7306501841
 30
0.0
 10
117.520898734
 20
154.7291072897
 30
0.0
 10
117.514514586
 20
154.7276437344
 30
0.0
 10
117.5100022909
 20
154.7263967118
 30
0.0
 10
117.5099403622
 20
154.7253803792
 30
0.0
  0
SPLINE
  5
38D
100
AcDbEntity
  8
0
100
AcDbSpline
 62
7
  6
CONTINUOUS
 70
0
 71
3
 72
17
 73
13
 74
0
 42
0.0000001
 43
0.0000001
 44
0.0000000001
 40
0.0
 40
0.0
 40
0.0
 40
0.0
 40
0.0061668162
 40
0.0213428478
 40
0.0456839717
 40
0.0789417016
 40
0.1709145342
 40
0.2943668349
 40
0.4456688384
 40
0.6185904442
 40
0.8060028892
 40
1.0
 40
1.0
 40
1.0
 40
1.0
 10
117.5099403622
 20
154.6834754558
 30
0.0
 10
117.5098760369
 20
154.6824473995
 30
0.0
 10
117.5052990743
 20
154.6812010641
 30
0.0
 10
117.4988353809
 20
154.6797204391
 30
0.0
 10
117.4862245259
 20
154.6781714491
 30
0.0
 10
117.4616670368
 20
154.6758393461
 30
0.0
 10
117.4199671934
 20
154.673337035
 30
0.0
 10
117.3588677798
 20
154.6708107867
 30
0.0
 10
117.2840782799
 20
154.6687641694
 30
0.0
 10
117.1986436887
 20
154.6672162682
 30
0.0
 10
117.1060519768
 20
154.6662475025
 30
0.0
 10
117.0423444376
 20
154.6660175484
 30
0.0
 10
117.0099403623
 20
154.6660150711
 30
0.0
  0
SPLINE
  5
38E
100
AcDbEntity
  8
0
100
AcDbSpline
 62
7
  6
CONTINUOUS
 70
0
 71
3
 72
17
 73
13
 74
0
 42
0.0000001
 43
0.0000001
 44
0.0000000001
 40
0.0
 40
0.0
 40
0.0
 40
0.0
 40
0.1940223347
 40
0.3814843614
 40
0.554432064
 40
0.7057556161
 40
0.8291857743
 40
0.9210907951
 40
0.9543287952
 40
0.9786603291
 40
0.9938333127
 40
1.0
 40
1.0
 40
1.0
 40
1.0
 10
115.5099403622
 20
154.6660150711
 30
0.0
 10
115.4775320764
 20
154.6660175451
 30
0.0
 10
115.4138120484
 20
154.666247578
 30
0.0
 10
115.3212034872
 20
154.6672164932
 30
0.0
 10
115.2357526901
 20
154.6687660616
 30
0.0
 10
115.1609589495
 20
154.6708128899
 30
0.0
 10
115.0998708694
 20
154.6733377531
 30
0.0
 10
115.058189638
 20
154.675841116
 30
0.0
 10
115.0336480971
 20
154.6781725411
 30
0.0
 10
115.0210429737
 20
154.6797210503
 30
0.0
 10
115.0145810178
 20
154.6812014455
 30
0.0
 10
115.0100047787
 20
154.6824474269
 30
0.0
 10
115.0099403622
 20
154.6834754558
 30
0.0
  0
SPLINE
  5
38F
100
AcDbEntity
  8
0
100
AcDbSpline
 62
7
  6
CONTINUOUS
 70
0
 71
3
 72
13
 73
9
 74
0
 42
0.0000001
 43
0.0000001
 44
0.0000000001
 40
0.0
 40
0.0
 40
0.0
 40
0.0
 40
0.0209059575
 40
0.0724734633
 40
0.1552009385
 40
0.2682260569
 40
0.5807121274
 40
1.0
 40
1.0
 40
1.0
 40
1.0
 10
115.0099403622
 20
154.7253803792
 30
0.0
 10
115.009877064
 20
154.7264207274
 30
0.0
 10
115.0052242581
 20
154.7276685722
 30
0.0
 10
114.998678761
 20
154.7291652396
 30
0.0
 10
114.985879829
 20
154.7307216666
 30
0.0
 10
114.9609756485
 20
154.7330703967
 30
0.0
 10
114.9186848824
 20
154.735583561
 30
0.0
 10
114.8823158663
 20
154.7370750483
 30
0.0
 10
114.8614246006
 20
154.7377961499
 30
0.0
  0
SPLINE
  5
390
100
AcDbEntity
  8
0
100
AcDbSpline
 62
7
  6
CONTINUOUS
 70
0
 71
3
 72
9
 73
5
 74
0
 42
0.0000001
 43
0.0000001
 44
0.0000000001
 40
0.0
 40
0.0
 40
0.0
 40
0.0
 40
0.2150038576
 40
1.0
 40
1.0
 40
1.0
 40
1.0
 10
114.8614246006
 20
154.7377961499
 30
0.0
 10
114.8362461855
 20
154.7386652304
 30
0.0
 10
114.7191099382
 20
154.7418281128
 30
0.0
 10
114.6019234992
 20
154.7428337419
 30
0.0
 10
114.5099403622
 20
154.742840764
 30
0.0
  0
SPLINE
  5
391
100
AcDbEntity
  8
0
100
AcDbSpline
 62
7
  6
CONTINUOUS
 70
0
 71
3
 72
17
 73
13
 74
0
 42
0.0000001
 43
0.0000001
 44
0.0000000001
 40
0.0
 40
0.0
 40
0.0
 40
0.0
 40
0.1940223347
 40
0.3814843614
 40
0.554432064
 40
0.7057556161
 40
0.8291857743
 40
0.9210907951
 40
0.9543287952
 40
0.9786603291
 40
0.9938333127
 40
1.0
 40
1.0
 40
1.0
 40
1.0
 10
110.7599403622
 20
154.742840764
 30
0.0
 10
110.7275320764
 20
154.742843238
 30
0.0
 10
110.6638120484
 20
154.7430732709
 30
0.0
 10
110.5712034872
 20
154.7440421861
 30
0.0
 10
110.4857526901
 20
154.7455917545
 30
0.0
 10
110.4109589495
 20
154.7476385827
 30
0.0
 10
110.3498708694
 20
154.7501634459
 30
0.0
 10
110.308189638
 20
154.7526668088
 30
0.0
 10
110.2836480971
 20
154.754998234
 30
0.0
 10
110.2710429737
 20
154.7565467432
 30
0.0
 10
110.2645810178
 20
154.7580271384
 30
0.0
 10
110.2600047787
 20
154.7592731198
 30
0.0
 10
110.2599403622
 20
154.7603011487
 30
0.0
  0
LINE
  5
392
100
AcDbEntity
  8
0
100
AcDbLine
 62
7
  6
CONTINUOUS
 10
40.9099403622
 20
164.2314922671
 11
38.839274148
 21
164.2313659217
  0
LINE
  5
393
100
AcDbEntity
  8
0
100
AcDbLine
 62
7
  6
CONTINUOUS
 10
132.7806065765
 20
164.2313659217
 11
130.7099403622
 21
164.2313535004
  0
SPLINE
  5
394
100
AcDbEntity
  8
0
100
AcDbSpline
 62
7
  6
CONTINUOUS
 70
0
 71
3
 72
15
 73
11
 74
0
 42
0.0000001
 43
0.0000001
 44
0.0000000001
 40
0.0
 40
0.0
 40
0.0
 40
0.0
 40
0.381957512
 40
0.5548494899
 40
0.7062249999
 40
0.8296926919
 40
0.9216120276
 40
0.9790739994
 40
0.9940798669
 40
1.0
 40
1.0
 40
1.0
 40
1.0
 10
143.5242229465
 20
104.5125272201
 30
0.0
 10
143.5242265847
 20
104.5444289447
 30
0.0
 10
143.524535185
 20
104.5907587727
 30
0.0
 10
143.525600287
 20
104.6497667857
 30
0.0
 10
143.5266272894
 20
104.687073139
 30
0.0
 10
143.5278814999
 20
104.717891095
 30
0.0
 10
143.5292826244
 20
104.7401373077
 30
0.0
 10
143.5306083348
 20
104.7547048641
 30
0.0
 10
143.531781902
 20
104.7602482917
 30
0.0
 10
143.5324743656
 20
104.7625527249
 30
0.0
 10
143.5329681474
 20
104.7625268496
 30
0.0
  0
SPLINE
  5
395
100
AcDbEntity
  8
0
100
AcDbSpline
 62
7
  6
CONTINUOUS
 70
0
 71
3
 72
15
 73
11
 74
0
 42
0.0000001
 43
0.0000001
 44
0.0000000001
 40
0.0
 40
0.0
 40
0.0
 40
0.0
 40
0.3819575101
 40
0.5548494887
 40
0.7062249995
 40
0.8296926919
 40
0.9216120276
 40
0.9790739992
 40
0.9940798668
 40
1.0
 40
1.0
 40
1.0
 40
1.0
 10
143.5242229465
 20
141.5125272201
 30
0.0
 10
143.5242265848
 20
141.5444289445
 30
0.0
 10
143.5245351852
 20
141.5907587724
 30
0.0
 10
143.525600287
 20
141.6497667854
 30
0.0
 10
143.5266272894
 20
141.6870731388
 30
0.0
 10
143.5278814998
 20
141.717891095
 30
0.0
 10
143.5292826243
 20
141.7401373077
 30
0.0
 10
143.5306083346
 20
141.754704864
 30
0.0
 10
143.5317819019
 20
141.7602482917
 30
0.0
 10
143.5324743655
 20
141.7625527249
 30
0.0
 10
143.5329681474
 20
141.7625268496
 30
0.0
  0
SPLINE
  5
396
100
AcDbEntity
  8
0
100
AcDbSpline
 62
7
  6
CONTINUOUS
 70
0
 71
3
 72
9
 73
5
 74
0
 42
0.0000001
 43
0.0000001
 44
0.0000000001
 40
0.0
 40
0.0
 40
0.0
 40
0.0
 40
0.4872550377
 40
1.0
 40
1.0
 40
1.0
 40
1.0
 10
144.0404410785
 20
84.7625272331
 30
0.0
 10
144.0364602365
 20
84.4958878856
 30
0.0
 10
143.9475016282
 20
83.9469984483
 30
0.0
 10
143.7005272491
 20
83.4480934283
 30
0.0
 10
143.540745665
 20
83.2174051208
 30
0.0
  0
SPLINE
  5
397
100
AcDbEntity
  8
0
100
AcDbSpline
 62
7
  6
CONTINUOUS
 70
0
 71
3
 72
9
 73
5
 74
0
 42
0.0000001
 43
0.0000001
 44
0.0000000001
 40
0.0
 40
0.0
 40
0.0
 40
0.0
 40
0.4880189744
 40
1.0
 40
1.0
 40
1.0
 40
1.0
 10
133.0422686008
 20
74.0320265169
 30
0.0
 10
133.3200259116
 20
74.0360386294
 30
0.0
 10
133.8906982907
 20
74.1264146032
 30
0.0
 10
134.4130307348
 20
74.3731271603
 30
0.0
 10
134.6575234362
 20
74.5317219304
 30
0.0
  0
SPLINE
  5
398
100
AcDbEntity
  8
0
100
AcDbSpline
 62
7
  6
CONTINUOUS
 70
0
 71
3
 72
9
 73
5
 74
0
 42
0.0000001
 43
0.0000001
 44
0.0000000001
 40
0.0
 40
0.0
 40
0.0
 40
0.0
 40
0.4879604822
 40
1.0
 40
1.0
 40
1.0
 40
1.0
 10
38.5776121269
 20
74.0320265168
 30
0.0
 10
38.2998858586
 20
74.0360381808
 30
0.0
 10
37.7291883748
 20
74.1263096721
 30
0.0
 10
37.2068799018
 20
74.3731077572
 30
0.0
 10
36.9623572883
 20
74.5317219304
 30
0.0
  0
SPLINE
  5
399
100
AcDbEntity
  8
0
100
AcDbSpline
 62
7
  6
CONTINUOUS
 70
0
 71
3
 72
9
 73
5
 74
0
 42
0.0000001
 43
0.0000001
 44
0.0000000001
 40
0.0
 40
0.0
 40
0.0
 40
0.0
 40
0.5127530094
 40
1.0
 40
1.0
 40
1.0
 40
1.0
 10
28.0791350595
 20
83.2174051208
 30
0.0
 10
27.9193518209
 20
83.448095817
 30
0.0
 10
27.6724338681
 20
83.9470206897
 30
0.0
 10
27.5834204009
 20
84.4958937127
 30
0.0
 10
27.579439646
 20
84.7625272329
 30
0.0
  0
SPLINE
  5
39A
100
AcDbEntity
  8
0
100
AcDbSpline
 62
7
  6
CONTINUOUS
 70
0
 71
3
 72
15
 73
11
 74
0
 42
0.0000001
 43
0.0000001
 44
0.0000000001
 40
0.0
 40
0.0
 40
0.0
 40
0.0
 40
0.0059200498
 40
0.0209258005
 40
0.0783877224
 40
0.1703077018
 40
0.2937772678
 40
0.4451558866
 40
0.6180501881
 40
1.0
 40
1.0
 40
1.0
 40
1.0
 10
143.5329680975
 20
133.7625276171
 30
0.0
 10
143.532474323
 20
133.7625017349
 30
0.0
 10
143.5317818515
 20
133.7648061516
 30
0.0
 10
143.5306083068
 20
133.7703495522
 30
0.0
 10
143.5292825893
 20
133.7849171623
 30
0.0
 10
143.5278814813
 20
133.8071635698
 30
0.0
 10
143.5266272723
 20
133.8379820029
 30
0.0
 10
143.5256002721
 20
133.8752889631
 30
0.0
 10
143.5245351772
 20
133.9342967864
 30
0.0
 10
143.5242265637
 20
133.9806261647
 30
0.0
 10
143.5242229465
 20
134.0125272456
 30
0.0
  0
SPLINE
  5
39B
100
AcDbEntity
  8
0
100
AcDbSpline
 62
7
  6
CONTINUOUS
 70
0
 71
3
 72
15
 73
11
 74
0
 42
0.0000001
 43
0.0000001
 44
0.0000000001
 40
0.0
 40
0.0
 40
0.0
 40
0.0
 40
0.0061334742
 40
0.0212312741
 40
0.0787555428
 40
0.1711701578
 40
0.2952725849
 40
0.4463255169
 40
0.619232523
 40
1.0
 40
1.0
 40
1.0
 40
1.0
 10
28.086943422
 20
104.7624612095
 30
0.0
 10
28.0874546672
 20
104.762431438
 30
0.0
 10
28.0880896428
 20
104.760165541
 30
0.0
 10
28.0893437717
 20
104.7544897925
 30
0.0
 10
28.0905904957
 20
104.7399760198
 30
0.0
 10
28.0920185415
 20
104.717579426
 30
0.0
 10
28.0932409108
 20
104.6867276541
 30
0.0
 10
28.0942903587
 20
104.6493974996
 30
0.0
 10
28.0953505047
 20
104.5905374969
 30
0.0
 10
28.0956569624
 20
104.5443192223
 30
0.0
 10
28.0956576758
 20
104.5125272331
 30
0.0
  0
SPLINE
  5
39C
100
AcDbEntity
  8
0
100
AcDbSpline
 62
7
  6
CONTINUOUS
 70
0
 71
3
 72
11
 73
7
 74
0
 42
0.0000001
 43
0.0000001
 44
0.0000000001
 40
0.0
 40
0.0
 40
0.0
 40
0.0
 40
0.2499718393
 40
0.4999412042
 40
0.7499447764
 40
1.0
 40
1.0
 40
1.0
 40
1.0
 10
143.535001732
 20
161.7510518894
 30
0.0
 10
143.5323316844
 20
162.0400902963
 30
0.0
 10
143.4199241587
 20
162.6247104132
 30
0.0
 10
142.9221721387
 20
163.3617389275
 30
0.0
 10
142.1842298201
 20
163.8583936147
 30
0.0
 10
141.599394762
 20
163.9698806509
 30
0.0
 10
141.3102591862
 20
163.9724687928
 30
0.0
  0
SPLINE
  5
39D
100
AcDbEntity
  8
0
100
AcDbSpline
 62
7
  6
CONTINUOUS
 70
0
 71
3
 72
9
 73
5
 74
0
 42
0.0000001
 43
0.0000001
 44
0.0000000001
 40
0.0
 40
0.0
 40
0.0
 40
0.0
 40
0.2442523978
 40
1.0
 40
1.0
 40
1.0
 40
1.0
 10
33.8099403622
 20
82.7651189327
 30
0.0
 10
33.9109671731
 20
82.7663392959
 30
0.0
 10
34.324582598
 20
82.7712768341
 30
0.0
 10
34.7382239543
 20
82.7752295484
 30
0.0
 10
35.0508364034
 20
82.7752295484
 30
0.0
  0
SPLINE
  5
39E
100
AcDbEntity
  8
0
100
AcDbSpline
 62
7
  6
CONTINUOUS
 70
0
 71
3
 72
9
 73
5
 74
0
 42
0.0000001
 43
0.0000001
 44
0.0000000001
 40
0.0
 40
0.0
 40
0.0
 40
0.0
 40
0.2567359393
 40
1.0
 40
1.0
 40
1.0
 40
1.0
 10
136.569044321
 20
82.7752295484
 30
0.0
 10
136.6752425212
 20
82.7752295655
 30
0.0
 10
137.0888903437
 20
82.7737662142
 30
0.0
 10
137.5025134102
 20
82.7688325266
 30
0.0
 10
137.8099403622
 20
82.7651189327
 30
0.0
  0
SPLINE
  5
39F
100
AcDbEntity
  8
0
100
AcDbSpline
 62
7
  6
CONTINUOUS
 70
0
 71
3
 72
11
 73
7
 74
0
 42
0.0000001
 43
0.0000001
 44
0.0000000001
 40
0.0
 40
0.0
 40
0.0
 40
0.0
 40
0.2500498102
 40
0.5000511784
 40
0.7500224662
 40
1.0
 40
1.0
 40
1.0
 40
1.0
 10
30.3080286247
 20
163.9724687928
 30
0.0
 10
30.0188861636
 20
163.9699825505
 30
0.0
 10
29.4340589377
 20
163.8578366257
 30
0.0
 10
28.6965709649
 20
163.3605843911
 30
0.0
 10
28.1993790766
 20
162.6230257932
 30
0.0
 10
28.087667021
 20
162.0383458222
 30
0.0
 10
28.0848773811
 20
161.749289712
 30
0.0
  0
SPLINE
  5
3A0
100
AcDbEntity
  8
0
100
AcDbSpline
 62
7
  6
CONTINUOUS
 70
0
 71
3
 72
17
 73
13
 74
0
 42
0.0000001
 43
0.0000001
 44
0.0000000001
 40
0.0
 40
0.0
 40
0.0
 40
0.0
 40
0.0061667703
 40
0.0213427781
 40
0.045683901
 40
0.0789416454
 40
0.1709145245
 40
0.2943668504
 40
0.4456688237
 40
0.6185903964
 40
0.8060028607
 40
1.0
 40
1.0
 40
1.0
 40
1.0
 10
46.2599403622
 20
155.0536356124
 30
0.0
 10
46.260004665
 20
155.0546636625
 30
0.0
 10
46.2645816413
 20
155.0559100179
 30
0.0
 10
46.2710452971
 20
155.0573906238
 30
0.0
 10
46.2836561656
 20
155.0589396229
 30
0.0
 10
46.308213656
 20
155.0612717201
 30
0.0
 10
46.3499135207
 20
155.0637740342
 30
0.0
 10
46.411012939
 20
155.0663002806
 30
0.0
 10
46.4858024343
 20
155.0683469005
 30
0.0
 10
46.5712370186
 20
155.0698948031
 30
0.0
 10
46.663828734
 20
155.0708635689
 30
0.0
 10
46.7275362818
 20
155.0710935214
 30
0.0
 10
46.7599403622
 20
155.0710959972
 30
0.0
  0
SPLINE
  5
3A1
100
AcDbEntity
  8
0
100
AcDbSpline
 62
7
  6
CONTINUOUS
 70
0
 71
3
 72
17
 73
13
 74
0
 42
0.0000001
 43
0.0000001
 44
0.0000000001
 40
0.0
 40
0.0
 40
0.0
 40
0.0
 40
0.1940223612
 40
0.3814844047
 40
0.554432073
 40
0.7057555919
 40
0.8291857765
 40
0.9210908499
 40
0.9543288661
 40
0.9786603993
 40
0.993833359
 40
1.0
 40
1.0
 40
1.0
 40
1.0
 10
63.2599403622
 20
155.0710959972
 30
0.0
 10
63.2923486528
 20
155.0710935247
 30
0.0
 10
63.3560686887
 20
155.0708634934
 30
0.0
 10
63.4486772525
 20
155.0698945781
 30
0.0
 10
63.5341280415
 20
155.0683450085
 30
0.0
 10
63.608921777
 20
155.0662981776
 30
0.0
 10
63.6700098624
 20
155.0637733161
 30
0.0
 10
63.7116911167
 20
155.0612699504
 30
0.0
 10
63.7362326603
 20
155.058938531
 30
0.0
 10
63.7488377975
 20
155.0573900127
 30
0.0
 10
63.7552997156
 20
155.0559096366
 30
0.0
 10
63.7598759684
 20
155.0546636351
 30
0.0
 10
63.7599403622
 20
155.0536356124
 30
0.0
  0
SPLINE
  5
3A2
100
AcDbEntity
  8
0
100
AcDbSpline
 62
7
  6
CONTINUOUS
 70
0
 71
3
 72
17
 73
13
 74
0
 42
0.0000001
 43
0.0000001
 44
0.0000000001
 40
0.0
 40
0.0
 40
0.0
 40
0.0
 40
0.0061667703
 40
0.0213427781
 40
0.045683901
 40
0.0789416454
 40
0.1709145245
 40
0.2943668504
 40
0.4456688237
 40
0.6185903964
 40
0.8060028607
 40
1.0
 40
1.0
 40
1.0
 40
1.0
 10
110.2599403622
 20
155.0641118433
 30
0.0
 10
110.260004665
 20
155.0651398933
 30
0.0
 10
110.2645816413
 20
155.0663862487
 30
0.0
 10
110.2710452971
 20
155.0678668547
 30
0.0
 10
110.2836561656
 20
155.0694158537
 30
0.0
 10
110.308213656
 20
155.071747951
 30
0.0
 10
110.3499135207
 20
155.074250265
 30
0.0
 10
110.411012939
 20
155.0767765114
 30
0.0
 10
110.4858024343
 20
155.0788231314
 30
0.0
 10
110.5712370186
 20
155.080371034
 30
0.0
 10
110.663828734
 20
155.0813397997
 30
0.0
 10
110.7275362818
 20
155.0815697523
 30
0.0
 10
110.7599403622
 20
155.081572228
 30
0.0
  0
SPLINE
  5
3A3
100
AcDbEntity
  8
0
100
AcDbSpline
 62
7
  6
CONTINUOUS
 70
0
 71
3
 72
17
 73
13
 74
0
 42
0.0000001
 43
0.0000001
 44
0.0000000001
 40
0.0
 40
0.0
 40
0.0
 40
0.0
 40
0.1940223612
 40
0.3814844047
 40
0.554432073
 40
0.7057555919
 40
0.8291857765
 40
0.9210908499
 40
0.9543288661
 40
0.9786603993
 40
0.993833359
 40
1.0
 40
1.0
 40
1.0
 40
1.0
 10
128.2599403622
 20
155.081572228
 30
0.0
 10
128.2923486528
 20
155.0815697555
 30
0.0
 10
128.3560686887
 20
155.0813397242
 30
0.0
 10
128.4486772525
 20
155.0803708089
 30
0.0
 10
128.5341280415
 20
155.0788212393
 30
0.0
 10
128.608921777
 20
155.0767744084
 30
0.0
 10
128.6700098624
 20
155.0742495469
 30
0.0
 10
128.7116911167
 20
155.0717461813
 30
0.0
 10
128.7362326603
 20
155.0694147619
 30
0.0
 10
128.7488377975
 20
155.0678662435
 30
0.0
 10
128.7552997156
 20
155.0663858674
 30
0.0
 10
128.7598759684
 20
155.0651398659
 30
0.0
 10
128.7599403622
 20
155.0641118433
 30
0.0
  0
SPLINE
  5
3A4
100
AcDbEntity
  8
0
100
AcDbSpline
 62
7
  6
CONTINUOUS
 70
0
 71
3
 72
15
 73
11
 74
0
 42
0.0000001
 43
0.0000001
 44
0.0000000001
 40
0.0
 40
0.0
 40
0.0
 40
0.0
 40
0.0061334733
 40
0.0212312723
 40
0.0787555396
 40
0.171170154
 40
0.295272581
 40
0.4463255134
 40
0.6192325204
 40
1.0
 40
1.0
 40
1.0
 40
1.0
 10
28.0869434219
 20
141.7624612095
 30
0.0
 10
28.0874546671
 20
141.7624314382
 30
0.0
 10
28.0880896428
 20
141.7601655412
 30
0.0
 10
28.0893437714
 20
141.7544897932
 30
0.0
 10
28.0905904957
 20
141.7399760205
 30
0.0
 10
28.0920185414
 20
141.717579427
 30
0.0
 10
28.0932409108
 20
141.6867276551
 30
0.0
 10
28.0942903586
 20
141.6493975005
 30
0.0
 10
28.0953505047
 20
141.5905374975
 30
0.0
 10
28.0956569623
 20
141.5443192225
 30
0.0
 10
28.0956576758
 20
141.5125272331
 30
0.0
  0
SPLINE
  5
3A5
100
AcDbEntity
  8
0
100
AcDbSpline
 62
7
  6
CONTINUOUS
 70
0
 71
3
 72
15
 73
11
 74
0
 42
0.0000001
 43
0.0000001
 44
0.0000000001
 40
0.0
 40
0.0
 40
0.0
 40
0.0
 40
0.0059200499
 40
0.0209258008
 40
0.0783877227
 40
0.1703077022
 40
0.2937772683
 40
0.4451558871
 40
0.6180501887
 40
1.0
 40
1.0
 40
1.0
 40
1.0
 10
143.5329680975
 20
96.7625276171
 30
0.0
 10
143.532474323
 20
96.7625017349
 30
0.0
 10
143.5317818515
 20
96.7648061516
 30
0.0
 10
143.5306083067
 20
96.7703495523
 30
0.0
 10
143.5292825893
 20
96.7849171624
 30
0.0
 10
143.5278814813
 20
96.8071635699
 30
0.0
 10
143.5266272723
 20
96.8379820031
 30
0.0
 10
143.5256002721
 20
96.8752889633
 30
0.0
 10
143.5245351772
 20
96.9342967865
 30
0.0
 10
143.5242265638
 20
96.9806261647
 30
0.0
 10
143.5242229465
 20
97.0125272456
 30
0.0
  0
SPLINE
  5
3A6
100
AcDbEntity
  8
0
100
AcDbSpline
 62
7
  6
CONTINUOUS
 70
0
 71
3
 72
9
 73
5
 74
0
 42
0.0000001
 43
0.0000001
 44
0.0000000001
 40
0.0
 40
0.0
 40
0.0
 40
0.0
 40
0.2430185324
 40
1.0
 40
1.0
 40
1.0
 40
1.0
 10
137.8099403622
 20
155.2313659217
 30
0.0
 10
137.7187750691
 20
155.2301435457
 30
0.0
 10
137.3436389947
 20
155.2251696521
 30
0.0
 10
136.9684734672
 20
155.221255306
 30
0.0
 10
136.6844760293
 20
155.221255306
 30
0.0
  0
SPLINE
  5
3A7
100
AcDbEntity
  8
0
100
AcDbSpline
 62
7
  6
CONTINUOUS
 70
0
 71
3
 72
9
 73
5
 74
0
 42
0.0000001
 43
0.0000001
 44
0.0000000001
 40
0.0
 40
0.0
 40
0.0
 40
0.0
 40
0.2581337613
 40
1.0
 40
1.0
 40
1.0
 40
1.0
 10
34.9354046952
 20
155.221255306
 30
0.0
 10
34.8385601408
 20
155.2212552913
 30
0.0
 10
34.4633878143
 20
155.2226936474
 30
0.0
 10
34.0882427719
 20
155.2276343462
 30
0.0
 10
33.8099403622
 20
155.2313659217
 30
0.0
  0
SPLINE
  5
3A8
100
AcDbEntity
  8
0
100
AcDbSpline
 62
7
  6
CONTINUOUS
 70
0
 71
3
 72
9
 73
5
 74
0
 42
0.0000001
 43
0.0000001
 44
0.0000000001
 40
0.0
 40
0.0
 40
0.0
 40
0.0
 40
0.5138397927
 40
1.0
 40
1.0
 40
1.0
 40
1.0
 10
143.5418079083
 20
154.3079917665
 30
0.0
 10
143.7021497757
 20
154.0768069654
 30
0.0
 10
143.9493999933
 20
153.577709917
 30
0.0
 10
144.0387119258
 20
153.0286848512
 30
0.0
 10
144.0429285133
 20
152.7625272338
 30
0.0
  0
SPLINE
  5
3A9
100
AcDbEntity
  8
0
100
AcDbSpline
 62
7
  6
CONTINUOUS
 70
0
 71
3
 72
16
 73
12
 74
0
 42
0.0000001
 43
0.0000001
 44
0.0000000001
 40
0.0
 40
0.0
 40
0.0
 40
0.0
 40
0.37441883
 40
0.5444179959
 40
0.694320942
 40
0.8187878225
 40
0.9133756853
 40
0.9482148512
 40
0.974365422
 40
0.9916506037
 40
1.0
 40
1.0
 40
1.0
 40
1.0
 10
143.5350032071
 20
161.7494387589
 30
0.0
 10
143.5974298482
 20
161.7494958048
 30
0.0
 10
143.6882024246
 20
161.7499996775
 30
0.0
 10
143.8039522463
 20
161.7516500662
 30
0.0
 10
143.8780327454
 20
161.7532043627
 30
0.0
 10
143.9395024647
 20
161.7551007433
 30
0.0
 10
143.9818381361
 20
161.7568980683
 30
0.0
 10
144.0076646498
 20
161.7586717076
 30
0.0
 10
144.0207695861
 20
161.7597158383
 30
0.0
 10
144.029124553
 20
161.7610602904
 30
0.0
 10
144.0335853655
 20
161.7616914222
 30
0.0
 10
144.0346986206
 20
161.7625272331
 30
0.0
  0
SPLINE
  5
3AA
100
AcDbEntity
  8
0
100
AcDbSpline
 62
7
  6
CONTINUOUS
 70
0
 71
3
 72
11
 73
7
 74
0
 42
0.0000001
 43
0.0000001
 44
0.0000000001
 40
0.0
 40
0.0
 40
0.0
 40
0.0
 40
0.2499783544
 40
0.4999667181
 40
0.7499729263
 40
1.0
 40
1.0
 40
1.0
 40
1.0
 10
136.0181068001
 20
161.47252119
 30
0.0
 10
136.0178819004
 20
161.7184654364
 30
0.0
 10
135.9562282929
 20
162.2123902554
 30
0.0
 10
135.6858922792
 20
162.906953896
 30
0.0
 10
135.2536256799
 20
163.5134612309
 30
0.0
 10
134.8761848206
 20
163.8386657436
 30
0.0
 10
134.6697654731
 20
163.9724687928
 30
0.0
  0
SPLINE
  5
3AB
100
AcDbEntity
  8
0
100
AcDbSpline
 62
7
  6
CONTINUOUS
 70
0
 71
3
 72
9
 73
5
 74
0
 42
0.0000001
 43
0.0000001
 44
0.0000000001
 40
0.0
 40
0.0
 40
0.0
 40
0.0
 40
0.5117928284
 40
1.0
 40
1.0
 40
1.0
 40
1.0
 10
134.6506630586
 20
163.9849593286
 30
0.0
 10
134.4060541539
 20
164.143517224
 30
0.0
 10
133.883623336
 20
164.39079163
 30
0.0
 10
133.312533793
 20
164.4812364779
 30
0.0
 10
133.0344933319
 20
164.4852526804
 30
0.0
  0
SPLINE
  5
3AC
100
AcDbEntity
  8
0
100
AcDbSpline
 62
7
  6
CONTINUOUS
 70
0
 71
3
 72
15
 73
11
 74
0
 42
0.0000001
 43
0.0000001
 44
0.0000000001
 40
0.0
 40
0.0
 40
0.0
 40
0.0
 40
0.3807819154
 40
0.5536776245
 40
0.7047313357
 40
0.8288345058
 40
0.9212447541
 40
0.978784251
 40
0.9938807572
 40
1.0
 40
1.0
 40
1.0
 40
1.0
 10
28.0956576758
 20
97.0125272332
 30
0.0
 10
28.095656965
 20
96.9807339184
 30
0.0
 10
28.0953504672
 20
96.9345153286
 30
0.0
 10
28.0942900592
 20
96.8756544846
 30
0.0
 10
28.0932414235
 20
96.8383256959
 30
0.0
 10
28.0920185753
 20
96.8074720737
 30
0.0
 10
28.0905925284
 20
96.7850791189
 30
0.0
 10
28.089341304
 20
96.7705560364
 30
0.0
 10
28.088092153
 20
96.7648887029
 30
0.0
 10
28.0874537307
 20
96.7626186717
 30
0.0
 10
28.0869434447
 20
96.7625931261
 30
0.0
  0
SPLINE
  5
3AD
100
AcDbEntity
  8
0
100
AcDbSpline
 62
7
  6
CONTINUOUS
 70
0
 71
3
 72
15
 73
11
 74
0
 42
0.0000001
 43
0.0000001
 44
0.0000000001
 40
0.0
 40
0.0
 40
0.0
 40
0.0
 40
0.3807819131
 40
0.5536776214
 40
0.7047313321
 40
0.8288345024
 40
0.9212447513
 40
0.9787842494
 40
0.9938807564
 40
1.0
 40
1.0
 40
1.0
 40
1.0
 10
28.0956576758
 20
134.0125272331
 30
0.0
 10
28.0956569649
 20
133.9807339186
 30
0.0
 10
28.0953504672
 20
133.934515329
 30
0.0
 10
28.0942900592
 20
133.8756544853
 30
0.0
 10
28.0932414235
 20
133.8383256967
 30
0.0
 10
28.0920185754
 20
133.8074720746
 30
0.0
 10
28.0905925284
 20
133.7850791195
 30
0.0
 10
28.0893413042
 20
133.770556037
 30
0.0
 10
28.0880921529
 20
133.7648887031
 30
0.0
 10
28.0874537309
 20
133.7626186719
 30
0.0
 10
28.0869434448
 20
133.7625931261
 30
0.0
  0
SPLINE
  5
3AE
100
AcDbEntity
  8
0
100
AcDbSpline
 62
7
  6
CONTINUOUS
 70
0
 71
3
 72
9
 73
5
 74
0
 42
0.0000001
 43
0.0000001
 44
0.0000000001
 40
0.0
 40
0.0
 40
0.0
 40
0.0
 40
0.4880145208
 40
1.0
 40
1.0
 40
1.0
 40
1.0
 10
38.5853873926
 20
164.4852526804
 30
0.0
 10
38.3075008192
 20
164.4812387008
 30
0.0
 10
37.7365047869
 20
164.3908593075
 30
0.0
 10
37.21412448
 20
164.1436786042
 30
0.0
 10
36.9694478882
 20
163.9851086043
 30
0.0
  0
SPLINE
  5
3AF
100
AcDbEntity
  8
0
100
AcDbSpline
 62
7
  6
CONTINUOUS
 70
0
 71
3
 72
11
 73
7
 74
0
 42
0.0000001
 43
0.0000001
 44
0.0000000001
 40
0.0
 40
0.0
 40
0.0
 40
0.0
 40
0.2500270735
 40
0.5000332823
 40
0.7500216456
 40
1.0
 40
1.0
 40
1.0
 40
1.0
 10
36.9501152514
 20
163.9724687928
 30
0.0
 10
36.7436836703
 20
163.8386846186
 30
0.0
 10
36.3662607188
 20
163.5134524731
 30
0.0
 10
35.9339869196
 20
162.9069562531
 30
0.0
 10
35.6636528673
 20
162.2123895819
 30
0.0
 10
35.6019988237
 20
161.7184654365
 30
0.0
 10
35.6017739243
 20
161.47252119
 30
0.0
  0
SPLINE
  5
3B0
100
AcDbEntity
  8
0
100
AcDbSpline
 62
7
  6
CONTINUOUS
 70
0
 71
3
 72
16
 73
12
 74
0
 42
0.0000001
 43
0.0000001
 44
0.0000000001
 40
0.0
 40
0.0
 40
0.0
 40
0.0
 40
0.0083415827
 40
0.0256065499
 40
0.0517305981
 40
0.0865429755
 40
0.1810243079
 40
0.3054043576
 40
0.4553207918
 40
0.62541837
 40
1.0
 40
1.0
 40
1.0
 40
1.0
 10
27.5851821039
 20
161.7625272331
 30
0.0
 10
27.5862943176
 20
161.7616922041
 30
0.0
 10
27.5907496463
 20
161.7610598854
 30
0.0
 10
27.5990960593
 20
161.7597166726
 30
0.0
 10
27.6121884903
 20
161.7586726887
 30
0.0
 10
27.6379885901
 20
161.7569014646
 30
0.0
 10
27.6802874033
 20
161.7551036222
 30
0.0
 10
27.7417272025
 20
161.7532075495
 30
0.0
 10
27.815811879
 20
161.7516521166
 30
0.0
 10
27.9316075398
 20
161.7500002835
 30
0.0
 10
28.022423706
 20
161.7494958296
 30
0.0
 10
28.0848775174
 20
161.749438759
 30
0.0
  0
SPLINE
  5
3B1
100
AcDbEntity
  8
0
100
AcDbSpline
 62
7
  6
CONTINUOUS
 70
0
 71
3
 72
9
 73
5
 74
0
 42
0.0000001
 43
0.0000001
 44
0.0000000001
 40
0.0
 40
0.0
 40
0.0
 40
0.0
 40
0.4861614115
 40
1.0
 40
1.0
 40
1.0
 40
1.0
 10
27.5769522111
 20
152.7625272331
 30
0.0
 10
27.5811688042
 20
153.0286852012
 30
0.0
 10
27.670493216
 20
153.5777067439
 30
0.0
 10
27.9177315105
 20
154.0768077753
 30
0.0
 10
28.0780728162
 20
154.3079917665
 30
0.0
  0
ELLIPSE
  5
3B2
100
AcDbEntity
  8
0
100
AcDbEllipse
 62
7
  6
CONTINUOUS
 10
78.1099403622
 20
154.5822052243
 30
0.0
 11
0.5
 21
0.0
 31
0.0
 40
0.0349207695
 41
-3.1415926536
 42
-1.5707963268
  0
ELLIPSE
  5
3B3
100
AcDbEntity
  8
0
100
AcDbEllipse
 62
7
  6
CONTINUOUS
 10
94.7099403622
 20
154.5822052243
 30
0.0
 11
0.5
 21
0.0
 31
0.0
 40
0.0349207695
 41
-1.5707963268
 42
-0.0
  0
ELLIPSE
  5
3B4
100
AcDbEntity
  8
0
100
AcDbEllipse
 62
7
  6
CONTINUOUS
 10
133.0217614195
 20
77.0507061758
 30
0.0
 11
2.1239056338
 21
-2.1239056338
 31
0.0
 40
0.998782766
 41
-0.2097112408
 42
0.7847891758
  0
ELLIPSE
  5
3B5
100
AcDbEntity
  8
0
100
AcDbEllipse
 62
7
  6
CONTINUOUS
 10
38.598119305
 20
77.0507061758
 30
0.0
 11
2.1239056338
 21
2.1239056338
 31
0.0
 40
0.998782766
 41
2.3568034778
 42
3.3513038944
  0
ELLIPSE
  5
3B6
100
AcDbEntity
  8
0
100
AcDbEllipse
 62
7
  6
CONTINUOUS
 10
94.7099403622
 20
155.0536356124
 30
0.0
 11
0.5
 21
0.0
 31
0.0
 40
0.0349207695
 41
0.0
 42
1.5707963268
  0
ELLIPSE
  5
3B7
100
AcDbEntity
  8
0
100
AcDbEllipse
 62
7
  6
CONTINUOUS
 10
78.1099403622
 20
155.0536356124
 30
0.0
 11
0.5
 21
0.0
 31
0.0
 40
0.0349207695
 41
1.5707963268
 42
3.1415926536
  0
ELLIPSE
  5
3B8
100
AcDbEntity
  8
0
100
AcDbEllipse
 62
7
  6
CONTINUOUS
 10
141.3099403622
 20
152.7600435124
 30
0.0
 11
-0.0
 21
2.7161334109
 31
0.0
 40
0.9999995819
 41
-0.9644014994
 42
0.0
  0
ELLIPSE
  5
3B9
100
AcDbEntity
  8
0
100
AcDbEllipse
 62
7
  6
CONTINUOUS
 10
137.8099403622
 20
157.264162225
 30
0.0
 11
0.0
 21
1.7879853018
 31
0.0
 40
0.9999995819
 41
-4.7114745477
 42
-3.1415926536
  0
ELLIPSE
  5
3BA
100
AcDbEntity
  8
0
100
AcDbEllipse
 62
7
  6
CONTINUOUS
 10
33.8099403622
 20
157.264162225
 30
0.0
 11
-0.0
 21
1.7879853018
 31
0.0
 40
0.9999995819
 41
-3.1415926536
 42
-1.5717107594
  0
ELLIPSE
  5
3BB
100
AcDbEntity
  8
0
100
AcDbEllipse
 62
7
  6
CONTINUOUS
 10
30.3099403622
 20
152.7600435124
 30
0.0
 11
-0.0
 21
2.7161334109
 31
0.0
 40
0.9999995819
 41
-0.0000000011
 42
0.9644014994
  0
ENDSEC
  0
SECTION
  2
OBJECTS
  0
DICTIONARY
  5
C
100
AcDbDictionary
280
0
281
1
  3
ACAD_GROUP
350
D
  3
ACAD_MLINESTYLE
350
17
  3
ACAD_LAYOUT
350
1A
  3
ACAD_PLOTSETTINGS
350
19
  3
ACAD_PLOTSTYLENAME
350
E
  0
DICTIONARY
  5
D
102
{ACAD_REACTORS
330
C
102
}
100
AcDbDictionary
280
0
281
1
  0
ACDBDICTIONARYWDFLT
  5
E
102
{ACAD_REACTORS
330
C
102
}
100
AcDbDictionary
281
1
  3
Normal
350
F
100
AcDbDictionaryWithDefault
340
F
  0
DICTIONARY
  5
17
102
{ACAD_REACTORS
330
C
102
}
100
AcDbDictionary
280
0
281
1
  3
Standard
350
18
  0
DICTIONARY
  5
19
102
{ACAD_REACTORS
330
C
102
}
100
AcDbDictionary
281
1
  0
DICTIONARY
  5
1A
102
{ACAD_REACTORS
330
C
102
}
100
AcDbDictionary
281
1
  3
Model
350
3BC
  3
Layout1
350
3BD
  0
ACDBPLACEHOLDER
  5
F
102
{ACAD_REACTORS
330
E
102
}
  0
MLINESTYLE
  5
18
102
{ACAD_REACTORS
330
17
102
}
100
AcDbMlineStyle
  2
STANDARD
 70
0
  3

 62
256
 51
90.0
 52
90.0
 71
2
 49
0.5
 62
256
  6
BYLAYER
 49
-0.5
 62
256
  6
BYLAYER
  0
LAYOUT
  5
3BC
102
{ACAD_REACTORS
330
1A
102
}
100
AcDbPlotSettings
  1

  2
none_device
  4

  6

 40
0.0
 41
0.0
 42
0.0
 43
0.0
 44
210.0
 45
297.0
 46
0.0
 47
0.0
 48
0.0
 49
0.0
140
0.0
141
0.0
142
1.0
143
1.0
 70
1024
 72
1
 73
0
 74
0
  7

 75
0
147
1.0
148
0.0
149
0.0
100
AcDbLayout
  1
Model
 70
0
 71
0
 10
0.0
 20
0.0
 11
210.0
 21
297.0
 12
0.0
 22
0.0
 32
0.0
 14
0.0
 24
0.0
 34
0.0
 15
0.0
 25
0.0
 35
0.0
146
0.0
 13
0.0
 23
0.0
 33
0.0
 16
1.0
 26
0.0
 36
0.0
 17
0.0
 27
1.0
 37
0.0
 76
0
330
210
345
0
346
0
  0
LAYOUT
  5
3BD
102
{ACAD_REACTORS
330
1A
102
}
100
AcDbPlotSettings
  1

  2
none_device
  4

  6

 40
0.0
 41
0.0
 42
0.0
 43
0.0
 44
210.0
 45
297.0
 46
0.0
 47
0.0
 48
0.0
 49
0.0
140
0.0
141
0.0
142
1.0
143
1.0
 70
0
 72
1
 73
0
 74
0
  7

 75
0
147
1.0
148
0.0
149
0.0
100
AcDbLayout
  1
Layout1
 70
0
 71
1
 10
0.0
 20
0.0
 11
210.0
 21
297.0
 12
0.0
 22
0.0
 32
0.0
 14
0.0
 24
0.0
 34
0.0
 15
0.0
 25
0.0
 35
0.0
146
0.0
 13
0.0
 23
0.0
 33
0.0
 16
1.0
 26
0.0
 36
0.0
 17
0.0
 27
1.0
 37
0.0
 76
0
330
211
345
0
346
0
  0
ENDSEC
  0
EOF
