999
DXF file: C:\Users\sesa63760\Dev\_Creo\CAD\MCADID0002828_3D-CAD\drw0001_6.dxf
999
Pro/ENGINEER 2019471 by Parametric Technology Corporation
  0
SECTION
  2
HEADER
  9
$ACADVER
  1
AC1024
  9
$DWGCODEPAGE
  3
ANSI_1252
  9
$EXTMAX
 10
92.5220096298
 20
130.8525564765
 30
0.0
  9
$EXTMIN
 10
0.0
 20
0.0
 30
0.0
  9
$LIMMIN
 10
0.0
 20
0.0
  9
$LIMMAX
 10
92.5220096298
 20
130.8525564765
  9
$VIEWCTR
 10
46.2610048149
 20
65.4262782382
  9
$VIEWSIZE
 40
130.8525564765
  9
$CLAYER
  8
0
  9
$LTSCALE
 40
8.5296481259
  9
$CELTYPE
  6
BYLAYER
  9
$DIMSCALE
 40
1.0
  9
$DIMASZ
 40
1.1014524956
  9
$DIMEXO
 40
1.0
  9
$DIMDLI
 40
5.8932114324
  9
$DIMEXE
 40
1.0
  9
$DIMCEN
 40
1.3957606024
  9
$DIMLFAC
 40
1.0
  9
$DIMBLK
  1
_FILLED
  9
$DIMALT
 70
0
  9
$DIMALTF
 40
0.0393700787
  9
$DIMTXT
 40
1.5420334938
  9
$DIMTOL
 70
1
  9
$DIMLIM
 70
0
  9
$DIMTFAC
 40
1.0
  9
$DIMTP
 40
0.01
  9
$DIMTM
 40
0.01
  9
$DIMGAP
 40
0.625
  9
$DIMDSEP
 70
46
  9
$AUNITS
 70
0
  9
$PDMODE
 70
3
  9
$PDSIZE
 40
0.3125
  9
$HANDSEED
  5
274
  9
$TILEMODE
 70
1
  9
$MEASUREMENT
 70
1
  9
$INSUNITS
 70
4
  0
ENDSEC
  0
SECTION
  2
CLASSES
  0
CLASS
  1
ACDBDICTIONARYWDFLT
  2
AcDbDictionaryWithDefault
  3
AutoCAD 2000
 90
0
 91
1
280
0
281
0
  0
CLASS
  1
ACDBPLACEHOLDER
  2
AcDbPlaceHolder
  3
AutoCAD 2000
 90
0
 91
1
280
0
281
0
  0
CLASS
  1
LAYOUT
  2
AcDbLayout
  3
AutoCAD 2000
 90
0
 91
0
280
0
281
0
  0
ENDSEC
  0
SECTION
  2
TABLES
  0
TABLE
  2
VPORT
  5
8
100
AcDbSymbolTable
 70
2
  0
VPORT
  5
1F4
100
AcDbSymbolTableRecord
100
AcDbViewportTableRecord
  2
*ACTIVE
 70
0
 10
0.0
 20
0.0
 11
1.0
 21
1.0
 12
46.2610048149
 22
65.4262782382
 13
0.0
 23
0.0
 14
1.0
 24
1.0
 15
0.0
 25
0.0
 16
0.0
 26
0.0
 36
1.0
 17
0.0
 27
0.0
 37
0.0
 40
130.8525564765
 41
0.7070707071
 42
50.0
 43
0.0
 44
0.0
 50
0.0
 51
0.0
 71
0
 72
100
 73
1
 74
1
 75
0
 76
0
 77
0
 78
0
  0
ENDTAB
  0
TABLE
  2
LTYPE
  5
5
100
AcDbSymbolTable
 70
6
  0
LTYPE
  5
14
100
AcDbSymbolTableRecord
100
AcDbLinetypeTableRecord
  2
BYBLOCK
 70
0
  3

 72
65
 73
0
 40
0.0
  0
LTYPE
  5
15
100
AcDbSymbolTableRecord
100
AcDbLinetypeTableRecord
  2
BYLAYER
 70
0
  3

 72
65
 73
0
 40
0.0
  0
LTYPE
  5
16
100
AcDbSymbolTableRecord
100
AcDbLinetypeTableRecord
  2
CONTINUOUS
 70
64
  3
Solid line
 72
65
 73
0
 40
0.0
  0
LTYPE
  5
1F5
100
AcDbSymbolTableRecord
100
AcDbLinetypeTableRecord
  2
CENTER
 70
64
  3
____ _ ____ _ ____ _ ____ _ ____ _ ____ _ ____
 72
65
 73
4
 40
0.6
 49
0.375
 74
0
 49
-0.075
 74
0
 49
0.075
 74
0
 49
-0.075
 74
0
  0
LTYPE
  5
1F6
100
AcDbSymbolTableRecord
100
AcDbLinetypeTableRecord
  2
HIDDEN
 70
64
  3
- - - - - - - - - - - - - - - - - - - -
 72
65
 73
2
 40
0.2
 49
0.1
 74
0
 49
-0.1
 74
0
  0
LTYPE
  5
1F7
100
AcDbSymbolTableRecord
100
AcDbLinetypeTableRecord
  2
PHANTOM
 70
64
  3
_____ _ _ _____ _ _ _____ _ _ _____
 72
65
 73
6
 40
0.8
 49
0.45
 74
0
 49
-0.05
 74
0
 49
0.1
 74
0
 49
-0.05
 74
0
 49
0.1
 74
0
 49
-0.05
 74
0
  0
LTYPE
  5
1F8
100
AcDbSymbolTableRecord
100
AcDbLinetypeTableRecord
  2
DOT
 70
64
  3
. . . . . . . . . . . . . . . . . . . .
 72
65
 73
2
 40
0.2
 49
0.1
 74
0
 49
-0.1
 74
0
  0
LTYPE
  5
1F9
100
AcDbSymbolTableRecord
100
AcDbLinetypeTableRecord
  2
DASHED
 70
64
  3
- - - - - - - - - - - - - - - - - - - -
 72
65
 73
2
 40
0.2
 49
0.1
 74
0
 49
-0.1
 74
0
  0
ENDTAB
  0
TABLE
  2
LAYER
  5
2
100
AcDbSymbolTable
 70
36
  0
LAYER
  5
10
100
AcDbSymbolTableRecord
100
AcDbLayerTableRecord
  2
0
 70
0
 62
7
  6
CONTINUOUS
370
-3
390
F
  0
LAYER
  5
1FA
100
AcDbSymbolTableRecord
100
AcDbLayerTableRecord
  2
DEFAULT_1
 70
0
 62
7
  6
CENTER
370
-3
390
F
  0
LAYER
  5
1FB
100
AcDbSymbolTableRecord
100
AcDbLayerTableRecord
  2
DEFAULT_2
 70
0
 62
7
  6
HIDDEN
370
-3
390
F
  0
LAYER
  5
1FC
100
AcDbSymbolTableRecord
100
AcDbLayerTableRecord
  2
DEFAULT_3
 70
0
 62
7
  6
PHANTOM
370
-3
390
F
  0
LAYER
  5
1FD
100
AcDbSymbolTableRecord
100
AcDbLayerTableRecord
  2
00_COMPONENTS
 70
0
 62
7
  6
CONTINUOUS
370
-3
390
F
  0
LAYER
  5
1FE
100
AcDbSymbolTableRecord
100
AcDbLayerTableRecord
  2
01_1_DEFAULT_DATUMS
 70
0
 62
7
  6
CONTINUOUS
370
-3
390
F
  0
LAYER
  5
1FF
100
AcDbSymbolTableRecord
100
AcDbLayerTableRecord
  2
01_PLANES
 70
0
 62
7
  6
CONTINUOUS
370
-3
390
F
  0
LAYER
  5
200
100
AcDbSymbolTableRecord
100
AcDbLayerTableRecord
  2
02_COORD_SYS
 70
0
 62
7
  6
CONTINUOUS
370
-3
390
F
  0
LAYER
  5
201
100
AcDbSymbolTableRecord
100
AcDbLayerTableRecord
  2
03_AXES
 70
0
 62
7
  6
CONTINUOUS
370
-3
390
F
  0
LAYER
  5
202
100
AcDbSymbolTableRecord
100
AcDbLayerTableRecord
  2
04_POINTS
 70
0
 62
7
  6
CONTINUOUS
370
-3
390
F
  0
LAYER
  5
203
100
AcDbSymbolTableRecord
100
AcDbLayerTableRecord
  2
05_CURVES
 70
0
 62
7
  6
CONTINUOUS
370
-3
390
F
  0
LAYER
  5
204
100
AcDbSymbolTableRecord
100
AcDbLayerTableRecord
  2
06_SURFS
 70
0
 62
7
  6
CONTINUOUS
370
-3
390
F
  0
LAYER
  5
205
100
AcDbSymbolTableRecord
100
AcDbLayerTableRecord
  2
07_COSMETICS
 70
0
 62
7
  6
CONTINUOUS
370
-3
390
F
  0
LAYER
  5
206
100
AcDbSymbolTableRecord
100
AcDbLayerTableRecord
  2
10_NOTES
 70
0
 62
7
  6
CONTINUOUS
370
-3
390
F
  0
LAYER
  5
207
100
AcDbSymbolTableRecord
100
AcDbLayerTableRecord
  2
11_NOTES_PUB
 70
0
 62
7
  6
CONTINUOUS
370
-3
390
F
  0
LAYER
  5
208
100
AcDbSymbolTableRecord
100
AcDbLayerTableRecord
  2
13_REF_GTOL
 70
0
 62
7
  6
CONTINUOUS
370
-3
390
F
  0
LAYER
  5
209
100
AcDbSymbolTableRecord
100
AcDbLayerTableRecord
  2
16_MISC
 70
0
 62
7
  6
CONTINUOUS
370
-3
390
F
  0
LAYER
  5
20A
100
AcDbSymbolTableRecord
100
AcDbLayerTableRecord
  2
17_NO_PRINT
 70
0
 62
7
  6
CONTINUOUS
370
-3
390
F
  0
LAYER
  5
20B
100
AcDbSymbolTableRecord
100
AcDbLayerTableRecord
  2
18_DATUM_CAMS_JOINTS
 70
0
 62
7
  6
CONTINUOUS
370
-3
390
F
  0
LAYER
  5
20C
100
AcDbSymbolTableRecord
100
AcDbLayerTableRecord
  2
19_DATUM_FUNCTIONAL
 70
0
 62
7
  6
CONTINUOUS
370
-3
390
F
  0
LAYER
  5
20D
100
AcDbSymbolTableRecord
100
AcDbLayerTableRecord
  2
20_DATUM_KINEMATIC_SCHEME
 70
0
 62
7
  6
CONTINUOUS
370
-3
390
F
  0
ENDTAB
  0
TABLE
  2
STYLE
  5
3
100
AcDbSymbolTable
 70
1
  0
STYLE
  5
11
100
AcDbSymbolTableRecord
100
AcDbTextStyleTableRecord
  2
STANDARD
 70
0
 40
0.0
 41
1.0
 50
0.0
 71
0
 42
0.2
  3
ARIAL.TTF
  4

  0
STYLE
  5
20E
100
AcDbSymbolTableRecord
100
AcDbTextStyleTableRecord
  2
TEXTSTYLE_1
 70
0
 40
0.0
 41
0.8
 50
0.0
 71
0
 42
0.2
  3
gdt
  4

  0
ENDTAB
  0
TABLE
  2
VIEW
  5
6
100
AcDbSymbolTable
 70
0
  0
ENDTAB
  0
TABLE
  2
UCS
  5
7
100
AcDbSymbolTable
 70
0
  0
ENDTAB
  0
TABLE
  2
APPID
  5
9
100
AcDbSymbolTable
 70
1
  0
APPID
  5
20F
100
AcDbSymbolTableRecord
100
AcDbRegAppTableRecord
  2
ACAD
 70
0
  0
ENDTAB
  0
TABLE
  2
BLOCK_RECORD
  5
1
100
AcDbSymbolTable
 70
0
  0
BLOCK_RECORD
  5
210
100
AcDbSymbolTableRecord
100
AcDbBlockTableRecord
  2
*Model_Space
  0
BLOCK_RECORD
  5
211
100
AcDbSymbolTableRecord
100
AcDbBlockTableRecord
  2
*Paper_Space
  0
BLOCK_RECORD
  5
212
100
AcDbSymbolTableRecord
100
AcDbBlockTableRecord
  2
_FILLED
  0
ENDTAB
  0
TABLE
  2
DIMSTYLE
  5
A
100
AcDbSymbolTable
 70
1
100
AcDbDimStyleTable
 71
0
  0
DIMSTYLE
105
213
100
AcDbSymbolTableRecord
100
AcDbDimStyleTableRecord
  2
STANDARD
 70
0
  3

  4

 40
1.0
 41
1.1014524956
 42
1.0
 43
0.38
 44
1.0
 45
0.0
 46
0.0
 47
0.01
 48
0.01
140
1.5420334938
141
0.09
142
0.0
143
25.4
144
1.0
145
0.0
146
1.0
147
0.625
 71
1
 72
0
 73
0
 74
0
 75
0
 76
0
 77
1
 78
8
 79
2
170
0
171
1
172
0
173
0
174
0
175
0
176
0
177
0
178
0
270
2
179
2
271
2
272
2
273
2
274
2
275
0
280
0
281
0
282
0
283
1
284
8
285
0
286
0
287
3
288
0
340
11
278
46
341
212
342
212
343
212
344
212
  0
ENDTAB
  0
ENDSEC
  0
SECTION
  2
BLOCKS
  0
BLOCK
  5
20
100
AcDbEntity
  8
0
100
AcDbBlockBegin
  2
*Model_Space
 70
0
 10
0.0
 20
0.0
 30
0.0
  3
*Model_Space
  1

  0
ENDBLK
  5
21
100
AcDbEntity
  8
0
100
AcDbBlockEnd
  0
BLOCK
  5
1C
100
AcDbEntity
  8
0
100
AcDbBlockBegin
  2
*Paper_Space
 70
0
 10
0.0
 20
0.0
 30
0.0
  3
*Paper_Space
  1

  0
ENDBLK
  5
1D
100
AcDbEntity
  8
0
100
AcDbBlockEnd
  0
BLOCK
  5
214
100
AcDbEntity
  8
0
100
AcDbBlockBegin
  2
_FILLED
 70
64
 10
0.0
 20
0.0
  3
_FILLED
  1

  0
SOLID
  5
215
100
AcDbEntity
  8
0
  6
BYBLOCK
 62
0
100
AcDbTrace
 10
0.0
 20
0.0
 11
-1.0
 21
0.25
 12
-1.0
 22
-0.25
 13
-1.0
 23
-0.25
  0
ENDBLK
  5
216
100
AcDbEntity
  8
0
  6
BYBLOCK
 62
0
100
AcDbBlockEnd
  0
ENDSEC
  0
SECTION
  2
ENTITIES
  0
LINE
  5
217
100
AcDbEntity
  8
0
100
AcDbLine
 62
7
  6
BYLAYER
 10
10.4647436961
 20
56.4333536901
 11
10.4647436961
 21
58.2304024645
  0
LINE
  5
218
100
AcDbEntity
  8
0
100
AcDbLine
 62
7
  6
BYLAYER
 10
10.4647436961
 20
58.2304024645
 11
10.4647424065
 21
58.4753664593
  0
LINE
  5
219
100
AcDbEntity
  8
0
100
AcDbLine
 62
7
  6
BYLAYER
 10
13.4647436961
 20
58.1308620632
 11
13.4647436961
 21
56.2804001363
  0
LINE
  5
21A
100
AcDbEntity
  8
0
100
AcDbLine
 62
7
  6
BYLAYER
 10
13.5424520918
 20
58.1192153322
 11
13.5424520918
 21
57.8218665913
  0
LINE
  5
21B
100
AcDbEntity
  8
0
100
AcDbLine
 62
7
  6
BYLAYER
 10
13.5424519883
 20
57.7687441276
 11
13.5424519883
 21
56.4333536901
  0
LINE
  5
21C
100
AcDbEntity
  8
0
100
AcDbLine
 62
7
  6
BYLAYER
 10
17.6107338916
 20
57.2903025655
 11
17.6116934341
 21
57.1583576756
  0
LINE
  5
21D
100
AcDbEntity
  8
0
100
AcDbLine
 62
7
  6
BYLAYER
 10
17.5865183624
 20
55.313162815
 11
17.5865183624
 21
57.5122320875
  0
LINE
  5
21E
100
AcDbEntity
  8
0
100
AcDbLine
 62
7
  6
BYLAYER
 10
17.6126325859
 20
57.3991117436
 11
17.6126325859
 21
55.4183089948
  0
LINE
  5
21F
100
AcDbEntity
  8
0
100
AcDbLine
 62
7
  6
BYLAYER
 10
17.6126325859
 20
57.3991117436
 11
17.6107338916
 21
57.2903025655
  0
LINE
  5
220
100
AcDbEntity
  8
0
100
AcDbLine
 62
7
  6
BYLAYER
 10
17.6126325859
 20
57.1582168028
 11
17.610729866
 21
57.0492100503
  0
LINE
  5
221
100
AcDbEntity
  8
0
100
AcDbLine
 62
7
  6
BYLAYER
 10
20.658889683
 20
55.0702129116
 11
20.658889683
 21
75.0512782382
  0
LINE
  5
222
100
AcDbEntity
  8
0
100
AcDbLine
 62
7
  6
BYLAYER
 10
20.676344748
 20
55.7012782382
 11
20.676344748
 21
55.9512782382
  0
LINE
  5
223
100
AcDbEntity
  8
0
100
AcDbLine
 62
7
  6
BYLAYER
 10
13.5942848685
 20
57.8140864905
 11
13.5683696318
 21
57.7648551988
  0
LINE
  5
224
100
AcDbEntity
  8
0
100
AcDbLine
 62
7
  6
BYLAYER
 10
22.6588746227
 20
77.0512782382
 11
20.658889683
 21
75.0512782382
  0
LINE
  5
225
100
AcDbEntity
  8
0
100
AcDbLine
 62
7
  6
BYLAYER
 10
22.0302780141
 20
55.9512782382
 11
22.0302780141
 21
55.2012782382
  0
LINE
  5
226
100
AcDbEntity
  8
0
100
AcDbLine
 62
7
  6
BYLAYER
 10
22.0564819038
 20
55.7012782382
 11
22.0564819038
 21
55.9512782382
  0
LINE
  5
227
100
AcDbEntity
  8
0
100
AcDbLine
 62
7
  6
BYLAYER
 10
22.0533648562
 20
55.9512782382
 11
22.0302780141
 21
55.5083285247
  0
LINE
  5
228
100
AcDbEntity
  8
0
100
AcDbLine
 62
7
  6
BYLAYER
 10
22.0302780141
 20
55.2012782382
 11
22.0695838486
 21
55.9512782382
  0
LINE
  5
229
100
AcDbEntity
  8
0
100
AcDbLine
 62
7
  6
BYLAYER
 10
28.3075221279
 20
55.5083285247
 11
28.3075221279
 21
55.2012782382
  0
LINE
  5
22A
100
AcDbEntity
  8
0
100
AcDbLine
 62
7
  6
BYLAYER
 10
28.4330460011
 20
55.5023414191
 11
28.4330460011
 21
55.1953859464
  0
LINE
  5
22B
100
AcDbEntity
  8
0
100
AcDbLine
 62
7
  6
BYLAYER
 10
28.5472775009
 20
55.4790011999
 11
28.5472775009
 21
55.1721115716
  0
LINE
  5
22C
100
AcDbEntity
  8
0
100
AcDbLine
 62
7
  6
BYLAYER
 10
31.520245105
 20
55.479001443
 11
31.520245105
 21
55.1721118133
  0
LINE
  5
22D
100
AcDbEntity
  8
0
100
AcDbLine
 62
7
  6
BYLAYER
 10
31.6344756261
 20
55.5024037765
 11
31.6344756261
 21
55.1953859464
  0
LINE
  5
22E
100
AcDbEntity
  8
0
100
AcDbLine
 62
7
  6
BYLAYER
 10
31.7599994993
 20
55.2012782382
 11
31.7599994993
 21
55.5083285247
  0
LINE
  5
22F
100
AcDbEntity
  8
0
100
AcDbLine
 62
7
  6
BYLAYER
 10
33.658889683
 20
73.0512782382
 11
33.658889683
 21
63.0512782382
  0
LINE
  5
230
100
AcDbEntity
  8
0
100
AcDbLine
 62
7
  6
BYLAYER
 10
13.0999318101
 20
55.9857408317
 11
17.5865183624
 21
55.313162815
  0
LINE
  5
231
100
AcDbEntity
  8
0
100
AcDbLine
 62
7
  6
BYLAYER
 10
17.6126325859
 20
55.4183089948
 11
17.5865183624
 21
55.4222237422
  0
LINE
  5
232
100
AcDbEntity
  8
0
100
AcDbLine
 62
7
  6
BYLAYER
 10
17.6126325859
 20
55.5268730368
 11
20.658889683
 21
55.0702129116
  0
LINE
  5
233
100
AcDbEntity
  8
0
100
AcDbLine
 62
7
  6
BYLAYER
 10
17.5865183624
 20
55.6621339363
 11
13.4647436961
 21
56.2804001363
  0
LINE
  5
234
100
AcDbEntity
  8
0
100
AcDbLine
 62
7
  6
BYLAYER
 10
20.658889683
 20
55.2017352572
 11
17.5865183624
 21
55.6625909553
  0
LINE
  5
235
100
AcDbEntity
  8
0
100
AcDbLine
 62
7
  6
BYLAYER
 10
13.542451956
 20
57.7687441276
 11
20.658889683
 21
56.7012782382
  0
LINE
  5
236
100
AcDbEntity
  8
0
100
AcDbLine
 62
7
  6
BYLAYER
 10
35.908889683
 20
55.5083285247
 11
35.908889683
 21
53.8012782382
  0
LINE
  5
237
100
AcDbEntity
  8
0
100
AcDbLine
 62
7
  6
BYLAYER
 10
36.408889683
 20
54.1006169333
 11
36.408889683
 21
53.8012782382
  0
LINE
  5
238
100
AcDbEntity
  8
0
100
AcDbLine
 62
7
  6
BYLAYER
 10
35.908889683
 20
53.8012782382
 11
36.408889683
 21
53.8012782382
  0
LINE
  5
239
100
AcDbEntity
  8
0
100
AcDbLine
 62
7
  6
BYLAYER
 10
35.908889683
 20
54.1006169333
 11
36.408889683
 21
54.1006169333
  0
LINE
  5
23A
100
AcDbEntity
  8
0
100
AcDbLine
 62
7
  6
BYLAYER
 10
20.658889683
 20
55.2012782382
 11
28.3075221279
 21
55.2012782382
  0
LINE
  5
23B
100
AcDbEntity
  8
0
100
AcDbLine
 62
7
  6
BYLAYER
 10
31.7599994993
 20
55.2012782382
 11
35.908889683
 21
55.2012782382
  0
LINE
  5
23C
100
AcDbEntity
  8
0
100
AcDbLine
 62
7
  6
BYLAYER
 10
22.0302780141
 20
55.5083285247
 11
28.3075221279
 21
55.5083285247
  0
LINE
  5
23D
100
AcDbEntity
  8
0
100
AcDbLine
 62
7
  6
BYLAYER
 10
31.7599994993
 20
55.5083285247
 11
35.908889683
 21
55.5083285247
  0
LINE
  5
23E
100
AcDbEntity
  8
0
100
AcDbLine
 62
7
  6
BYLAYER
 10
17.6107338916
 20
57.2903025655
 11
20.658889683
 21
56.8328005838
  0
LINE
  5
23F
100
AcDbEntity
  8
0
100
AcDbLine
 62
7
  6
BYLAYER
 10
17.5865183624
 20
57.4030312641
 11
17.6126325859
 21
57.3991117436
  0
LINE
  5
240
100
AcDbEntity
  8
0
100
AcDbLine
 62
7
  6
BYLAYER
 10
13.5424522295
 20
58.1192117631
 11
17.5865183624
 21
57.5122320875
  0
LINE
  5
241
100
AcDbEntity
  8
0
100
AcDbLine
 62
7
  6
BYLAYER
 10
39.0809109662
 20
77.0512782382
 11
39.1332761609
 21
74.0512782382
  0
LINE
  5
242
100
AcDbEntity
  8
0
100
AcDbLine
 62
7
  6
BYLAYER
 10
37.7385126804
 20
75.0512782382
 11
37.7385126804
 21
77.0512782382
  0
LINE
  5
243
100
AcDbEntity
  8
0
100
AcDbLine
 62
7
  6
BYLAYER
 10
38.7526963241
 20
55.461268118
 11
38.7526963241
 21
55.1544756334
  0
LINE
  5
244
100
AcDbEntity
  8
0
100
AcDbLine
 62
7
  6
BYLAYER
 10
39.0809109662
 20
75.0512782382
 11
39.0809109662
 21
77.0512782382
  0
LINE
  5
245
100
AcDbEntity
  8
0
100
AcDbLine
 62
7
  6
BYLAYER
 10
38.7526963241
 20
55.461268118
 11
38.7782359867
 21
55.9512782382
  0
LINE
  5
246
100
AcDbEntity
  8
0
100
AcDbLine
 62
7
  6
BYLAYER
 10
38.7526963241
 20
55.1544756334
 11
38.7944549792
 21
55.9512782382
  0
LINE
  5
247
100
AcDbEntity
  8
0
100
AcDbLine
 62
7
  6
BYLAYER
 10
22.0564819038
 20
55.7012782382
 11
20.676344748
 21
55.7012782382
  0
LINE
  5
248
100
AcDbEntity
  8
0
100
AcDbLine
 62
7
  6
BYLAYER
 10
80.9114122636
 20
55.9512782382
 11
20.658889683
 21
55.9512782382
  0
LINE
  5
249
100
AcDbEntity
  8
0
100
AcDbLine
 62
7
  6
BYLAYER
 10
13.5424519883
 20
56.4333536901
 11
10.4647436675
 21
56.4333536901
  0
LINE
  5
24A
100
AcDbEntity
  8
0
100
AcDbLine
 62
7
  6
BYLAYER
 10
33.658889683
 20
63.0512782382
 11
20.658889683
 21
63.0512782382
  0
LINE
  5
24B
100
AcDbEntity
  8
0
100
AcDbLine
 62
7
  6
BYLAYER
 10
36.408889683
 20
54.1006169333
 11
38.7526963241
 21
55.461268118
  0
LINE
  5
24C
100
AcDbEntity
  8
0
100
AcDbLine
 62
7
  6
BYLAYER
 10
36.408889683
 20
53.8012782382
 11
38.7526963241
 21
55.1544756334
  0
LINE
  5
24D
100
AcDbEntity
  8
0
100
AcDbLine
 62
7
  6
BYLAYER
 10
53.358889683
 20
74.0512782382
 11
53.358889683
 21
72.0512782382
  0
LINE
  5
24E
100
AcDbEntity
  8
0
100
AcDbLine
 62
7
  6
BYLAYER
 10
54.658889683
 20
74.0512782382
 11
54.658889683
 21
72.0512782382
  0
LINE
  5
24F
100
AcDbEntity
  8
0
100
AcDbLine
 62
7
  6
BYLAYER
 10
33.658889683
 20
71.0512782382
 11
20.658889683
 21
71.0512782382
  0
LINE
  5
250
100
AcDbEntity
  8
0
100
AcDbLine
 62
7
  6
BYLAYER
 10
53.358889683
 20
72.0512782382
 11
83.658889683
 21
72.0512782382
  0
LINE
  5
251
100
AcDbEntity
  8
0
100
AcDbLine
 62
7
  6
BYLAYER
 10
33.658889683
 20
73.0512782382
 11
20.658889683
 21
73.0512782382
  0
LINE
  5
252
100
AcDbEntity
  8
0
100
AcDbLine
 62
7
  6
BYLAYER
 10
39.1332761609
 20
74.0512782382
 11
83.6414346181
 21
74.0512782382
  0
LINE
  5
253
100
AcDbEntity
  8
0
100
AcDbLine
 62
7
  6
BYLAYER
 10
39.0809109662
 20
75.0512782382
 11
37.7385126804
 21
75.0512782382
  0
LINE
  5
254
100
AcDbEntity
  8
0
100
AcDbLine
 62
7
  6
BYLAYER
 10
22.6588746227
 20
77.0512782382
 11
39.0809109662
 21
77.0512782382
  0
LINE
  5
255
100
AcDbEntity
  8
0
100
AcDbLine
 62
7
  6
BYLAYER
 10
83.658889683
 20
73.0512782382
 11
77.9876078634
 21
74.0512782382
  0
LINE
  5
256
100
AcDbEntity
  8
0
100
AcDbLine
 62
7
  6
BYLAYER
 10
83.658889683
 20
56.9512782382
 11
80.9114122636
 21
55.9512782382
  0
LINE
  5
257
100
AcDbEntity
  8
0
100
AcDbLine
 62
7
  6
BYLAYER
 10
77.9876078634
 20
72.0512782382
 11
77.9876078634
 21
74.0512782382
  0
LINE
  5
258
100
AcDbEntity
  8
0
100
AcDbLine
 62
7
  6
BYLAYER
 10
80.4992906507
 20
73.6084007959
 11
80.4992906507
 21
55.9512782382
  0
LINE
  5
259
100
AcDbEntity
  8
0
100
AcDbLine
 62
7
  6
BYLAYER
 10
82.7968304149
 20
72.0512782382
 11
82.7968304149
 21
73.2032825462
  0
LINE
  5
25A
100
AcDbEntity
  8
0
100
AcDbLine
 62
7
  6
BYLAYER
 10
83.6414346181
 20
73.0543560371
 11
83.6414346181
 21
74.0512782382
  0
LINE
  5
25B
100
AcDbEntity
  8
0
100
AcDbLine
 62
7
  6
BYLAYER
 10
83.658889683
 20
73.0512782382
 11
83.658889683
 21
56.9512782382
  0
LINE
  5
25C
100
AcDbEntity
  8
0
100
AcDbLine
 62
7
  6
BYLAYER
 10
13.5431676141
 20
57.821759263
 11
13.542451956
 21
57.7687441276
  0
LINE
  5
25D
100
AcDbEntity
  8
0
100
AcDbLine
 62
7
  6
BYLAYER
 10
13.4647436961
 20
58.1308620632
 11
13.5424522295
 21
58.1192117631
  0
LINE
  5
25E
100
AcDbEntity
  8
0
100
AcDbLine
 62
7
  6
BYLAYER
 10
13.5424520918
 20
57.8218665913
 11
13.5942848685
 21
57.8140864905
  0
SPLINE
  5
25F
100
AcDbEntity
  8
0
100
AcDbSpline
 62
7
  6
BYLAYER
 70
0
 71
3
 72
22
 73
18
 74
0
 42
0.0000001
 43
0.0000001
 44
0.0000000001
 40
0.0
 40
0.0
 40
0.0
 40
0.0
 40
0.0042883815
 40
0.0097017604
 40
0.0172565091
 40
0.0256661129
 40
0.0478731984
 40
0.0656205696
 40
0.0957902065
 40
0.1506528657
 40
0.210820828
 40
0.2931833235
 40
0.3732539585
 40
0.4615505205
 40
0.5505541346
 40
0.756173189
 40
1.0
 40
1.0
 40
1.0
 40
1.0
 10
10.4647424251
 20
58.2301907488
 30
0.0
 10
10.4650943635
 20
58.2364467362
 30
0.0
 10
10.470834366
 20
58.2444234248
 30
0.0
 10
10.4910203665
 20
58.2436095713
 30
0.0
 10
10.5118160008
 20
58.2383535844
 30
0.0
 10
10.5500488298
 20
58.2266520164
 30
0.0
 10
10.5988049425
 20
58.2149175882
 30
0.0
 10
10.6714743225
 20
58.2070170804
 30
0.0
 10
10.7783252022
 20
58.2129585024
 30
0.0
 10
10.9287248946
 20
58.1957415834
 30
0.0
 10
11.1307050819
 20
58.1617019429
 30
0.0
 10
11.3598689006
 20
58.1306121169
 30
0.0
 10
11.6183683467
 20
58.0995923271
 30
0.0
 10
11.8831956483
 20
58.0634076437
 30
0.0
 10
12.2767780024
 20
58.0067133885
 30
0.0
 10
12.830335133
 20
57.9277235241
 30
0.0
 10
13.2921366267
 20
57.8600384252
 30
0.0
 10
13.5424520918
 20
57.8218665913
 30
0.0
  0
SPLINE
  5
260
100
AcDbEntity
  8
0
100
AcDbSpline
 62
7
  6
BYLAYER
 70
0
 71
3
 72
21
 73
17
 74
0
 42
0.0000001
 43
0.0000001
 44
0.0000000001
 40
0.0
 40
0.0
 40
0.0
 40
0.0
 40
0.0085304361
 40
0.027455723
 40
0.0575180503
 40
0.0969389393
 40
0.1462406516
 40
0.2067269224
 40
0.2773064745
 40
0.3563848799
 40
0.4449788422
 40
0.5447665555
 40
0.6528121218
 40
0.7658082564
 40
0.882125177
 40
1.0
 40
1.0
 40
1.0
 40
1.0
 10
10.4647436961
 20
58.4751836364
 30
0.0
 10
10.464743696
 20
58.4837966093
 30
0.0
 10
10.4981419823
 20
58.5002668019
 30
0.0
 10
10.5514357138
 20
58.4811792343
 30
0.0
 10
10.6423385768
 20
58.4756746164
 30
0.0
 10
10.7615796955
 20
58.4761925308
 30
0.0
 10
10.912473104
 20
58.4693051975
 30
0.0
 10
11.0931883386
 20
58.4468470024
 30
0.0
 10
11.3036888135
 20
58.4201743625
 30
0.0
 10
11.5427501048
 20
58.3933716797
 30
0.0
 10
11.8110636147
 20
58.3627544521
 30
0.0
 10
12.1077555137
 20
58.3232763395
 30
0.0
 10
12.4286806109
 20
58.279251789
 30
0.0
 10
12.7661164056
 20
58.232756179
 30
0.0
 10
13.1131615038
 20
58.1833219226
 30
0.0
 10
13.3470762683
 20
58.1487233257
 30
0.0
 10
13.4647436961
 20
58.1308620632
 30
0.0
  0
SPLINE
  5
261
100
AcDbEntity
  8
0
100
AcDbSpline
 62
7
  6
BYLAYER
 70
0
 71
3
 72
10
 73
6
 74
0
 42
0.0000001
 43
0.0000001
 44
0.0000000001
 40
0.0
 40
0.0
 40
0.0
 40
0.0
 40
0.3587179218
 40
0.6914587149
 40
1.0
 40
1.0
 40
1.0
 40
1.0
 10
13.0999318101
 20
55.9857408317
 30
0.0
 10
13.1064870564
 20
56.0393227634
 30
0.0
 10
13.119403152
 20
56.1425724371
 30
0.0
 10
13.1389792948
 20
56.2917789053
 30
0.0
 10
13.1521466059
 20
56.3873801511
 30
0.0
 10
13.1586456212
 20
56.4333536901
 30
0.0
  0
SPLINE
  5
262
100
AcDbEntity
  8
0
100
AcDbSpline
 62
7
  6
BYLAYER
 70
0
 71
3
 72
13
 73
9
 74
0
 42
0.0000001
 43
0.0000001
 44
0.0000000001
 40
0.0
 40
0.0
 40
0.0
 40
0.0
 40
0.0326435339
 40
0.1272231442
 40
0.2795721045
 40
0.4840976186
 40
0.728043257
 40
1.0
 40
1.0
 40
1.0
 40
1.0
 10
10.4647436917
 20
56.4333536895
 30
0.0
 10
10.4649510818
 20
56.4042606084
 30
0.0
 10
10.6391374756
 20
56.4194510072
 30
0.0
 10
10.8243942888
 20
56.3351543927
 30
0.0
 10
11.2533796078
 20
56.2869486271
 30
0.0
 10
11.7681684967
 20
56.1910597223
 30
0.0
 10
12.407145538
 20
56.093228548
 30
0.0
 10
12.8603163758
 20
56.0222689386
 30
0.0
 10
13.0999318101
 20
55.9857408317
 30
0.0
  0
SPLINE
  5
263
100
AcDbEntity
  8
0
100
AcDbSpline
 62
7
  6
BYLAYER
 70
0
 71
3
 72
30
 73
26
 74
0
 42
0.0000001
 43
0.0000001
 44
0.0000000001
 40
0.0
 40
0.0
 40
0.0
 40
0.0
 40
0.0910836697
 40
0.1754622929
 40
0.253606984
 40
0.3259519958
 40
0.3928739304
 40
0.4547473956
 40
0.5119895682
 40
0.5649468433
 40
0.6139029167
 40
0.6591299288
 40
0.7008825955
 40
0.739394741
 40
0.7748784048
 40
0.8075247331
 40
0.837531903
 40
0.8650960494
 40
0.8903589277
 40
0.9134532796
 40
0.9345121059
 40
0.953629873
 40
0.9708150451
 40
0.9859520844
 40
1.0
 40
1.0
 40
1.0
 40
1.0
 10
13.1586456212
 20
56.4333536901
 30
0.0
 10
13.1647074084
 20
56.4762343113
 30
0.0
 10
13.1766592787
 20
56.5588005046
 30
0.0
 10
13.194819193
 20
56.6780072104
 30
0.0
 10
13.2125194558
 20
56.7882681431
 30
0.0
 10
13.2297858807
 20
56.8901886216
 30
0.0
 10
13.2466439991
 20
56.9843275326
 30
0.0
 10
13.2631255577
 20
57.0712342595
 30
0.0
 10
13.2792690688
 20
57.1514420435
 30
0.0
 10
13.2951153557
 20
57.2254391059
 30
0.0
 10
13.3107012499
 20
57.2936432406
 30
0.0
 10
13.3260637874
 20
57.3564263357
 30
0.0
 10
13.3412451151
 20
57.4141329416
 30
0.0
 10
13.3562924076
 20
57.4670742841
 30
0.0
 10
13.3712586267
 20
57.515524901
 30
0.0
 10
13.3862083636
 20
57.559732568
 30
0.0
 10
13.4012255372
 20
57.5999222227
 30
0.0
 10
13.416415899
 20
57.6362722408
 30
0.0
 10
13.4319129828
 20
57.6688932865
 30
0.0
 10
13.4478897532
 20
57.6978038085
 30
0.0
 10
13.4645803812
 20
57.7228872682
 30
0.0
 10
13.4822721733
 20
57.74375558
 30
0.0
 10
13.50119847
 20
57.7595331559
 30
0.0
 10
13.5215738732
 20
57.7688832177
 30
0.0
 10
13.5358375645
 20
57.7696726013
 30
0.0
 10
13.542451956
 20
57.7687438973
 30
0.0
  0
SPLINE
  5
264
100
AcDbEntity
  8
0
100
AcDbSpline
 62
7
  6
BYLAYER
 70
0
 71
3
 72
11
 73
7
 74
0
 42
0.0000001
 43
0.0000001
 44
0.0000000001
 40
0.0
 40
0.0
 40
0.0
 40
0.0
 40
0.3228463302
 40
0.6559705545
 40
0.8280137565
 40
1.0
 40
1.0
 40
1.0
 40
1.0
 10
28.4330460011
 20
55.1953859464
 30
0.0
 10
28.4196365702
 20
55.1978534028
 30
0.0
 10
28.392236956
 20
55.1998066529
 30
0.0
 10
28.3574963385
 20
55.1994908707
 30
0.0
 10
28.3291435989
 20
55.2007739326
 30
0.0
 10
28.3147336181
 20
55.2012556662
 30
0.0
 10
28.3075221279
 20
55.2012782382
 30
0.0
  0
SPLINE
  5
265
100
AcDbEntity
  8
0
100
AcDbSpline
 62
7
  6
BYLAYER
 70
0
 71
3
 72
11
 73
7
 74
0
 42
0.0000001
 43
0.0000001
 44
0.0000000001
 40
0.0
 40
0.0
 40
0.0
 40
0.0
 40
0.334448852
 40
0.6667201379
 40
0.8334887603
 40
1.0
 40
1.0
 40
1.0
 40
1.0
 10
28.5472775009
 20
55.1721115716
 30
0.0
 10
28.5347629539
 20
55.1757824807
 30
0.0
 10
28.5093758598
 20
55.1809487908
 30
0.0
 10
28.4773873584
 20
55.1861881974
 30
0.0
 10
28.4521951189
 20
55.1921032876
 30
0.0
 10
28.4394788712
 20
55.1945574571
 30
0.0
 10
28.4330460011
 20
55.1953859464
 30
0.0
  0
SPLINE
  5
266
100
AcDbEntity
  8
0
100
AcDbSpline
 62
7
  6
BYLAYER
 70
0
 71
3
 72
11
 73
7
 74
0
 42
0.0000001
 43
0.0000001
 44
0.0000000001
 40
0.0
 40
0.0
 40
0.0
 40
0.0
 40
0.1664991329
 40
0.3332556468
 40
0.6655301073
 40
1.0
 40
1.0
 40
1.0
 40
1.0
 10
31.6344756261
 20
55.1953859464
 30
0.0
 10
31.6280432787
 20
55.194557523
 30
0.0
 10
31.6153280717
 20
55.1921035169
 30
0.0
 10
31.5901368673
 20
55.1861885696
 30
0.0
 10
31.5581481468
 20
55.180949295
 30
0.0
 10
31.5327603161
 20
55.1757830048
 30
0.0
 10
31.520245105
 20
55.1721118133
 30
0.0
  0
SPLINE
  5
267
100
AcDbEntity
  8
0
100
AcDbSpline
 62
7
  6
BYLAYER
 70
0
 71
3
 72
11
 73
7
 74
0
 42
0.0000001
 43
0.0000001
 44
0.0000000001
 40
0.0
 40
0.0
 40
0.0
 40
0.0
 40
0.171703827
 40
0.343464406
 40
0.6765816283
 40
1.0
 40
1.0
 40
1.0
 40
1.0
 10
31.7599994993
 20
55.2012782382
 30
0.0
 10
31.7527998599
 20
55.2012557603
 30
0.0
 10
31.7384135528
 20
55.2007748466
 30
0.0
 10
31.7100848012
 20
55.1994922887
 30
0.0
 10
31.6753324666
 20
55.199807798
 30
0.0
 10
31.6479089773
 20
55.1978572402
 30
0.0
 10
31.6344756261
 20
55.1953859464
 30
0.0
  0
SPLINE
  5
268
100
AcDbEntity
  8
0
100
AcDbSpline
 62
7
  6
BYLAYER
 70
0
 71
3
 72
10
 73
6
 74
0
 42
0.0000001
 43
0.0000001
 44
0.0000000001
 40
0.0
 40
0.0
 40
0.0
 40
0.0
 40
0.3281037554
 40
0.6616761897
 40
1.0
 40
1.0
 40
1.0
 40
1.0
 10
31.6344756261
 20
55.5024037765
 30
0.0
 10
31.6481173783
 20
55.5041357985
 30
0.0
 10
31.6757395266
 20
55.5071964734
 30
0.0
 10
31.717696547
 20
55.5064292249
 30
0.0
 10
31.7458198977
 20
55.5083285247
 30
0.0
 10
31.7599994993
 20
55.5083285247
 30
0.0
  0
SPLINE
  5
269
100
AcDbEntity
  8
0
100
AcDbSpline
 62
7
  6
BYLAYER
 70
0
 71
3
 72
10
 73
6
 74
0
 42
0.0000001
 43
0.0000001
 44
0.0000000001
 40
0.0
 40
0.0
 40
0.0
 40
0.0
 40
0.3466636117
 40
0.6802377394
 40
1.0
 40
1.0
 40
1.0
 40
1.0
 10
31.5202460838
 20
55.4790016859
 30
0.0
 10
31.533324378
 20
55.4822492634
 30
0.0
 10
31.5590908331
 20
55.4882861105
 30
0.0
 10
31.5974784736
 20
55.4944298918
 30
0.0
 10
31.6221448432
 20
55.5008382014
 30
0.0
 10
31.6344756261
 20
55.5024037765
 30
0.0
  0
SPLINE
  5
26A
100
AcDbEntity
  8
0
100
AcDbSpline
 62
7
  6
BYLAYER
 70
0
 71
3
 72
10
 73
6
 74
0
 42
0.0000001
 43
0.0000001
 44
0.0000000001
 40
0.0
 40
0.0
 40
0.0
 40
0.0
 40
0.3270701008
 40
0.6596844532
 40
1.0
 40
1.0
 40
1.0
 40
1.0
 10
30.0337608136
 20
55.2944404354
 30
0.0
 10
30.1974279674
 20
55.2944404354
 30
0.0
 10
30.5276995764
 20
55.3080177462
 30
0.0
 10
31.0248152822
 20
55.3695437483
 30
0.0
 10
31.3549702751
 20
55.4379605933
 30
0.0
 10
31.5202460838
 20
55.4790016859
 30
0.0
  0
SPLINE
  5
26B
100
AcDbEntity
  8
0
100
AcDbSpline
 62
7
  6
BYLAYER
 70
0
 71
3
 72
10
 73
6
 74
0
 42
0.0000001
 43
0.0000001
 44
0.0000000001
 40
0.0
 40
0.0
 40
0.0
 40
0.0
 40
0.3406614632
 40
0.6731238868
 40
1.0
 40
1.0
 40
1.0
 40
1.0
 10
28.5466101717
 20
55.4791669102
 30
0.0
 10
28.7121294788
 20
55.438065381
 30
0.0
 10
29.0425220187
 20
55.3695555954
 30
0.0
 10
29.5398675931
 20
55.3080171533
 30
0.0
 10
29.8701160912
 20
55.2944404354
 30
0.0
 10
30.0337608136
 20
55.2944404354
 30
0.0
  0
SPLINE
  5
26C
100
AcDbEntity
  8
0
100
AcDbSpline
 62
7
  6
BYLAYER
 70
0
 71
3
 72
10
 73
6
 74
0
 42
0.0000001
 43
0.0000001
 44
0.0000000001
 40
0.0
 40
0.0
 40
0.0
 40
0.0
 40
0.3463461694
 40
0.6705008393
 40
1.0
 40
1.0
 40
1.0
 40
1.0
 10
28.5466380004
 20
55.4792786718
 30
0.0
 10
28.5335046973
 20
55.4825399158
 30
0.0
 10
28.5079334128
 20
55.4883284984
 30
0.0
 10
28.4693683544
 20
55.4945908422
 30
0.0
 10
28.4445365087
 20
55.5009037629
 30
0.0
 10
28.4317651075
 20
55.502525281
 30
0.0
  0
SPLINE
  5
26D
100
AcDbEntity
  8
0
100
AcDbSpline
 62
7
  6
BYLAYER
 70
0
 71
3
 72
10
 73
6
 74
0
 42
0.0000001
 43
0.0000001
 44
0.0000000001
 40
0.0
 40
0.0
 40
0.0
 40
0.0
 40
0.3423696004
 40
0.6797011786
 40
1.0
 40
1.0
 40
1.0
 40
1.0
 10
28.3075221279
 20
55.5083285247
 30
0.0
 10
28.3217244725
 20
55.5083285247
 30
0.0
 10
28.3498832139
 20
55.506423747
 30
0.0
 10
28.3914119052
 20
55.5072004667
 30
0.0
 10
28.4185841282
 20
55.5041988011
 30
0.0
 10
28.4317651075
 20
55.502525281
 30
0.0
  0
SPLINE
  5
26E
100
AcDbEntity
  8
0
100
AcDbSpline
 62
7
  6
BYLAYER
 70
0
 71
3
 72
12
 73
8
 74
0
 42
0.0000001
 43
0.0000001
 44
0.0000000001
 40
0.0
 40
0.0
 40
0.0
 40
0.0
 40
0.1897837693
 40
0.3806651208
 40
0.5570883986
 40
0.8006381523
 40
1.0
 40
1.0
 40
1.0
 40
1.0
 10
10.4648423032
 20
58.1772834757
 30
0.0
 10
10.4650991797
 20
58.1822942813
 30
0.0
 10
10.4728480757
 20
58.1925113565
 30
0.0
 10
10.4885525715
 20
58.1901965201
 30
0.0
 10
10.5041504073
 20
58.1873434088
 30
0.0
 10
10.519979631
 20
58.1826929524
 30
0.0
 10
10.5311961994
 20
58.1794223065
 30
0.0
 10
10.5362441674
 20
58.1779066235
 30
0.0
  0
SPLINE
  5
26F
100
AcDbEntity
  8
0
100
AcDbSpline
 62
7
  6
BYLAYER
 70
0
 71
3
 72
11
 73
7
 74
0
 42
0.0000001
 43
0.0000001
 44
0.0000000001
 40
0.0
 40
0.0
 40
0.0
 40
0.0
 40
0.2612172892
 40
0.5141602132
 40
0.761108585
 40
1.0
 40
1.0
 40
1.0
 40
1.0
 10
10.5362441674
 20
58.1779066235
 30
0.0
 10
10.5300280413
 20
58.178097311
 30
0.0
 10
10.5177889063
 20
58.1783611124
 30
0.0
 10
10.4996672506
 20
58.178392456
 30
0.0
 10
10.4820803631
 20
58.1780531784
 30
0.0
 10
10.4705219672
 20
58.1775822465
 30
0.0
 10
10.4648423032
 20
58.1772834757
 30
0.0
  0
ELLIPSE
  5
270
100
AcDbEntity
  8
0
100
AcDbEllipse
 62
7
  6
BYLAYER
 10
13.4647436961
 20
56.2280110029
 30
0.0
 11
2.99999015
 21
-0.4501327725
 31
0.0
 40
0.01707866
 41
1.5733588845
 42
3.1441552112
  0
ELLIPSE
  5
271
100
AcDbEntity
  8
0
100
AcDbEllipse
 62
7
  6
BYLAYER
 10
30.0337608136
 20
61.1912782382
 30
0.0
 11
6.2
 21
0.0
 31
0.0
 40
1.0
 41
-1.8129101937
 42
-1.3286824599
  0
ENDSEC
  0
SECTION
  2
OBJECTS
  0
DICTIONARY
  5
C
100
AcDbDictionary
280
0
281
1
  3
ACAD_GROUP
350
D
  3
ACAD_MLINESTYLE
350
17
  3
ACAD_LAYOUT
350
1A
  3
ACAD_PLOTSETTINGS
350
19
  3
ACAD_PLOTSTYLENAME
350
E
  0
DICTIONARY
  5
D
102
{ACAD_REACTORS
330
C
102
}
100
AcDbDictionary
280
0
281
1
  0
ACDBDICTIONARYWDFLT
  5
E
102
{ACAD_REACTORS
330
C
102
}
100
AcDbDictionary
281
1
  3
Normal
350
F
100
AcDbDictionaryWithDefault
340
F
  0
DICTIONARY
  5
17
102
{ACAD_REACTORS
330
C
102
}
100
AcDbDictionary
280
0
281
1
  3
Standard
350
18
  0
DICTIONARY
  5
19
102
{ACAD_REACTORS
330
C
102
}
100
AcDbDictionary
281
1
  0
DICTIONARY
  5
1A
102
{ACAD_REACTORS
330
C
102
}
100
AcDbDictionary
281
1
  3
Model
350
272
  3
Layout1
350
273
  0
ACDBPLACEHOLDER
  5
F
102
{ACAD_REACTORS
330
E
102
}
  0
MLINESTYLE
  5
18
102
{ACAD_REACTORS
330
17
102
}
100
AcDbMlineStyle
  2
STANDARD
 70
0
  3

 62
256
 51
90.0
 52
90.0
 71
2
 49
0.5
 62
256
  6
BYLAYER
 49
-0.5
 62
256
  6
BYLAYER
  0
LAYOUT
  5
272
102
{ACAD_REACTORS
330
1A
102
}
100
AcDbPlotSettings
  1

  2
none_device
  4

  6

 40
0.0
 41
0.0
 42
0.0
 43
0.0
 44
210.0
 45
297.0
 46
0.0
 47
0.0
 48
0.0
 49
0.0
140
0.0
141
0.0
142
1.0
143
1.0
 70
1024
 72
1
 73
0
 74
0
  7

 75
0
147
1.0
148
0.0
149
0.0
100
AcDbLayout
  1
Model
 70
0
 71
0
 10
0.0
 20
0.0
 11
210.0
 21
297.0
 12
0.0
 22
0.0
 32
0.0
 14
0.0
 24
0.0
 34
0.0
 15
0.0
 25
0.0
 35
0.0
146
0.0
 13
0.0
 23
0.0
 33
0.0
 16
1.0
 26
0.0
 36
0.0
 17
0.0
 27
1.0
 37
0.0
 76
0
330
210
345
0
346
0
  0
LAYOUT
  5
273
102
{ACAD_REACTORS
330
1A
102
}
100
AcDbPlotSettings
  1

  2
none_device
  4

  6

 40
0.0
 41
0.0
 42
0.0
 43
0.0
 44
210.0
 45
297.0
 46
0.0
 47
0.0
 48
0.0
 49
0.0
140
0.0
141
0.0
142
1.0
143
1.0
 70
0
 72
1
 73
0
 74
0
  7

 75
0
147
1.0
148
0.0
149
0.0
100
AcDbLayout
  1
Layout1
 70
0
 71
1
 10
0.0
 20
0.0
 11
210.0
 21
297.0
 12
0.0
 22
0.0
 32
0.0
 14
0.0
 24
0.0
 34
0.0
 15
0.0
 25
0.0
 35
0.0
146
0.0
 13
0.0
 23
0.0
 33
0.0
 16
1.0
 26
0.0
 36
0.0
 17
0.0
 27
1.0
 37
0.0
 76
0
330
211
345
0
346
0
  0
ENDSEC
  0
EOF
