  0
SECTION
  2
HEADER
  9
$ACADVER
  1
AC1009
  9
$DWGCODEPAGE
  3
ansi_1250
  9
$INSBASE
 10
0.0
 20
0.0
 30
0.0
  9
$EXTMIN
 10
-3.326772
 20
-2.145669
 30
0.0
  9
$EXTMAX
 10
3.326772
 20
0.19685
 30
0.0
  9
$LIMMIN
 10
0.0
 20
0.0
  9
$LIMMAX
 10
0.0
 20
0.0
  9
$ORTHOMODE
 70
     0
  9
$REGENMODE
 70
     1
  9
$FILLMODE
 70
     1
  9
$QTEXTMODE
 70
     0
  9
$MIRRTEXT
 70
     1
  9
$DRAGMODE
 70
     2
  9
$LTSCALE
 40
1.0
  9
$OSMODE
 70
     0
  9
$ATTMODE
 70
     1
  9
$TEXTSIZE
 40
0.2
  9
$TRACEWID
 40
0.05
  9
$TEXTSTYLE
  7
STANDARD
  9
$CLAYER
  8
0
  9
$CELTYPE
  6
CONTINUOUS
  9
$CECOLOR
 62
   256
  9
$DIMSCALE
 40
1.0
  9
$DIMASZ
 40
0.18
  9
$DIMEXO
 40
0.0625
  9
$DIMDLI
 40
0.38
  9
$DIMRND
 40
0.0
  9
$DIMDLE
 40
0.0
  9
$DIMEXE
 40
0.18
  9
$DIMTP
 40
0.0
  9
$DIMTM
 40
0.0
  9
$DIMTXT
 40
0.18
  9
$DIMCEN
 40
0.09
  9
$DIMTSZ
 40
0.0
  9
$DIMTOL
 70
     0
  9
$DIMLIM
 70
     0
  9
$DIMTIH
 70
     1
  9
$DIMTOH
 70
     1
  9
$DIMSE1
 70
     0
  9
$DIMSE2
 70
     0
  9
$DIMTAD
 70
     0
  9
$DIMZIN
 70
     0
  9
$DIMBLK
  1

  9
$DIMASO
 70
     1
  9
$DIMSHO
 70
     1
  9
$DIMPOST
  1

  9
$DIMAPOST
  1

  9
$DIMALT
 70
     0
  9
$DIMALTD
 70
     2
  9
$DIMALTF
 40
25.4
  9
$DIMLFAC
 40
1.0
  9
$DIMTOFL
 70
     0
  9
$DIMTVP
 40
0.0
  9
$DIMTIX
 70
     0
  9
$DIMSOXD
 70
     0
  9
$DIMSAH
 70
     0
  9
$DIMBLK1
  1

  9
$DIMBLK2
  1

  9
$DIMSTYLE
  2
STANDARD
  9
$DIMCLRD
 70
     0
  9
$DIMCLRE
 70
     0
  9
$DIMCLRT
 70
     0
  9
$DIMTFAC
 40
1.0
  9
$DIMGAP
 40
0.09
  9
$LUNITS
 70
     2
  9
$LUPREC
 70
     4
  9
$AXISMODE
 70
     0
  9
$AXISUNIT
 10
0.0
 20
0.0
  9
$SKETCHINC
 40
0.1
  9
$FILLETRAD
 40
0.0
  9
$AUNITS
 70
     0
  9
$AUPREC
 70
     0
  9
$MENU
  1
acad
  9
$ELEVATION
 40
0.0
  9
$PELEVATION
 40
0.0
  9
$THICKNESS
 40
0.0
  9
$LIMCHECK
 70
     0
  9
$BLIPMODE
 70
     1
  9
$CHAMFERA
 40
0.0
  9
$CHAMFERB
 40
0.0
  9
$SKPOLY
 70
     0
  9
$TDCREATE
 40
0.000000000
  9
$TDUPDATE
 40
0.000000000
  9
$TDINDWG
 40
0.0000000000
  9
$TDUSRTIMER
 40
0.0000000000
  9
$USRTIMER
 70
     1
  9
$ANGBASE
 50
0.0
  9
$ANGDIR
 70
     0
  9
$PDMODE
 70
     0
  9
$PDSIZE
 40
0.0
  9
$PLINEWID
 40
0.0
  9
$COORDS
 70
     0
  9
$SPLFRAME
 70
     0
  9
$SPLINETYPE
 70
     6
  9
$SPLINESEGS
 70
     8
  9
$ATTDIA
 70
     0
  9
$ATTREQ
 70
     1
  9
$HANDLING
 70
     1
  9
$HANDSEED
  5
10E
  9
$SURFTAB1
 70
     6
  9
$SURFTAB2
 70
     6
  9
$SURFTYPE
 70
     6
  9
$SURFU
 70
     6
  9
$SURFV
 70
     6
  9
$UCSNAME
  2

  9
$UCSORG
 10
0.0
 20
0.0
 30
0.0
  9
$UCSXDIR
 10
1.0
 20
0.0
 30
0.0
  9
$UCSYDIR
 10
0.0
 20
1.0
 30
0.0
  9
$PUCSNAME
  2

  9
$PUCSORG
 10
0.0
 20
0.0
 30
0.0
  9
$PUCSXDIR
 10
1.0
 20
0.0
 30
0.0
  9
$PUCSYDIR
 10
0.0
 20
1.0
 30
0.0
  9
$USERI1
 70
     0
  9
$USERI2
 70
     0
  9
$USERI3
 70
     0
  9
$USERI4
 70
     0
  9
$USERI5
 70
     0
  9
$USERR1
 40
0.0
  9
$USERR2
 40
0.0
  9
$USERR3
 40
0.0
  9
$USERR4
 40
0.0
  9
$USERR5
 40
0.0
  9
$WORLDVIEW
 70
     1
  9
$SHADEDGE
 70
     3
  9
$SHADEDIF
 70
    70
  9
$TILEMODE
 70
     1
  9
$MAXACTVP
 70
    16
  9
$PINSBASE
 10
0.0
 20
0.0
 30
0.0
  9
$PLIMCHECK
 70
     0
  9
$PEXTMIN
 10
1.000000E+20
 20
1.000000E+20
 30
1.000000E+20
  9
$PEXTMAX
 10
-1.000000E+20
 20
-1.000000E+20
 30
-1.000000E+20
  9
$PLIMMIN
 10
0.0
 20
0.0
  9
$PLIMMAX
 10
12.0
 20
9.0
  9
$UNITMODE
 70
     0
  9
$VISRETAIN
 70
     0
  9
$PLINEGEN
 70
     1
  9
$PSLTSCALE
 70
     0
  9
$TREEDEPTH
 70
  3020
  0
ENDSEC
  0
SECTION
  2
TABLES
  0
TABLE
  2
VPORT
 70
     1
  0
VPORT
  2
*ACTIVE
 70
     0
 10
0.0
 20
0.0
 11
1.0
 21
1.0
 12
6.591288
 22
4.579184
 13
0.0
 23
0.0
 14
1.0
 24
1.0
 15
0.0
 25
0.0
 16
0.0
 26
0.0
 36
1.0
 17
0.0
 27
0.0
 37
0.0
 40
9.158369
 41
0.688564
 42
50.0
 43
0.0
 44
0.0
 50
0.0
 51
0.0
 71
     0
 72
   100
 73
     1
 74
     1
 75
     0
 76
     0
 77
     0
 78
     0
  0
ENDTAB
  0
TABLE
  2
LTYPE
 70
     5
  0
LTYPE
  2
CONTINUOUS
 70
    64
  3
Solid line
 72
    65
 73
     0
 40
0.0
  0
LTYPE
  2
CENTER
 70
    64
  3
Center ____ _ ____ _ ____ _ ____ _ ____ _ ____
 72
    65
 73
     4
 40
50.8
 49
31.75
 49
-6.35
 49
6.35
 49
-6.35
  0
LTYPE
  2
HIDDEN
 70
    64
  3
Hidden __ __ __ __ __ __ __ __ __ __ __ __ __ __
 72
    65
 73
     2
 40
9.525
 49
6.35
 49
-3.175
  0
LTYPE
  2
CENTER2
 70
    64
  3
Center (.5x) ___ _ ___ _ ___ _ ___ _ ___ _ ___
 72
    65
 73
     4
 40
28.575
 49
19.05
 49
-3.175
 49
3.175
 49
-3.175
  0
LTYPE
  2
HIDDEN2
 70
    64
  3
Hidden (.5x) _ _ _ _ _ _ _ _ _ _ _ _ _ _ _ _ _
 72
    65
 73
     2
 40
4.7625
 49
3.175
 49
-1.5875
  0
ENDTAB
  0
TABLE
  2
LAYER
 70
     1
  0
LAYER
  2
0
 70
     0
 62
     7
  6
CONTINUOUS
  0
ENDTAB
  0
TABLE
  2
STYLE
 70
     1
  0
STYLE
  2
STANDARD
 70
     0
 40
0.0
 41
1.0
 50
0.0
 71
     0
 42
0.0
  3
txt
  4

  0
ENDTAB
  0
TABLE
  2
VIEW
 70
     0
  0
ENDTAB
  0
TABLE
  2
UCS
 70
     0
  0
ENDTAB
  0
TABLE
  2
APPID
 70
     1
  0
APPID
  2
ACAD
 70
     0
  0
ENDTAB
  0
TABLE
  2
DIMSTYLE
 70
     1
  0
DIMSTYLE
  2
STANDARD
 70
     0
  3

  4

  5

  6

  7

 40
1.0
 41
0.18
 42
0.0625
 43
0.38
 44
0.18
 45
0.0
 46
0.0
 47
0.0
 48
0.0
 71
     0
 72
     0
 73
     1
 74
     1
 75
     0
 76
     0
 77
     0
 78
     0
140
0.18
141
0.09
142
0.0
143
25.4
144
1.0
145
0.0
146
1.0
147
0.09
170
     0
171
     2
172
     0
173
     0
174
     0
175
     0
176
     0
177
     0
178
     0
  0
ENDTAB
  0
ENDSEC
  0
SECTION
  2
BLOCKS
  0
ENDSEC
  0
SECTION
  2
ENTITIES
  0
LINE
  8
0
  6
CONTINUOUS
 62
     7
  5
AF
 10
1.537402
 20
-1.552165
 30
0.0
 11
1.525591
 21
-1.552165
 31
0.0
  0
LINE
  8
0
  6
CONTINUOUS
 62
     7
  5
B0
 10
1.537402
 20
-1.582677
 30
0.0
 11
1.537402
 21
-1.552165
 31
0.0
  0
LINE
  8
0
  6
CONTINUOUS
 62
     7
  5
B1
 10
1.525591
 20
-2.145669
 30
0.0
 11
1.525591
 21
-1.299213
 31
0.0
  0
LINE
  8
0
  6
CONTINUOUS
 62
     7
  5
B2
 10
1.525591
 20
-1.582677
 30
0.0
 11
1.689764
 21
-1.582677
 31
0.0
  0
LINE
  8
0
  6
CONTINUOUS
 62
     7
  5
B3
 10
1.525591
 20
-1.94685
 30
0.0
 11
1.689764
 21
-1.94685
 31
0.0
  0
LINE
  8
0
  6
CONTINUOUS
 62
     7
  5
B4
 10
1.689764
 20
-1.94685
 30
0.0
 11
1.689764
 21
-1.833661
 31
0.0
  0
LINE
  8
0
  6
CONTINUOUS
 62
     7
  5
B5
 10
1.689764
 20
-1.695866
 30
0.0
 11
1.689764
 21
-1.683531
 31
0.0
  0
LINE
  8
0
  6
CONTINUOUS
 62
     7
  5
B6
 10
1.689764
 20
-1.683531
 30
0.0
 11
1.689764
 21
-1.582677
 31
0.0
  0
LINE
  8
0
  6
CONTINUOUS
 62
     7
  5
B7
 10
1.525591
 20
-1.833661
 30
0.0
 11
1.689764
 21
-1.833661
 31
0.0
  0
LINE
  8
0
  6
CONTINUOUS
 62
     7
  5
B8
 10
1.689764
 20
-1.833661
 30
0.0
 11
1.689764
 21
-1.764764
 31
0.0
  0
LINE
  8
0
  6
CONTINUOUS
 62
     7
  5
B9
 10
1.525591
 20
-1.764764
 30
0.0
 11
1.689764
 21
-1.764764
 31
0.0
  0
LINE
  8
0
  6
CONTINUOUS
 62
     7
  5
BA
 10
1.689764
 20
-1.764764
 30
0.0
 11
1.689764
 21
-1.695866
 31
0.0
  0
LINE
  8
0
  6
CONTINUOUS
 62
     7
  5
BB
 10
1.525591
 20
-1.695866
 30
0.0
 11
1.689764
 21
-1.695866
 31
0.0
  0
ARC
  8
0
  6
CONTINUOUS
 62
     7
  5
BC
 10
-0.339567
 20
-0.888299
 30
0.0
 40
0.019685
 50
0.0
 51
90.0
  0
LINE
  8
0
  6
CONTINUOUS
 62
     7
  5
BD
 10
-0.319882
 20
-0.888299
 30
0.0
 11
-0.319882
 21
-0.907984
 31
0.0
  0
ARC
  8
0
  6
CONTINUOUS
 62
     7
  5
BE
 10
-0.339567
 20
-0.907984
 30
0.0
 40
0.019685
 50
300.0
 51
0.0
  0
ARC
  8
0
  6
CONTINUOUS
 62
     7
  5
BF
 10
-0.319882
 20
-0.94208
 30
0.0
 40
0.019685
 50
120.0
 51
180.0
  0
LINE
  8
0
  6
CONTINUOUS
 62
     7
  5
C0
 10
-0.339567
 20
-0.94208
 30
0.0
 11
-0.339567
 21
-0.986724
 31
0.0
  0
LINE
  8
0
  6
CONTINUOUS
 62
     7
  5
C1
 10
-0.339567
 20
-0.986724
 30
0.0
 11
-0.575787
 21
-0.986724
 31
0.0
  0
LINE
  8
0
  6
CONTINUOUS
 62
     7
  5
C2
 10
-0.575787
 20
-0.986724
 30
0.0
 11
-0.575787
 21
-0.94208
 31
0.0
  0
ARC
  8
0
  6
CONTINUOUS
 62
     7
  5
C3
 10
-0.595472
 20
-0.94208
 30
0.0
 40
0.019685
 50
0.0
 51
60.0
  0
ARC
  8
0
  6
CONTINUOUS
 62
     7
  5
C4
 10
-0.575787
 20
-0.907984
 30
0.0
 40
0.019685
 50
180.0
 51
240.0
  0
LINE
  8
0
  6
CONTINUOUS
 62
     7
  5
C5
 10
-0.595472
 20
-0.907984
 30
0.0
 11
-0.595472
 21
-0.888299
 31
0.0
  0
ARC
  8
0
  6
CONTINUOUS
 62
     7
  5
C6
 10
-0.575787
 20
-0.888299
 30
0.0
 40
0.019685
 50
90.0
 51
180.0
  0
LINE
  8
0
  6
CONTINUOUS
 62
     7
  5
C7
 10
-0.575787
 20
-0.868614
 30
0.0
 11
-0.339567
 21
-0.868614
 31
0.0
  0
LINE
  8
0
  6
CONTINUOUS
 62
     7
  5
C8
 10
-0.280512
 20
-0.829244
 30
0.0
 11
-0.280512
 21
-1.026094
 31
0.0
  0
LINE
  8
0
  6
CONTINUOUS
 62
     7
  5
C9
 10
-0.280512
 20
-1.026094
 30
0.0
 11
-0.634843
 21
-1.026094
 31
0.0
  0
LINE
  8
0
  6
CONTINUOUS
 62
     7
  5
CA
 10
-1.348228
 20
-1.177165
 30
0.0
 11
-1.460433
 21
-1.177165
 31
0.0
  0
LINE
  8
0
  6
CONTINUOUS
 62
     7
  5
CB
 10
-1.460433
 20
-1.177165
 30
0.0
 11
-1.460433
 21
-0.909449
 31
0.0
  0
LINE
  8
0
  6
CONTINUOUS
 62
     7
  5
CC
 10
-1.460433
 20
-0.909449
 30
0.0
 11
-0.987992
 21
-0.909449
 31
0.0
  0
LINE
  8
0
  6
CONTINUOUS
 62
     7
  5
CD
 10
-0.987992
 20
-0.909449
 30
0.0
 11
-0.987992
 21
-1.177165
 31
0.0
  0
LINE
  8
0
  6
CONTINUOUS
 62
     7
  5
CE
 10
-0.987992
 20
-1.177165
 30
0.0
 11
-1.100197
 21
-1.177165
 31
0.0
  0
LINE
  8
0
  6
CONTINUOUS
 62
     7
  5
CF
 10
-1.100197
 20
-1.177165
 30
0.0
 11
-1.100197
 21
-1.248031
 31
0.0
  0
LINE
  8
0
  6
CONTINUOUS
 62
     7
  5
D0
 10
-1.100197
 20
-1.248031
 30
0.0
 11
-1.143504
 21
-1.248031
 31
0.0
  0
LINE
  8
0
  6
CONTINUOUS
 62
     7
  5
D1
 10
-1.143504
 20
-1.248031
 30
0.0
 11
-1.143504
 21
-1.291339
 31
0.0
  0
LINE
  8
0
  6
CONTINUOUS
 62
     7
  5
D2
 10
-1.143504
 20
-1.291339
 30
0.0
 11
-1.304921
 21
-1.291339
 31
0.0
  0
LINE
  8
0
  6
CONTINUOUS
 62
     7
  5
D3
 10
-1.304921
 20
-1.291339
 30
0.0
 11
-1.304921
 21
-1.248031
 31
0.0
  0
LINE
  8
0
  6
CONTINUOUS
 62
     7
  5
D4
 10
-1.304921
 20
-1.248031
 30
0.0
 11
-1.348228
 21
-1.248031
 31
0.0
  0
LINE
  8
0
  6
CONTINUOUS
 62
     7
  5
D5
 10
-1.348228
 20
-1.248031
 30
0.0
 11
-1.348228
 21
-1.177165
 31
0.0
  0
LINE
  8
0
  6
CONTINUOUS
 62
     7
  5
D6
 10
-0.944882
 20
-0.859449
 30
0.0
 11
-0.944882
 21
-1.33189
 31
0.0
  0
LINE
  8
0
  6
CONTINUOUS
 62
     7
  5
D7
 10
-0.944882
 20
-1.33189
 30
0.0
 11
-1.496063
 21
-1.33189
 31
0.0
  0
LINE
  8
0
  6
CONTINUOUS
 62
     7
  5
D8
 10
2.112205
 20
-1.027559
 30
0.0
 11
2.112205
 21
-0.980315
 31
0.0
  0
LINE
  8
0
  6
CONTINUOUS
 62
     7
  5
D9
 10
2.159449
 20
-0.980315
 30
0.0
 11
2.159449
 21
-1.027559
 31
0.0
  0
LINE
  8
0
  6
CONTINUOUS
 62
     7
  5
DA
 10
2.112205
 20
-1.027559
 30
0.0
 11
2.159449
 21
-1.027559
 31
0.0
  0
LINE
  8
0
  6
CONTINUOUS
 62
     7
  5
DB
 10
2.112205
 20
-0.980315
 30
0.0
 11
2.159449
 21
-0.980315
 31
0.0
  0
LINE
  8
0
  6
CONTINUOUS
 62
     7
  5
DC
 10
1.805118
 20
-0.905118
 30
0.0
 11
1.857695
 21
-0.905118
 31
0.0
  0
LINE
  8
0
  6
CONTINUOUS
 62
     7
  5
DD
 10
2.413959
 20
-0.905118
 30
0.0
 11
2.466535
 21
-0.905118
 31
0.0
  0
LINE
  8
0
  6
CONTINUOUS
 62
     7
  5
DE
 10
2.217109
 20
-0.905118
 30
0.0
 11
2.251395
 21
-0.905118
 31
0.0
  0
LINE
  8
0
  6
CONTINUOUS
 62
     7
  5
DF
 10
2.020258
 20
-0.905118
 30
0.0
 11
2.054545
 21
-0.905118
 31
0.0
  0
LINE
  8
0
  6
CONTINUOUS
 62
     7
  5
E0
 10
1.805118
 20
-1.095669
 30
0.0
 11
1.805118
 21
-0.905118
 31
0.0
  0
LINE
  8
0
  6
CONTINUOUS
 62
     7
  5
E1
 10
2.466535
 20
-0.905118
 30
0.0
 11
2.466535
 21
-1.095669
 31
0.0
  0
LINE
  8
0
  6
CONTINUOUS
 62
     7
  5
E2
 10
2.466535
 20
-1.095669
 30
0.0
 11
1.805118
 21
-1.095669
 31
0.0
  0
ARC
  8
0
  6
CONTINUOUS
 62
     7
  5
E3
 10
2.135827
 20
-1.003937
 30
0.0
 40
0.127953
 50
50.561572
 51
129.438428
  0
ARC
  8
0
  6
CONTINUOUS
 62
     7
  5
E4
 10
1.938976
 20
-1.003937
 30
0.0
 40
0.127953
 50
50.561572
 51
129.438428
  0
ARC
  8
0
  6
CONTINUOUS
 62
     7
  5
E5
 10
2.332677
 20
-1.003937
 30
0.0
 40
0.127953
 50
50.561572
 51
129.438428
  0
LINE
  8
0
  6
CONTINUOUS
 62
     7
  5
E6
 10
1.781496
 20
-1.167323
 30
0.0
 11
1.781496
 21
-0.840551
 31
0.0
  0
LINE
  8
0
  6
CONTINUOUS
 62
     7
  5
E7
 10
2.490157
 20
-0.840551
 30
0.0
 11
2.490157
 21
-1.167323
 31
0.0
  0
LINE
  8
0
  6
CONTINUOUS
 62
     7
  5
E8
 10
1.781496
 20
-1.167323
 30
0.0
 11
2.490157
 21
-1.167323
 31
0.0
  0
LINE
  8
0
  6
CONTINUOUS
 62
     7
  5
E9
 10
1.781496
 20
-0.840551
 30
0.0
 11
2.490157
 21
-0.840551
 31
0.0
  0
LINE
  8
0
  6
CONTINUOUS
 62
     7
  5
EA
 10
2.309055
 20
-1.027559
 30
0.0
 11
2.309055
 21
-0.980315
 31
0.0
  0
LINE
  8
0
  6
CONTINUOUS
 62
     7
  5
EB
 10
2.356299
 20
-0.980315
 30
0.0
 11
2.356299
 21
-1.027559
 31
0.0
  0
LINE
  8
0
  6
CONTINUOUS
 62
     7
  5
EC
 10
2.309055
 20
-1.027559
 30
0.0
 11
2.356299
 21
-1.027559
 31
0.0
  0
LINE
  8
0
  6
CONTINUOUS
 62
     7
  5
ED
 10
2.309055
 20
-0.980315
 30
0.0
 11
2.356299
 21
-0.980315
 31
0.0
  0
LINE
  8
0
  6
CONTINUOUS
 62
     7
  5
EE
 10
1.915354
 20
-1.027559
 30
0.0
 11
1.915354
 21
-0.980315
 31
0.0
  0
LINE
  8
0
  6
CONTINUOUS
 62
     7
  5
EF
 10
1.962598
 20
-0.980315
 30
0.0
 11
1.962598
 21
-1.027559
 31
0.0
  0
LINE
  8
0
  6
CONTINUOUS
 62
     7
  5
F0
 10
1.915354
 20
-1.027559
 30
0.0
 11
1.962598
 21
-1.027559
 31
0.0
  0
LINE
  8
0
  6
CONTINUOUS
 62
     7
  5
F1
 10
1.915354
 20
-0.980315
 30
0.0
 11
1.962598
 21
-0.980315
 31
0.0
  0
LINE
  8
0
  6
CONTINUOUS
 62
     7
  5
F2
 10
2.568898
 20
-1.299213
 30
0.0
 11
1.702756
 21
-1.299213
 31
0.0
  0
LINE
  8
0
  6
CONTINUOUS
 62
     7
  5
F3
 10
1.702756
 20
-1.299213
 30
0.0
 11
1.702756
 21
-0.767717
 31
0.0
  0
LINE
  8
0
  6
CONTINUOUS
 62
     7
  5
F4
 10
1.702756
 20
-0.767717
 30
0.0
 11
2.568898
 21
-0.767717
 31
0.0
  0
LINE
  8
0
  6
CONTINUOUS
 62
     7
  5
F5
 10
2.568898
 20
-0.767717
 30
0.0
 11
2.568898
 21
-1.299213
 31
0.0
  0
LINE
  8
0
  6
CONTINUOUS
 62
     7
  5
F6
 10
1.525591
 20
-1.299213
 30
0.0
 11
1.702756
 21
-1.299213
 31
0.0
  0
LINE
  8
0
  6
CONTINUOUS
 62
     7
  5
F7
 10
2.900181
 20
-1.299213
 30
0.0
 11
3.050181
 21
-1.299213
 31
0.0
  0
LINE
  8
0
  6
CONTINUOUS
 62
     7
  5
F8
 10
2.568898
 20
-1.299213
 30
0.0
 11
2.900181
 21
-1.299213
 31
0.0
  0
LINE
  8
0
  6
CONTINUOUS
 62
     7
  5
F9
 10
-1.496063
 20
-1.33189
 30
0.0
 11
-1.496063
 21
-0.859449
 31
0.0
  0
LINE
  8
0
  6
CONTINUOUS
 62
     7
  5
FA
 10
-1.496063
 20
-0.859449
 30
0.0
 11
-0.944882
 21
-0.859449
 31
0.0
  0
LINE
  8
0
  6
CONTINUOUS
 62
     7
  5
FB
 10
-0.634843
 20
-1.026094
 30
0.0
 11
-0.634843
 21
-0.829244
 31
0.0
  0
LINE
  8
0
  6
CONTINUOUS
 62
     7
  5
FC
 10
-0.634843
 20
-0.829244
 30
0.0
 11
-0.280512
 21
-0.829244
 31
0.0
  0
LINE
  8
0
  6
CONTINUOUS
 62
     7
  5
FD
 10
-2.900181
 20
-2.145669
 30
0.0
 11
1.525591
 21
-2.145669
 31
0.0
  0
LINE
  8
0
  6
CONTINUOUS
 62
     7
  5
FE
 10
-3.050181
 20
-2.145669
 30
0.0
 11
-2.900181
 21
-2.145669
 31
0.0
  0
LINE
  8
0
  6
CONTINUOUS
 62
     7
  5
FF
 10
3.050181
 20
-0.745669
 30
0.0
 11
3.050181
 21
-1.299213
 31
0.0
  0
LINE
  8
0
  6
CONTINUOUS
 62
     7
  5
100
 10
-3.050181
 20
-0.745669
 30
0.0
 11
-3.050181
 21
-2.145669
 31
0.0
  0
LINE
  8
0
  6
CONTINUOUS
 62
     7
  5
101
 10
2.901181
 20
-0.745669
 30
0.0
 11
3.051181
 21
-0.745669
 31
0.0
  0
LINE
  8
0
  6
CONTINUOUS
 62
     7
  5
102
 10
-2.901181
 20
-0.745669
 30
0.0
 11
2.901181
 21
-0.745669
 31
0.0
  0
LINE
  8
0
  6
CONTINUOUS
 62
     7
  5
103
 10
-3.051181
 20
-0.745669
 30
0.0
 11
-2.901181
 21
-0.745669
 31
0.0
  0
LINE
  8
0
  6
CONTINUOUS
 62
     7
  5
104
 10
-3.051181
 20
0.0
 30
0.0
 11
-3.051181
 21
-0.745669
 31
0.0
  0
LINE
  8
0
  6
CONTINUOUS
 62
     7
  5
105
 10
3.051181
 20
0.0
 30
0.0
 11
3.051181
 21
-0.745669
 31
0.0
  0
LINE
  8
0
  6
CONTINUOUS
 62
     7
  5
106
 10
3.326772
 20
0.09685
 30
0.0
 11
3.326772
 21
0.0
 31
0.0
  0
ARC
  8
0
  6
CONTINUOUS
 62
     7
  5
107
 10
3.226772
 20
0.09685
 30
0.0
 40
0.1
 50
0.0
 51
90.0
  0
LINE
  8
0
  6
CONTINUOUS
 62
     7
  5
108
 10
-3.226772
 20
0.19685
 30
0.0
 11
3.226772
 21
0.19685
 31
0.0
  0
ARC
  8
0
  6
CONTINUOUS
 62
     7
  5
109
 10
-3.226772
 20
0.09685
 30
0.0
 40
0.1
 50
90.0
 51
180.0
  0
LINE
  8
0
  6
CONTINUOUS
 62
     7
  5
10A
 10
-3.326772
 20
0.0
 30
0.0
 11
-3.326772
 21
0.09685
 31
0.0
  0
LINE
  8
0
  6
CONTINUOUS
 62
     7
  5
10B
 10
3.326772
 20
0.0
 30
0.0
 11
-3.326772
 21
0.0
 31
0.0
  0
ENDSEC
  0
EOF
