999
DXF file: C:\Users\sesa63760\Dev\_Creo\CAD\MCADPE0010452_3D-CAD\drw0001_5.dxf
999
Pro/ENGINEER 2019471 by Parametric Technology Corporation
  0
SECTION
  2
HEADER
  9
$ACADVER
  1
AC1024
  9
$DWGCODEPAGE
  3
ANSI_1252
  9
$EXTMAX
 10
40.2638142793
 20
56.9445373378
 30
0.0
  9
$EXTMIN
 10
0.0
 20
0.0
 30
0.0
  9
$LIMMIN
 10
0.0
 20
0.0
  9
$LIMMAX
 10
40.2638142793
 20
56.9445373378
  9
$VIEWCTR
 10
20.1319071396
 20
28.4722686689
  9
$VIEWSIZE
 40
56.9445373378
  9
$CLAYER
  8
0
  9
$LTSCALE
 40
3.7119402116
  9
$CELTYPE
  6
BYLAYER
  9
$DIMSCALE
 40
1.0
  9
$DIMASZ
 40
0.4793311224
  9
$DIMEXO
 40
1.0
  9
$DIMDLI
 40
2.5646132371
  9
$DIMEXE
 40
1.0
  9
$DIMCEN
 40
0.6074083983
  9
$DIMLFAC
 40
1.0
  9
$DIMBLK
  1
_FILLED
  9
$DIMALT
 70
0
  9
$DIMALTF
 40
0.0393700787
  9
$DIMTXT
 40
0.6710635713
  9
$DIMTOL
 70
1
  9
$DIMLIM
 70
0
  9
$DIMTFAC
 40
1.0
  9
$DIMTP
 40
0.01
  9
$DIMTM
 40
0.01
  9
$DIMGAP
 40
0.625
  9
$DIMDSEP
 70
46
  9
$AUNITS
 70
0
  9
$PDMODE
 70
3
  9
$PDSIZE
 40
0.3125
  9
$HANDSEED
  5
261
  9
$TILEMODE
 70
1
  9
$MEASUREMENT
 70
1
  9
$INSUNITS
 70
4
  0
ENDSEC
  0
SECTION
  2
CLASSES
  0
CLASS
  1
ACDBDICTIONARYWDFLT
  2
AcDbDictionaryWithDefault
  3
AutoCAD 2000
 90
0
 91
1
280
0
281
0
  0
CLASS
  1
ACDBPLACEHOLDER
  2
AcDbPlaceHolder
  3
AutoCAD 2000
 90
0
 91
1
280
0
281
0
  0
CLASS
  1
LAYOUT
  2
AcDbLayout
  3
AutoCAD 2000
 90
0
 91
0
280
0
281
0
  0
ENDSEC
  0
SECTION
  2
TABLES
  0
TABLE
  2
VPORT
  5
8
100
AcDbSymbolTable
 70
2
  0
VPORT
  5
1F4
100
AcDbSymbolTableRecord
100
AcDbViewportTableRecord
  2
*ACTIVE
 70
0
 10
0.0
 20
0.0
 11
1.0
 21
1.0
 12
20.1319071396
 22
28.4722686689
 13
0.0
 23
0.0
 14
1.0
 24
1.0
 15
0.0
 25
0.0
 16
0.0
 26
0.0
 36
1.0
 17
0.0
 27
0.0
 37
0.0
 40
56.9445373378
 41
0.7070707071
 42
50.0
 43
0.0
 44
0.0
 50
0.0
 51
0.0
 71
0
 72
100
 73
1
 74
1
 75
0
 76
0
 77
0
 78
0
  0
ENDTAB
  0
TABLE
  2
LTYPE
  5
5
100
AcDbSymbolTable
 70
6
  0
LTYPE
  5
14
100
AcDbSymbolTableRecord
100
AcDbLinetypeTableRecord
  2
BYBLOCK
 70
0
  3

 72
65
 73
0
 40
0.0
  0
LTYPE
  5
15
100
AcDbSymbolTableRecord
100
AcDbLinetypeTableRecord
  2
BYLAYER
 70
0
  3

 72
65
 73
0
 40
0.0
  0
LTYPE
  5
16
100
AcDbSymbolTableRecord
100
AcDbLinetypeTableRecord
  2
CONTINUOUS
 70
64
  3
Solid line
 72
65
 73
0
 40
0.0
  0
LTYPE
  5
1F5
100
AcDbSymbolTableRecord
100
AcDbLinetypeTableRecord
  2
CENTER
 70
64
  3
____ _ ____ _ ____ _ ____ _ ____ _ ____ _ ____
 72
65
 73
4
 40
0.6
 49
0.375
 74
0
 49
-0.075
 74
0
 49
0.075
 74
0
 49
-0.075
 74
0
  0
LTYPE
  5
1F6
100
AcDbSymbolTableRecord
100
AcDbLinetypeTableRecord
  2
HIDDEN
 70
64
  3
- - - - - - - - - - - - - - - - - - - -
 72
65
 73
2
 40
0.2
 49
0.1
 74
0
 49
-0.1
 74
0
  0
LTYPE
  5
1F7
100
AcDbSymbolTableRecord
100
AcDbLinetypeTableRecord
  2
PHANTOM
 70
64
  3
_____ _ _ _____ _ _ _____ _ _ _____
 72
65
 73
6
 40
0.8
 49
0.45
 74
0
 49
-0.05
 74
0
 49
0.1
 74
0
 49
-0.05
 74
0
 49
0.1
 74
0
 49
-0.05
 74
0
  0
LTYPE
  5
1F8
100
AcDbSymbolTableRecord
100
AcDbLinetypeTableRecord
  2
DOT
 70
64
  3
. . . . . . . . . . . . . . . . . . . .
 72
65
 73
2
 40
0.2
 49
0.1
 74
0
 49
-0.1
 74
0
  0
LTYPE
  5
1F9
100
AcDbSymbolTableRecord
100
AcDbLinetypeTableRecord
  2
DASHED
 70
64
  3
- - - - - - - - - - - - - - - - - - - -
 72
65
 73
2
 40
0.2
 49
0.1
 74
0
 49
-0.1
 74
0
  0
ENDTAB
  0
TABLE
  2
LAYER
  5
2
100
AcDbSymbolTable
 70
36
  0
LAYER
  5
10
100
AcDbSymbolTableRecord
100
AcDbLayerTableRecord
  2
0
 70
0
 62
7
  6
CONTINUOUS
370
-3
390
F
  0
LAYER
  5
1FA
100
AcDbSymbolTableRecord
100
AcDbLayerTableRecord
  2
DEFAULT_1
 70
0
 62
7
  6
CENTER
370
-3
390
F
  0
LAYER
  5
1FB
100
AcDbSymbolTableRecord
100
AcDbLayerTableRecord
  2
DEFAULT_2
 70
0
 62
7
  6
HIDDEN
370
-3
390
F
  0
LAYER
  5
1FC
100
AcDbSymbolTableRecord
100
AcDbLayerTableRecord
  2
DEFAULT_3
 70
0
 62
7
  6
PHANTOM
370
-3
390
F
  0
LAYER
  5
1FD
100
AcDbSymbolTableRecord
100
AcDbLayerTableRecord
  2
00_COMPONENTS
 70
0
 62
7
  6
CONTINUOUS
370
-3
390
F
  0
LAYER
  5
1FE
100
AcDbSymbolTableRecord
100
AcDbLayerTableRecord
  2
01_1_DEFAULT_DATUMS
 70
0
 62
7
  6
CONTINUOUS
370
-3
390
F
  0
LAYER
  5
1FF
100
AcDbSymbolTableRecord
100
AcDbLayerTableRecord
  2
01_PLANES
 70
0
 62
7
  6
CONTINUOUS
370
-3
390
F
  0
LAYER
  5
200
100
AcDbSymbolTableRecord
100
AcDbLayerTableRecord
  2
02_COORD_SYS
 70
0
 62
7
  6
CONTINUOUS
370
-3
390
F
  0
LAYER
  5
201
100
AcDbSymbolTableRecord
100
AcDbLayerTableRecord
  2
03_AXES
 70
0
 62
7
  6
CONTINUOUS
370
-3
390
F
  0
LAYER
  5
202
100
AcDbSymbolTableRecord
100
AcDbLayerTableRecord
  2
04_POINTS
 70
0
 62
7
  6
CONTINUOUS
370
-3
390
F
  0
LAYER
  5
203
100
AcDbSymbolTableRecord
100
AcDbLayerTableRecord
  2
05_CURVES
 70
0
 62
7
  6
CONTINUOUS
370
-3
390
F
  0
LAYER
  5
204
100
AcDbSymbolTableRecord
100
AcDbLayerTableRecord
  2
06_SURFS
 70
0
 62
7
  6
CONTINUOUS
370
-3
390
F
  0
LAYER
  5
205
100
AcDbSymbolTableRecord
100
AcDbLayerTableRecord
  2
07_COSMETICS
 70
0
 62
7
  6
CONTINUOUS
370
-3
390
F
  0
LAYER
  5
206
100
AcDbSymbolTableRecord
100
AcDbLayerTableRecord
  2
10_NOTES
 70
0
 62
7
  6
CONTINUOUS
370
-3
390
F
  0
LAYER
  5
207
100
AcDbSymbolTableRecord
100
AcDbLayerTableRecord
  2
11_NOTES_PUB
 70
0
 62
7
  6
CONTINUOUS
370
-3
390
F
  0
LAYER
  5
208
100
AcDbSymbolTableRecord
100
AcDbLayerTableRecord
  2
13_REF_GTOL
 70
0
 62
7
  6
CONTINUOUS
370
-3
390
F
  0
LAYER
  5
209
100
AcDbSymbolTableRecord
100
AcDbLayerTableRecord
  2
16_MISC
 70
0
 62
7
  6
CONTINUOUS
370
-3
390
F
  0
LAYER
  5
20A
100
AcDbSymbolTableRecord
100
AcDbLayerTableRecord
  2
17_NO_PRINT
 70
0
 62
7
  6
CONTINUOUS
370
-3
390
F
  0
LAYER
  5
20B
100
AcDbSymbolTableRecord
100
AcDbLayerTableRecord
  2
18_DATUM_CAMS_JOINTS
 70
0
 62
7
  6
CONTINUOUS
370
-3
390
F
  0
LAYER
  5
20C
100
AcDbSymbolTableRecord
100
AcDbLayerTableRecord
  2
19_DATUM_FUNCTIONAL
 70
0
 62
7
  6
CONTINUOUS
370
-3
390
F
  0
LAYER
  5
20D
100
AcDbSymbolTableRecord
100
AcDbLayerTableRecord
  2
20_DATUM_KINEMATIC_SCHEME
 70
0
 62
7
  6
CONTINUOUS
370
-3
390
F
  0
ENDTAB
  0
TABLE
  2
STYLE
  5
3
100
AcDbSymbolTable
 70
1
  0
STYLE
  5
11
100
AcDbSymbolTableRecord
100
AcDbTextStyleTableRecord
  2
STANDARD
 70
0
 40
0.0
 41
1.0
 50
0.0
 71
0
 42
0.2
  3
ARIAL.TTF
  4

  0
STYLE
  5
20E
100
AcDbSymbolTableRecord
100
AcDbTextStyleTableRecord
  2
TEXTSTYLE_1
 70
0
 40
0.0
 41
0.8
 50
0.0
 71
0
 42
0.2
  3
gdt
  4

  0
ENDTAB
  0
TABLE
  2
VIEW
  5
6
100
AcDbSymbolTable
 70
0
  0
ENDTAB
  0
TABLE
  2
UCS
  5
7
100
AcDbSymbolTable
 70
0
  0
ENDTAB
  0
TABLE
  2
APPID
  5
9
100
AcDbSymbolTable
 70
1
  0
APPID
  5
20F
100
AcDbSymbolTableRecord
100
AcDbRegAppTableRecord
  2
ACAD
 70
0
  0
ENDTAB
  0
TABLE
  2
BLOCK_RECORD
  5
1
100
AcDbSymbolTable
 70
0
  0
BLOCK_RECORD
  5
210
100
AcDbSymbolTableRecord
100
AcDbBlockTableRecord
  2
*Model_Space
  0
BLOCK_RECORD
  5
211
100
AcDbSymbolTableRecord
100
AcDbBlockTableRecord
  2
*Paper_Space
  0
BLOCK_RECORD
  5
212
100
AcDbSymbolTableRecord
100
AcDbBlockTableRecord
  2
_FILLED
  0
ENDTAB
  0
TABLE
  2
DIMSTYLE
  5
A
100
AcDbSymbolTable
 70
1
100
AcDbDimStyleTable
 71
0
  0
DIMSTYLE
105
213
100
AcDbSymbolTableRecord
100
AcDbDimStyleTableRecord
  2
STANDARD
 70
0
  3

  4

 40
1.0
 41
0.4793311224
 42
1.0
 43
0.38
 44
1.0
 45
0.0
 46
0.0
 47
0.01
 48
0.01
140
0.6710635713
141
0.09
142
0.0
143
25.4
144
1.0
145
0.0
146
1.0
147
0.625
 71
1
 72
0
 73
0
 74
0
 75
0
 76
0
 77
1
 78
8
 79
2
170
0
171
1
172
0
173
0
174
0
175
0
176
0
177
0
178
0
270
2
179
2
271
2
272
2
273
2
274
2
275
0
280
0
281
0
282
0
283
1
284
8
285
0
286
0
287
3
288
0
340
11
278
46
341
212
342
212
343
212
344
212
  0
ENDTAB
  0
ENDSEC
  0
SECTION
  2
BLOCKS
  0
BLOCK
  5
20
100
AcDbEntity
  8
0
100
AcDbBlockBegin
  2
*Model_Space
 70
0
 10
0.0
 20
0.0
 30
0.0
  3
*Model_Space
  1

  0
ENDBLK
  5
21
100
AcDbEntity
  8
0
100
AcDbBlockEnd
  0
BLOCK
  5
1C
100
AcDbEntity
  8
0
100
AcDbBlockBegin
  2
*Paper_Space
 70
0
 10
0.0
 20
0.0
 30
0.0
  3
*Paper_Space
  1

  0
ENDBLK
  5
1D
100
AcDbEntity
  8
0
100
AcDbBlockEnd
  0
BLOCK
  5
214
100
AcDbEntity
  8
0
100
AcDbBlockBegin
  2
_FILLED
 70
64
 10
0.0
 20
0.0
  3
_FILLED
  1

  0
SOLID
  5
215
100
AcDbEntity
  8
0
  6
BYBLOCK
 62
0
100
AcDbTrace
 10
0.0
 20
0.0
 11
-1.0
 21
0.25
 12
-1.0
 22
-0.25
 13
-1.0
 23
-0.25
  0
ENDBLK
  5
216
100
AcDbEntity
  8
0
  6
BYBLOCK
 62
0
100
AcDbBlockEnd
  0
ENDSEC
  0
SECTION
  2
ENTITIES
  0
LINE
  5
217
100
AcDbEntity
  8
0
100
AcDbLine
 62
7
  6
BYLAYER
 10
25.9523720497
 20
4.635020481
 11
24.9943992929
 21
4.635020481
  0
LINE
  5
218
100
AcDbEntity
  8
0
100
AcDbLine
 62
7
  6
BYLAYER
 10
16.3846078841
 20
4.635020481
 11
15.4266351273
 21
4.635020481
  0
LINE
  5
219
100
AcDbEntity
  8
0
100
AcDbLine
 62
7
  6
BYLAYER
 10
26.1788714496
 20
5.1827575939
 11
26.16071417
 21
5.1827575939
  0
LINE
  5
21A
100
AcDbEntity
  8
0
100
AcDbLine
 62
7
  6
BYLAYER
 10
24.9443194458
 20
5.1827575939
 11
23.4001357271
 21
5.1827575939
  0
LINE
  5
21B
100
AcDbEntity
  8
0
100
AcDbLine
 62
7
  6
BYLAYER
 10
17.9788714496
 20
5.1827575939
 11
16.4346877311
 21
5.1827575939
  0
LINE
  5
21C
100
AcDbEntity
  8
0
100
AcDbLine
 62
7
  6
BYLAYER
 10
15.2182930069
 20
5.1827575939
 11
15.2001357271
 21
5.1827575939
  0
LINE
  5
21D
100
AcDbEntity
  8
0
100
AcDbLine
 62
7
  6
BYLAYER
 10
15.1895035885
 20
7.1229284128
 11
14.5895035885
 21
7.1229284128
  0
LINE
  5
21E
100
AcDbEntity
  8
0
100
AcDbLine
 62
7
  6
BYLAYER
 10
26.1895035885
 20
7.1229284128
 11
26.7895035885
 21
7.1229284128
  0
LINE
  5
21F
100
AcDbEntity
  8
0
100
AcDbLine
 62
7
  6
BYLAYER
 10
26.7895035885
 20
7.5212627881
 11
26.1895035885
 21
7.5212627881
  0
LINE
  5
220
100
AcDbEntity
  8
0
100
AcDbLine
 62
7
  6
BYLAYER
 10
14.5895035885
 20
7.5212627881
 11
15.1895035885
 21
7.5212627881
  0
LINE
  5
221
100
AcDbEntity
  8
0
100
AcDbLine
 62
7
  6
BYLAYER
 10
28.0395035885
 20
13.30897747
 11
21.5395035885
 21
13.30897747
  0
LINE
  5
222
100
AcDbEntity
  8
0
100
AcDbLine
 62
7
  6
BYLAYER
 10
13.3395035885
 20
13.3089774372
 11
19.8395035885
 21
13.3089774372
  0
LINE
  5
223
100
AcDbEntity
  8
0
100
AcDbLine
 62
7
  6
BYLAYER
 10
15.4266351273
 20
4.635020481
 11
14.5895035885
 21
6.8358621129
  0
LINE
  5
224
100
AcDbEntity
  8
0
100
AcDbLine
 62
7
  6
BYLAYER
 10
15.2001357271
 20
5.1827575939
 11
15.1910219931
 21
5.2544538327
  0
LINE
  5
225
100
AcDbEntity
  8
0
100
AcDbLine
 62
7
  6
BYLAYER
 10
14.9028744648
 20
7.5212627881
 11
14.8895035922
 21
7.6264492318
  0
LINE
  5
226
100
AcDbEntity
  8
0
100
AcDbLine
 62
7
  6
BYLAYER
 10
12.5395035885
 20
23.6443837949
 11
12.5395035885
 21
47.0628926169
  0
LINE
  5
227
100
AcDbEntity
  8
0
100
AcDbLine
 62
7
  6
BYLAYER
 10
13.3395035885
 20
13.30897747
 11
13.3395035885
 21
23.6443837949
  0
LINE
  5
228
100
AcDbEntity
  8
0
100
AcDbLine
 62
7
  6
BYLAYER
 10
13.4395035885
 20
43.5300126513
 11
13.4395035885
 21
41.9201581721
  0
LINE
  5
229
100
AcDbEntity
  8
0
100
AcDbLine
 62
7
  6
BYLAYER
 10
13.4895035884
 20
44.1252964364
 11
13.4895035884
 21
52.448915969
  0
LINE
  5
22A
100
AcDbEntity
  8
0
100
AcDbLine
 62
7
  6
BYLAYER
 10
14.5895035885
 20
6.8358621129
 11
14.5895035885
 21
7.5212627881
  0
LINE
  5
22B
100
AcDbEntity
  8
0
100
AcDbLine
 62
7
  6
BYLAYER
 10
14.8895035884
 20
7.6264492314
 11
14.8895035884
 21
13.3089774372
  0
LINE
  5
22C
100
AcDbEntity
  8
0
100
AcDbLine
 62
7
  6
BYLAYER
 10
15.1895035885
 20
7.1229284128
 11
15.1895035885
 21
13.3089774372
  0
LINE
  5
22D
100
AcDbEntity
  8
0
100
AcDbLine
 62
7
  6
BYLAYER
 10
28.8395035885
 20
23.6443837949
 11
28.0395035885
 21
23.6443837949
  0
LINE
  5
22E
100
AcDbEntity
  8
0
100
AcDbLine
 62
7
  6
BYLAYER
 10
21.5395035885
 20
23.6443837949
 11
19.8395035885
 21
23.6443837949
  0
LINE
  5
22F
100
AcDbEntity
  8
0
100
AcDbLine
 62
7
  6
BYLAYER
 10
13.3395035885
 20
23.6443837949
 11
12.5395035885
 21
23.6443837949
  0
LINE
  5
230
100
AcDbEntity
  8
0
100
AcDbLine
 62
7
  6
BYLAYER
 10
18.2895035884
 20
13.3089774372
 11
18.2895035884
 21
7.6264492211
  0
LINE
  5
231
100
AcDbEntity
  8
0
100
AcDbLine
 62
7
  6
BYLAYER
 10
17.177671614
 20
13.3089774372
 11
16.3846078841
 21
4.635020481
  0
LINE
  5
232
100
AcDbEntity
  8
0
100
AcDbLine
 62
7
  6
BYLAYER
 10
19.8395035885
 20
23.6443837949
 11
19.8395035885
 21
13.30897747
  0
LINE
  5
233
100
AcDbEntity
  8
0
100
AcDbLine
 62
7
  6
BYLAYER
 10
20.2395035885
 20
41.9201581721
 11
20.2395035885
 21
43.5300126513
  0
LINE
  5
234
100
AcDbEntity
  8
0
100
AcDbLine
 62
7
  6
BYLAYER
 10
20.2895035885
 20
43.0559480135
 11
20.2895035885
 21
50.6935920552
  0
LINE
  5
235
100
AcDbEntity
  8
0
100
AcDbLine
 62
7
  6
BYLAYER
 10
23.4001357271
 20
5.1827575939
 11
23.0895035922
 21
7.6264492318
  0
LINE
  5
236
100
AcDbEntity
  8
0
100
AcDbLine
 62
7
  6
BYLAYER
 10
21.0895035885
 20
50.6935920552
 11
21.0895035885
 21
43.0559480272
  0
LINE
  5
237
100
AcDbEntity
  8
0
100
AcDbLine
 62
7
  6
BYLAYER
 10
21.1395035885
 20
43.5300126513
 11
21.1395035885
 21
41.9201581721
  0
LINE
  5
238
100
AcDbEntity
  8
0
100
AcDbLine
 62
7
  6
BYLAYER
 10
21.5395035885
 20
13.30897747
 11
21.5395035885
 21
23.6443837949
  0
LINE
  5
239
100
AcDbEntity
  8
0
100
AcDbLine
 62
7
  6
BYLAYER
 10
17.9788714496
 20
5.1827576066
 11
18.2895035884
 21
7.6264492491
  0
LINE
  5
23A
100
AcDbEntity
  8
0
100
AcDbLine
 62
7
  6
BYLAYER
 10
24.9943992929
 20
4.635020481
 11
24.20133556
 21
13.30897747
  0
LINE
  5
23B
100
AcDbEntity
  8
0
100
AcDbLine
 62
7
  6
BYLAYER
 10
23.0895035884
 20
7.6264492314
 11
23.0895035884
 21
13.30897747
  0
LINE
  5
23C
100
AcDbEntity
  8
0
100
AcDbLine
 62
7
  6
BYLAYER
 10
28.8395035885
 20
30.888827764
 11
12.5395035885
 21
30.888827764
  0
LINE
  5
23D
100
AcDbEntity
  8
0
100
AcDbLine
 62
7
  6
BYLAYER
 10
26.1895035885
 20
13.30897747
 11
26.1895035885
 21
7.1229284128
  0
LINE
  5
23E
100
AcDbEntity
  8
0
100
AcDbLine
 62
7
  6
BYLAYER
 10
26.4895035884
 20
13.30897747
 11
26.4895035884
 21
7.6264492211
  0
LINE
  5
23F
100
AcDbEntity
  8
0
100
AcDbLine
 62
7
  6
BYLAYER
 10
26.7895035885
 20
7.5212627881
 11
26.7895035885
 21
6.8358621129
  0
LINE
  5
240
100
AcDbEntity
  8
0
100
AcDbLine
 62
7
  6
BYLAYER
 10
12.5395035885
 20
34.3173192244
 11
28.8395035885
 21
34.3173192244
  0
LINE
  5
241
100
AcDbEntity
  8
0
100
AcDbLine
 62
7
  6
BYLAYER
 10
27.8895035884
 20
52.448915969
 11
27.8895035885
 21
44.1252964364
  0
LINE
  5
242
100
AcDbEntity
  8
0
100
AcDbLine
 62
7
  6
BYLAYER
 10
27.9395035885
 20
41.9201581721
 11
27.9395035885
 21
43.5300126513
  0
LINE
  5
243
100
AcDbEntity
  8
0
100
AcDbLine
 62
7
  6
BYLAYER
 10
28.0395035885
 20
23.6443837949
 11
28.0395035885
 21
13.30897747
  0
LINE
  5
244
100
AcDbEntity
  8
0
100
AcDbLine
 62
7
  6
BYLAYER
 10
28.8395035885
 20
47.0628926169
 11
28.8395035885
 21
23.6443837949
  0
LINE
  5
245
100
AcDbEntity
  8
0
100
AcDbLine
 62
7
  6
BYLAYER
 10
26.1788714497
 20
5.1827576066
 11
26.1879851813
 21
5.2544538259
  0
LINE
  5
246
100
AcDbEntity
  8
0
100
AcDbLine
 62
7
  6
BYLAYER
 10
26.4761327135
 20
7.5212627881
 11
26.4895035884
 21
7.6264492491
  0
LINE
  5
247
100
AcDbEntity
  8
0
100
AcDbLine
 62
7
  6
BYLAYER
 10
26.7895035885
 20
6.8358621129
 11
25.9523720497
 21
4.635020481
  0
LINE
  5
248
100
AcDbEntity
  8
0
100
AcDbLine
 62
7
  6
BYLAYER
 10
12.5395035885
 20
41.6535745557
 11
28.8395035885
 21
41.6535745557
  0
LINE
  5
249
100
AcDbEntity
  8
0
100
AcDbLine
 62
7
  6
BYLAYER
 10
13.4395035885
 20
41.9201581721
 11
20.2395035885
 21
41.9201581721
  0
LINE
  5
24A
100
AcDbEntity
  8
0
100
AcDbLine
 62
7
  6
BYLAYER
 10
21.1395035885
 20
41.9201581721
 11
27.9395035885
 21
41.9201581721
  0
LINE
  5
24B
100
AcDbEntity
  8
0
100
AcDbLine
 62
7
  6
BYLAYER
 10
21.0895035885
 20
43.0559460823
 11
20.2895035885
 21
43.0559460823
  0
LINE
  5
24C
100
AcDbEntity
  8
0
100
AcDbLine
 62
7
  6
BYLAYER
 10
27.9395035885
 20
43.5300126513
 11
21.1395035885
 21
43.5300126513
  0
LINE
  5
24D
100
AcDbEntity
  8
0
100
AcDbLine
 62
7
  6
BYLAYER
 10
20.2395035885
 20
43.5300126513
 11
13.4395035885
 21
43.5300126513
  0
LINE
  5
24E
100
AcDbEntity
  8
0
100
AcDbLine
 62
7
  6
BYLAYER
 10
27.8895035885
 20
44.1252964364
 11
21.0895035885
 21
44.1252964364
  0
LINE
  5
24F
100
AcDbEntity
  8
0
100
AcDbLine
 62
7
  6
BYLAYER
 10
20.2895035885
 20
44.1252964364
 11
13.4895035885
 21
44.1252964364
  0
LINE
  5
250
100
AcDbEntity
  8
0
100
AcDbLine
 62
7
  6
BYLAYER
 10
21.0895035885
 20
44.7574736023
 11
20.2895035885
 21
44.7574736023
  0
LINE
  5
251
100
AcDbEntity
  8
0
100
AcDbLine
 62
7
  6
BYLAYER
 10
20.2895035885
 20
46.8522057948
 11
21.0895035885
 21
46.8522057948
  0
LINE
  5
252
100
AcDbEntity
  8
0
100
AcDbLine
 62
7
  6
BYLAYER
 10
12.5395035883
 20
47.0628926169
 11
13.4895035883
 21
47.062892617
  0
LINE
  5
253
100
AcDbEntity
  8
0
100
AcDbLine
 62
7
  6
BYLAYER
 10
27.8895035884
 20
47.0628926169
 11
28.8395035885
 21
47.0628926169
  0
LINE
  5
254
100
AcDbEntity
  8
0
100
AcDbLine
 62
7
  6
BYLAYER
 10
21.0895035885
 20
50.6935920552
 11
20.2895035885
 21
50.6935920552
  0
LINE
  5
255
100
AcDbEntity
  8
0
100
AcDbLine
 62
7
  6
BYLAYER
 10
27.8895035884
 20
51.6595178815
 11
13.4895035885
 21
51.6595178815
  0
LINE
  5
256
100
AcDbEntity
  8
0
100
AcDbLine
 62
7
  6
BYLAYER
 10
27.8895035884
 20
52.448915969
 11
13.4895035884
 21
52.448915969
  0
SPLINE
  5
257
100
AcDbEntity
  8
0
100
AcDbSpline
 62
7
  6
BYLAYER
 70
0
 71
3
 72
19
 73
15
 74
0
 42
0.0000001
 43
0.0000001
 44
0.0000000001
 40
0.0
 40
0.0
 40
0.0
 40
0.0
 40
0.0300849688
 40
0.0649798596
 40
0.1049875018
 40
0.150192161
 40
0.2005083301
 40
0.2557716393
 40
0.315722702
 40
0.3800398906
 40
0.5202529807
 40
0.6729542823
 40
0.8343387478
 40
1.0
 40
1.0
 40
1.0
 40
1.0
 10
19.2352393219
 20
41.920160674
 30
0.0
 10
19.2171183095
 20
41.9409085548
 30
0.0
 10
19.1733401015
 20
41.9816949297
 30
0.0
 10
19.0943804602
 20
42.0368676965
 30
0.0
 10
18.9979586205
 20
42.0901033585
 30
0.0
 10
18.8846854224
 20
42.1410427297
 30
0.0
 10
18.7552865055
 20
42.1894142122
 30
0.0
 10
18.6106174694
 20
42.2348193194
 30
0.0
 10
18.4516757101
 20
42.2769663193
 30
0.0
 10
18.2153172291
 20
42.3299316848
 30
0.0
 10
17.8926179468
 20
42.3847852856
 30
0.0
 10
17.4791673347
 20
42.4320465895
 30
0.0
 10
17.0406893747
 20
42.4609379297
 30
0.0
 10
16.7411904958
 20
42.4674144528
 30
0.0
 10
16.5895035884
 20
42.4674144528
 30
0.0
  0
SPLINE
  5
258
100
AcDbEntity
  8
0
100
AcDbSpline
 62
7
  6
BYLAYER
 70
0
 71
3
 72
19
 73
15
 74
0
 42
0.0000001
 43
0.0000001
 44
0.0000000001
 40
0.0
 40
0.0
 40
0.0
 40
0.0
 40
0.0300849688
 40
0.0649798596
 40
0.1049875018
 40
0.150192161
 40
0.2005083301
 40
0.2557716393
 40
0.315722702
 40
0.3800398906
 40
0.5202529807
 40
0.6729542823
 40
0.8343387478
 40
1.0
 40
1.0
 40
1.0
 40
1.0
 10
27.4352393219
 20
41.920160674
 30
0.0
 10
27.4171183096
 20
41.9409085548
 30
0.0
 10
27.3733401015
 20
41.9816949297
 30
0.0
 10
27.2943804602
 20
42.0368676965
 30
0.0
 10
27.1979586205
 20
42.0901033585
 30
0.0
 10
27.0846854224
 20
42.1410427297
 30
0.0
 10
26.9552865055
 20
42.1894142122
 30
0.0
 10
26.8106174694
 20
42.2348193194
 30
0.0
 10
26.6516757102
 20
42.2769663193
 30
0.0
 10
26.4153172291
 20
42.3299316848
 30
0.0
 10
26.0926179468
 20
42.3847852856
 30
0.0
 10
25.6791673347
 20
42.4320465895
 30
0.0
 10
25.2406893747
 20
42.4609379297
 30
0.0
 10
24.9411904958
 20
42.4674144528
 30
0.0
 10
24.7895035884
 20
42.4674144528
 30
0.0
  0
SPLINE
  5
259
100
AcDbEntity
  8
0
100
AcDbSpline
 62
7
  6
BYLAYER
 70
0
 71
3
 72
19
 73
15
 74
0
 42
0.0000001
 43
0.0000001
 44
0.0000000001
 40
0.0
 40
0.0
 40
0.0
 40
0.0
 40
0.1656555642
 40
0.3270315251
 40
0.4797271913
 40
0.619937587
 40
0.6842545583
 40
0.7442069462
 40
0.7994718318
 40
0.8497914137
 40
0.8950000688
 40
0.9350113646
 40
0.9699110113
 40
1.0
 40
1.0
 40
1.0
 40
1.0
 10
16.5895035884
 20
42.4674144528
 30
0.0
 10
16.4378261567
 20
42.4674144528
 30
0.0
 10
16.1383487032
 20
42.4609391055
 30
0.0
 10
15.6999010778
 20
42.432051727
 30
0.0
 10
15.2864771112
 20
42.3847968306
 30
0.0
 10
14.9637936198
 20
42.3299521197
 30
0.0
 10
14.7274422544
 20
42.2769929991
 30
0.0
 10
14.5685009733
 20
42.2348526522
 30
0.0
 10
14.4238293392
 20
42.189450762
 30
0.0
 10
14.2944239164
 20
42.1410845891
 30
0.0
 10
14.1811408812
 20
42.0901507831
 30
0.0
 10
14.0847086698
 20
42.0369170019
 30
0.0
 10
14.0057349194
 20
41.9817497197
 30
0.0
 10
13.9619451639
 20
41.9409664115
 30
0.0
 10
13.9438188412
 20
41.9202193114
 30
0.0
  0
SPLINE
  5
25A
100
AcDbEntity
  8
0
100
AcDbSpline
 62
7
  6
BYLAYER
 70
0
 71
3
 72
19
 73
15
 74
0
 42
0.0000001
 43
0.0000001
 44
0.0000000001
 40
0.0
 40
0.0
 40
0.0
 40
0.0
 40
0.1656555642
 40
0.3270315251
 40
0.4797271913
 40
0.619937587
 40
0.6842545583
 40
0.7442069462
 40
0.7994718318
 40
0.8497914137
 40
0.8950000688
 40
0.9350113646
 40
0.9699110113
 40
1.0
 40
1.0
 40
1.0
 40
1.0
 10
24.7895035884
 20
42.4674144528
 30
0.0
 10
24.6378261567
 20
42.4674144528
 30
0.0
 10
24.3383487032
 20
42.4609391055
 30
0.0
 10
23.8999010778
 20
42.432051727
 30
0.0
 10
23.4864771112
 20
42.3847968306
 30
0.0
 10
23.1637936198
 20
42.3299521198
 30
0.0
 10
22.9274422544
 20
42.2769929991
 30
0.0
 10
22.7685009733
 20
42.2348526522
 30
0.0
 10
22.6238293391
 20
42.189450762
 30
0.0
 10
22.4944239164
 20
42.1410845891
 30
0.0
 10
22.3811408812
 20
42.0901507831
 30
0.0
 10
22.2847086698
 20
42.0369170019
 30
0.0
 10
22.2057349194
 20
41.9817497197
 30
0.0
 10
22.1619451639
 20
41.9409664115
 30
0.0
 10
22.1438188412
 20
41.9202193114
 30
0.0
  0
SPLINE
  5
25B
100
AcDbEntity
  8
0
100
AcDbSpline
 62
7
  6
BYLAYER
 70
0
 71
3
 72
18
 73
14
 74
0
 42
0.0000001
 43
0.0000001
 44
0.0000000001
 40
0.0
 40
0.0
 40
0.0
 40
0.0
 40
0.1621040323
 40
0.3203707879
 40
0.4707818611
 40
0.6098882866
 40
0.7344839586
 40
0.7905169615
 40
0.8420004962
 40
0.8887522031
 40
0.930652858
 40
0.967683234
 40
1.0
 40
1.0
 40
1.0
 40
1.0
 10
16.5895035884
 20
42.3380049303
 30
0.0
 10
16.7082928024
 20
42.3380049303
 30
0.0
 10
16.9430899456
 20
42.3331265796
 30
0.0
 10
17.2874933942
 20
42.3113577834
 30
0.0
 10
17.6138190322
 20
42.2757025428
 30
0.0
 10
17.9135208463
 20
42.2271903387
 30
0.0
 10
18.1422815773
 20
42.1755077313
 30
0.0
 10
18.3055954295
 20
42.127791152
 30
0.0
 10
18.4125189127
 20
42.0909312876
 30
0.0
 10
18.5076143386
 20
42.0520030867
 30
0.0
 10
18.5903138284
 20
42.0112453026
 30
0.0
 10
18.660095695
 20
41.9688807375
 30
0.0
 10
18.7004264964
 20
41.9376686745
 30
0.0
 10
18.7179274038
 20
41.9217144734
 30
0.0
  0
SPLINE
  5
25C
100
AcDbEntity
  8
0
100
AcDbSpline
 62
7
  6
BYLAYER
 70
0
 71
3
 72
18
 73
14
 74
0
 42
0.0000001
 43
0.0000001
 44
0.0000000001
 40
0.0
 40
0.0
 40
0.0
 40
0.0
 40
0.0323265151
 40
0.0693662846
 40
0.1112754573
 40
0.1580327877
 40
0.2095212943
 40
0.2655576976
 40
0.3901555809
 40
0.5292576164
 40
0.679659852
 40
0.8379143081
 40
1.0
 40
1.0
 40
1.0
 40
1.0
 10
14.4612422712
 20
41.9218612244
 30
0.0
 10
14.4787547125
 20
41.9378098738
 30
0.0
 10
14.5191041306
 20
41.9690118899
 30
0.0
 10
14.5889088789
 20
42.0113620361
 30
0.0
 10
14.6716245432
 20
42.0521047365
 30
0.0
 10
14.7667285904
 20
42.0910216217
 30
0.0
 10
14.873655867
 20
42.1278673581
 30
0.0
 10
15.0369650216
 20
42.1755669647
 30
0.0
 10
15.2657068415
 20
42.2272306174
 30
0.0
 10
15.5653723914
 20
42.2757266249
 30
0.0
 10
15.891647807
 20
42.3113680689
 30
0.0
 10
16.2359883275
 20
42.3331283493
 30
0.0
 10
16.4707396352
 20
42.3380049303
 30
0.0
 10
16.5895035884
 20
42.3380049303
 30
0.0
  0
SPLINE
  5
25D
100
AcDbEntity
  8
0
100
AcDbSpline
 62
7
  6
BYLAYER
 70
0
 71
3
 72
18
 73
14
 74
0
 42
0.0000001
 43
0.0000001
 44
0.0000000001
 40
0.0
 40
0.0
 40
0.0
 40
0.0
 40
0.1621040323
 40
0.3203707879
 40
0.4707818611
 40
0.6098882866
 40
0.7344839586
 40
0.7905169615
 40
0.8420004962
 40
0.8887522031
 40
0.930652858
 40
0.967683234
 40
1.0
 40
1.0
 40
1.0
 40
1.0
 10
24.7895035884
 20
42.3380049303
 30
0.0
 10
24.9082928024
 20
42.3380049303
 30
0.0
 10
25.1430899456
 20
42.3331265796
 30
0.0
 10
25.4874933942
 20
42.3113577834
 30
0.0
 10
25.8138190323
 20
42.2757025428
 30
0.0
 10
26.1135208463
 20
42.2271903387
 30
0.0
 10
26.3422815773
 20
42.1755077313
 30
0.0
 10
26.5055954295
 20
42.127791152
 30
0.0
 10
26.6125189127
 20
42.0909312876
 30
0.0
 10
26.7076143387
 20
42.0520030867
 30
0.0
 10
26.7903138284
 20
42.0112453026
 30
0.0
 10
26.860095695
 20
41.9688807375
 30
0.0
 10
26.9004264964
 20
41.9376686745
 30
0.0
 10
26.9179274038
 20
41.9217144734
 30
0.0
  0
SPLINE
  5
25E
100
AcDbEntity
  8
0
100
AcDbSpline
 62
7
  6
BYLAYER
 70
0
 71
3
 72
18
 73
14
 74
0
 42
0.0000001
 43
0.0000001
 44
0.0000000001
 40
0.0
 40
0.0
 40
0.0
 40
0.0
 40
0.0323265151
 40
0.0693662846
 40
0.1112754573
 40
0.1580327877
 40
0.2095212943
 40
0.2655576976
 40
0.3901555809
 40
0.5292576164
 40
0.679659852
 40
0.8379143081
 40
1.0
 40
1.0
 40
1.0
 40
1.0
 10
22.6612422712
 20
41.9218612244
 30
0.0
 10
22.6787547125
 20
41.9378098738
 30
0.0
 10
22.7191041306
 20
41.9690118899
 30
0.0
 10
22.7889088788
 20
42.0113620361
 30
0.0
 10
22.8716245432
 20
42.0521047365
 30
0.0
 10
22.9667285904
 20
42.0910216217
 30
0.0
 10
23.0736558669
 20
42.1278673581
 30
0.0
 10
23.2369650216
 20
42.1755669648
 30
0.0
 10
23.4657068414
 20
42.2272306174
 30
0.0
 10
23.7653723914
 20
42.2757266249
 30
0.0
 10
24.091647807
 20
42.311368069
 30
0.0
 10
24.4359883275
 20
42.3331283493
 30
0.0
 10
24.6707396352
 20
42.3380049303
 30
0.0
 10
24.7895035884
 20
42.3380049303
 30
0.0
  0
ENDSEC
  0
SECTION
  2
OBJECTS
  0
DICTIONARY
  5
C
100
AcDbDictionary
280
0
281
1
  3
ACAD_GROUP
350
D
  3
ACAD_MLINESTYLE
350
17
  3
ACAD_LAYOUT
350
1A
  3
ACAD_PLOTSETTINGS
350
19
  3
ACAD_PLOTSTYLENAME
350
E
  0
DICTIONARY
  5
D
102
{ACAD_REACTORS
330
C
102
}
100
AcDbDictionary
280
0
281
1
  0
ACDBDICTIONARYWDFLT
  5
E
102
{ACAD_REACTORS
330
C
102
}
100
AcDbDictionary
281
1
  3
Normal
350
F
100
AcDbDictionaryWithDefault
340
F
  0
DICTIONARY
  5
17
102
{ACAD_REACTORS
330
C
102
}
100
AcDbDictionary
280
0
281
1
  3
Standard
350
18
  0
DICTIONARY
  5
19
102
{ACAD_REACTORS
330
C
102
}
100
AcDbDictionary
281
1
  0
DICTIONARY
  5
1A
102
{ACAD_REACTORS
330
C
102
}
100
AcDbDictionary
281
1
  3
Model
350
25F
  3
Layout1
350
260
  0
ACDBPLACEHOLDER
  5
F
102
{ACAD_REACTORS
330
E
102
}
  0
MLINESTYLE
  5
18
102
{ACAD_REACTORS
330
17
102
}
100
AcDbMlineStyle
  2
STANDARD
 70
0
  3

 62
256
 51
90.0
 52
90.0
 71
2
 49
0.5
 62
256
  6
BYLAYER
 49
-0.5
 62
256
  6
BYLAYER
  0
LAYOUT
  5
25F
102
{ACAD_REACTORS
330
1A
102
}
100
AcDbPlotSettings
  1

  2
none_device
  4

  6

 40
0.0
 41
0.0
 42
0.0
 43
0.0
 44
210.0
 45
297.0
 46
0.0
 47
0.0
 48
0.0
 49
0.0
140
0.0
141
0.0
142
1.0
143
1.0
 70
1024
 72
1
 73
0
 74
0
  7

 75
0
147
1.0
148
0.0
149
0.0
100
AcDbLayout
  1
Model
 70
0
 71
0
 10
0.0
 20
0.0
 11
210.0
 21
297.0
 12
0.0
 22
0.0
 32
0.0
 14
0.0
 24
0.0
 34
0.0
 15
0.0
 25
0.0
 35
0.0
146
0.0
 13
0.0
 23
0.0
 33
0.0
 16
1.0
 26
0.0
 36
0.0
 17
0.0
 27
1.0
 37
0.0
 76
0
330
210
345
0
346
0
  0
LAYOUT
  5
260
102
{ACAD_REACTORS
330
1A
102
}
100
AcDbPlotSettings
  1

  2
none_device
  4

  6

 40
0.0
 41
0.0
 42
0.0
 43
0.0
 44
210.0
 45
297.0
 46
0.0
 47
0.0
 48
0.0
 49
0.0
140
0.0
141
0.0
142
1.0
143
1.0
 70
0
 72
1
 73
0
 74
0
  7

 75
0
147
1.0
148
0.0
149
0.0
100
AcDbLayout
  1
Layout1
 70
0
 71
1
 10
0.0
 20
0.0
 11
210.0
 21
297.0
 12
0.0
 22
0.0
 32
0.0
 14
0.0
 24
0.0
 34
0.0
 15
0.0
 25
0.0
 35
0.0
146
0.0
 13
0.0
 23
0.0
 33
0.0
 16
1.0
 26
0.0
 36
0.0
 17
0.0
 27
1.0
 37
0.0
 76
0
330
211
345
0
346
0
  0
ENDSEC
  0
EOF
