999
DXF file: C:\Users\sesa63760\Dev\_Creo\CAD\MCADPD0003842_3D-CAD\drw0001_6.dxf
999
Pro/ENGINEER 2019471 by Parametric Technology Corporation
  0
SECTION
  2
HEADER
  9
$ACADVER
  1
AC1024
  9
$DWGCODEPAGE
  3
ANSI_1252
  9
$EXTMAX
 10
472.7595429127
 20
668.6170678337
 30
0.0
  9
$EXTMIN
 10
0.0
 20
0.0
 30
0.0
  9
$LIMMIN
 10
0.0
 20
0.0
  9
$LIMMAX
 10
472.7595429127
 20
668.6170678337
  9
$VIEWCTR
 10
236.3797714564
 20
334.3085339168
  9
$VIEWSIZE
 40
668.6170678337
  9
$CLAYER
  8
0
  9
$LTSCALE
 40
43.5839273847
  9
$CELTYPE
  6
BYLAYER
  9
$DIMSCALE
 40
1.0
  9
$DIMASZ
 40
5.6280897966
  9
$DIMEXO
 40
1.0
  9
$DIMDLI
 40
30.1125316476
  9
$DIMEXE
 40
1.0
  9
$DIMCEN
 40
7.1319153902
  9
$DIMLFAC
 40
1.0
  9
$DIMBLK
  1
_FILLED
  9
$DIMALT
 70
0
  9
$DIMALTF
 40
0.0393700787
  9
$DIMTXT
 40
7.8793257152
  9
$DIMTOL
 70
1
  9
$DIMLIM
 70
0
  9
$DIMTFAC
 40
1.0
  9
$DIMTP
 40
0.01
  9
$DIMTM
 40
0.01
  9
$DIMGAP
 40
0.625
  9
$DIMDSEP
 70
46
  9
$AUNITS
 70
0
  9
$PDMODE
 70
3
  9
$PDSIZE
 40
0.3125
  9
$HANDSEED
  5
2B5
  9
$TILEMODE
 70
1
  9
$MEASUREMENT
 70
1
  9
$INSUNITS
 70
4
  0
ENDSEC
  0
SECTION
  2
CLASSES
  0
CLASS
  1
ACDBDICTIONARYWDFLT
  2
AcDbDictionaryWithDefault
  3
AutoCAD 2000
 90
0
 91
1
280
0
281
0
  0
CLASS
  1
ACDBPLACEHOLDER
  2
AcDbPlaceHolder
  3
AutoCAD 2000
 90
0
 91
1
280
0
281
0
  0
CLASS
  1
LAYOUT
  2
AcDbLayout
  3
AutoCAD 2000
 90
0
 91
0
280
0
281
0
  0
ENDSEC
  0
SECTION
  2
TABLES
  0
TABLE
  2
VPORT
  5
8
100
AcDbSymbolTable
 70
2
  0
VPORT
  5
1F4
100
AcDbSymbolTableRecord
100
AcDbViewportTableRecord
  2
*ACTIVE
 70
0
 10
0.0
 20
0.0
 11
1.0
 21
1.0
 12
236.3797714564
 22
334.3085339168
 13
0.0
 23
0.0
 14
1.0
 24
1.0
 15
0.0
 25
0.0
 16
0.0
 26
0.0
 36
1.0
 17
0.0
 27
0.0
 37
0.0
 40
668.6170678337
 41
0.7070707071
 42
50.0
 43
0.0
 44
0.0
 50
0.0
 51
0.0
 71
0
 72
100
 73
1
 74
1
 75
0
 76
0
 77
0
 78
0
  0
ENDTAB
  0
TABLE
  2
LTYPE
  5
5
100
AcDbSymbolTable
 70
6
  0
LTYPE
  5
14
100
AcDbSymbolTableRecord
100
AcDbLinetypeTableRecord
  2
BYBLOCK
 70
0
  3

 72
65
 73
0
 40
0.0
  0
LTYPE
  5
15
100
AcDbSymbolTableRecord
100
AcDbLinetypeTableRecord
  2
BYLAYER
 70
0
  3

 72
65
 73
0
 40
0.0
  0
LTYPE
  5
16
100
AcDbSymbolTableRecord
100
AcDbLinetypeTableRecord
  2
CONTINUOUS
 70
64
  3
Solid line
 72
65
 73
0
 40
0.0
  0
LTYPE
  5
1F5
100
AcDbSymbolTableRecord
100
AcDbLinetypeTableRecord
  2
CENTER
 70
64
  3
____ _ ____ _ ____ _ ____ _ ____ _ ____ _ ____
 72
65
 73
4
 40
0.6
 49
0.375
 74
0
 49
-0.075
 74
0
 49
0.075
 74
0
 49
-0.075
 74
0
  0
LTYPE
  5
1F6
100
AcDbSymbolTableRecord
100
AcDbLinetypeTableRecord
  2
HIDDEN
 70
64
  3
- - - - - - - - - - - - - - - - - - - -
 72
65
 73
2
 40
0.2
 49
0.1
 74
0
 49
-0.1
 74
0
  0
LTYPE
  5
1F7
100
AcDbSymbolTableRecord
100
AcDbLinetypeTableRecord
  2
PHANTOM
 70
64
  3
_____ _ _ _____ _ _ _____ _ _ _____
 72
65
 73
6
 40
0.8
 49
0.45
 74
0
 49
-0.05
 74
0
 49
0.1
 74
0
 49
-0.05
 74
0
 49
0.1
 74
0
 49
-0.05
 74
0
  0
LTYPE
  5
1F8
100
AcDbSymbolTableRecord
100
AcDbLinetypeTableRecord
  2
DOT
 70
64
  3
. . . . . . . . . . . . . . . . . . . .
 72
65
 73
2
 40
0.2
 49
0.1
 74
0
 49
-0.1
 74
0
  0
LTYPE
  5
1F9
100
AcDbSymbolTableRecord
100
AcDbLinetypeTableRecord
  2
DASHED
 70
64
  3
- - - - - - - - - - - - - - - - - - - -
 72
65
 73
2
 40
0.2
 49
0.1
 74
0
 49
-0.1
 74
0
  0
ENDTAB
  0
TABLE
  2
LAYER
  5
2
100
AcDbSymbolTable
 70
36
  0
LAYER
  5
10
100
AcDbSymbolTableRecord
100
AcDbLayerTableRecord
  2
0
 70
0
 62
7
  6
CONTINUOUS
370
-3
390
F
  0
LAYER
  5
1FA
100
AcDbSymbolTableRecord
100
AcDbLayerTableRecord
  2
DEFAULT_1
 70
0
 62
7
  6
CENTER
370
-3
390
F
  0
LAYER
  5
1FB
100
AcDbSymbolTableRecord
100
AcDbLayerTableRecord
  2
DEFAULT_2
 70
0
 62
7
  6
HIDDEN
370
-3
390
F
  0
LAYER
  5
1FC
100
AcDbSymbolTableRecord
100
AcDbLayerTableRecord
  2
DEFAULT_3
 70
0
 62
7
  6
PHANTOM
370
-3
390
F
  0
LAYER
  5
1FD
100
AcDbSymbolTableRecord
100
AcDbLayerTableRecord
  2
00_COMPONENTS
 70
0
 62
7
  6
CONTINUOUS
370
-3
390
F
  0
LAYER
  5
1FE
100
AcDbSymbolTableRecord
100
AcDbLayerTableRecord
  2
01_1_DEFAULT_DATUMS
 70
0
 62
7
  6
CONTINUOUS
370
-3
390
F
  0
LAYER
  5
1FF
100
AcDbSymbolTableRecord
100
AcDbLayerTableRecord
  2
01_PLANES
 70
0
 62
7
  6
CONTINUOUS
370
-3
390
F
  0
LAYER
  5
200
100
AcDbSymbolTableRecord
100
AcDbLayerTableRecord
  2
02_COORD_SYS
 70
0
 62
7
  6
CONTINUOUS
370
-3
390
F
  0
LAYER
  5
201
100
AcDbSymbolTableRecord
100
AcDbLayerTableRecord
  2
03_AXES
 70
0
 62
7
  6
CONTINUOUS
370
-3
390
F
  0
LAYER
  5
202
100
AcDbSymbolTableRecord
100
AcDbLayerTableRecord
  2
04_POINTS
 70
0
 62
7
  6
CONTINUOUS
370
-3
390
F
  0
LAYER
  5
203
100
AcDbSymbolTableRecord
100
AcDbLayerTableRecord
  2
05_CURVES
 70
0
 62
7
  6
CONTINUOUS
370
-3
390
F
  0
LAYER
  5
204
100
AcDbSymbolTableRecord
100
AcDbLayerTableRecord
  2
06_SURFS
 70
0
 62
7
  6
CONTINUOUS
370
-3
390
F
  0
LAYER
  5
205
100
AcDbSymbolTableRecord
100
AcDbLayerTableRecord
  2
07_COSMETICS
 70
0
 62
7
  6
CONTINUOUS
370
-3
390
F
  0
LAYER
  5
206
100
AcDbSymbolTableRecord
100
AcDbLayerTableRecord
  2
10_NOTES
 70
0
 62
7
  6
CONTINUOUS
370
-3
390
F
  0
LAYER
  5
207
100
AcDbSymbolTableRecord
100
AcDbLayerTableRecord
  2
11_NOTES_PUB
 70
0
 62
7
  6
CONTINUOUS
370
-3
390
F
  0
LAYER
  5
208
100
AcDbSymbolTableRecord
100
AcDbLayerTableRecord
  2
13_REF_GTOL
 70
0
 62
7
  6
CONTINUOUS
370
-3
390
F
  0
LAYER
  5
209
100
AcDbSymbolTableRecord
100
AcDbLayerTableRecord
  2
16_MISC
 70
0
 62
7
  6
CONTINUOUS
370
-3
390
F
  0
LAYER
  5
20A
100
AcDbSymbolTableRecord
100
AcDbLayerTableRecord
  2
17_NO_PRINT
 70
0
 62
7
  6
CONTINUOUS
370
-3
390
F
  0
LAYER
  5
20B
100
AcDbSymbolTableRecord
100
AcDbLayerTableRecord
  2
18_DATUM_CAMS_JOINTS
 70
0
 62
7
  6
CONTINUOUS
370
-3
390
F
  0
LAYER
  5
20C
100
AcDbSymbolTableRecord
100
AcDbLayerTableRecord
  2
19_DATUM_FUNCTIONAL
 70
0
 62
7
  6
CONTINUOUS
370
-3
390
F
  0
LAYER
  5
20D
100
AcDbSymbolTableRecord
100
AcDbLayerTableRecord
  2
20_DATUM_KINEMATIC_SCHEME
 70
0
 62
7
  6
CONTINUOUS
370
-3
390
F
  0
ENDTAB
  0
TABLE
  2
STYLE
  5
3
100
AcDbSymbolTable
 70
1
  0
STYLE
  5
11
100
AcDbSymbolTableRecord
100
AcDbTextStyleTableRecord
  2
STANDARD
 70
0
 40
0.0
 41
1.0
 50
0.0
 71
0
 42
0.2
  3
ARIAL.TTF
  4

  0
STYLE
  5
20E
100
AcDbSymbolTableRecord
100
AcDbTextStyleTableRecord
  2
TEXTSTYLE_1
 70
0
 40
0.0
 41
0.8
 50
0.0
 71
0
 42
0.2
  3
gdt
  4

  0
ENDTAB
  0
TABLE
  2
VIEW
  5
6
100
AcDbSymbolTable
 70
0
  0
ENDTAB
  0
TABLE
  2
UCS
  5
7
100
AcDbSymbolTable
 70
0
  0
ENDTAB
  0
TABLE
  2
APPID
  5
9
100
AcDbSymbolTable
 70
1
  0
APPID
  5
20F
100
AcDbSymbolTableRecord
100
AcDbRegAppTableRecord
  2
ACAD
 70
0
  0
ENDTAB
  0
TABLE
  2
BLOCK_RECORD
  5
1
100
AcDbSymbolTable
 70
0
  0
BLOCK_RECORD
  5
210
100
AcDbSymbolTableRecord
100
AcDbBlockTableRecord
  2
*Model_Space
  0
BLOCK_RECORD
  5
211
100
AcDbSymbolTableRecord
100
AcDbBlockTableRecord
  2
*Paper_Space
  0
BLOCK_RECORD
  5
212
100
AcDbSymbolTableRecord
100
AcDbBlockTableRecord
  2
_FILLED
  0
ENDTAB
  0
TABLE
  2
DIMSTYLE
  5
A
100
AcDbSymbolTable
 70
1
100
AcDbDimStyleTable
 71
0
  0
DIMSTYLE
105
213
100
AcDbSymbolTableRecord
100
AcDbDimStyleTableRecord
  2
STANDARD
 70
0
  3

  4

 40
1.0
 41
5.6280897966
 42
1.0
 43
0.38
 44
1.0
 45
0.0
 46
0.0
 47
0.01
 48
0.01
140
7.8793257152
141
0.09
142
0.0
143
25.4
144
1.0
145
0.0
146
1.0
147
0.625
 71
1
 72
0
 73
0
 74
0
 75
0
 76
0
 77
1
 78
8
 79
2
170
0
171
1
172
0
173
0
174
0
175
0
176
0
177
0
178
0
270
2
179
2
271
2
272
2
273
2
274
2
275
0
280
0
281
0
282
0
283
1
284
8
285
0
286
0
287
3
288
0
340
11
278
46
341
212
342
212
343
212
344
212
  0
ENDTAB
  0
ENDSEC
  0
SECTION
  2
BLOCKS
  0
BLOCK
  5
20
100
AcDbEntity
  8
0
100
AcDbBlockBegin
  2
*Model_Space
 70
0
 10
0.0
 20
0.0
 30
0.0
  3
*Model_Space
  1

  0
ENDBLK
  5
21
100
AcDbEntity
  8
0
100
AcDbBlockEnd
  0
BLOCK
  5
1C
100
AcDbEntity
  8
0
100
AcDbBlockBegin
  2
*Paper_Space
 70
0
 10
0.0
 20
0.0
 30
0.0
  3
*Paper_Space
  1

  0
ENDBLK
  5
1D
100
AcDbEntity
  8
0
100
AcDbBlockEnd
  0
BLOCK
  5
214
100
AcDbEntity
  8
0
100
AcDbBlockBegin
  2
_FILLED
 70
64
 10
0.0
 20
0.0
  3
_FILLED
  1

  0
SOLID
  5
215
100
AcDbEntity
  8
0
  6
BYBLOCK
 62
0
100
AcDbTrace
 10
0.0
 20
0.0
 11
-1.0
 21
0.25
 12
-1.0
 22
-0.25
 13
-1.0
 23
-0.25
  0
ENDBLK
  5
216
100
AcDbEntity
  8
0
  6
BYBLOCK
 62
0
100
AcDbBlockEnd
  0
ENDSEC
  0
SECTION
  2
ENTITIES
  0
LINE
  5
217
100
AcDbEntity
  8
0
100
AcDbLine
 62
7
  6
BYLAYER
 10
53.4716751763
 20
303.2085339168
 11
53.4716751763
 21
421.2085339168
  0
LINE
  5
218
100
AcDbEntity
  8
0
100
AcDbLine
 62
7
  6
BYLAYER
 10
55.9716751763
 20
421.2085339168
 11
55.9716751763
 21
303.2085339168
  0
LINE
  5
219
100
AcDbEntity
  8
0
100
AcDbLine
 62
7
  6
BYLAYER
 10
59.7716751763
 20
313.2085339168
 11
59.7716751763
 21
411.2085339168
  0
LINE
  5
21A
100
AcDbEntity
  8
0
100
AcDbLine
 62
7
  6
BYLAYER
 10
68.4716751763
 20
377.7085339168
 11
68.4716751763
 21
339.7085339168
  0
LINE
  5
21B
100
AcDbEntity
  8
0
100
AcDbLine
 62
7
  6
BYLAYER
 10
106.4716751763
 20
357.6585339168
 11
106.4716751763
 21
367.1585339168
  0
LINE
  5
21C
100
AcDbEntity
  8
0
100
AcDbLine
 62
7
  6
BYLAYER
 10
110.4716751763
 20
339.7085339168
 11
110.4716751763
 21
357.6585339168
  0
LINE
  5
21D
100
AcDbEntity
  8
0
100
AcDbLine
 62
7
  6
BYLAYER
 10
110.4716751763
 20
367.1585339168
 11
110.4716751763
 21
377.7085339168
  0
LINE
  5
21E
100
AcDbEntity
  8
0
100
AcDbLine
 62
7
  6
BYLAYER
 10
136.2716751763
 20
411.2085339168
 11
136.2716751763
 21
367.1585339168
  0
LINE
  5
21F
100
AcDbEntity
  8
0
100
AcDbLine
 62
7
  6
BYLAYER
 10
136.2716751763
 20
357.6585339168
 11
136.2716751763
 21
313.2085339168
  0
LINE
  5
220
100
AcDbEntity
  8
0
100
AcDbLine
 62
7
  6
BYLAYER
 10
137.4716751763
 20
316.2085339168
 11
137.4716751763
 21
313.2085339168
  0
LINE
  5
221
100
AcDbEntity
  8
0
100
AcDbLine
 62
7
  6
BYLAYER
 10
137.4716751763
 20
401.2085339168
 11
137.4716751763
 21
411.2085339168
  0
LINE
  5
222
100
AcDbEntity
  8
0
100
AcDbLine
 62
7
  6
BYLAYER
 10
378.4716751763
 20
247.4085339168
 11
356.9716751763
 21
247.4085339168
  0
LINE
  5
223
100
AcDbEntity
  8
0
100
AcDbLine
 62
7
  6
BYLAYER
 10
355.9716751763
 20
248.4085339168
 11
379.4716751763
 21
248.4085339168
  0
LINE
  5
224
100
AcDbEntity
  8
0
100
AcDbLine
 62
7
  6
BYLAYER
 10
179.4716751763
 20
372.156492888
 11
179.7716751763
 21
372.456492888
  0
LINE
  5
225
100
AcDbEntity
  8
0
100
AcDbLine
 62
7
  6
BYLAYER
 10
177.9716751763
 20
392.2085339168
 11
177.9716751763
 21
383.2085339168
  0
LINE
  5
226
100
AcDbEntity
  8
0
100
AcDbLine
 62
7
  6
BYLAYER
 10
178.2216751763
 20
382.2766788003
 11
178.2216751763
 21
367.1585339168
  0
LINE
  5
227
100
AcDbEntity
  8
0
100
AcDbLine
 62
7
  6
BYLAYER
 10
178.2216751763
 20
357.6585339168
 11
178.2216751763
 21
328.2085339168
  0
LINE
  5
228
100
AcDbEntity
  8
0
100
AcDbLine
 62
7
  6
BYLAYER
 10
179.4716751763
 20
372.156492888
 11
179.4716751763
 21
352.756492888
  0
LINE
  5
229
100
AcDbEntity
  8
0
100
AcDbLine
 62
7
  6
BYLAYER
 10
179.7716751763
 20
372.456492888
 11
179.7716751763
 21
352.456492888
  0
LINE
  5
22A
100
AcDbEntity
  8
0
100
AcDbLine
 62
7
  6
BYLAYER
 10
182.2216751763
 20
349.6585339169
 11
182.2216751763
 21
352.456492888
  0
LINE
  5
22B
100
AcDbEntity
  8
0
100
AcDbLine
 62
7
  6
BYLAYER
 10
185.2216751763
 20
328.2085339168
 11
185.2216751763
 21
349.6585339169
  0
LINE
  5
22C
100
AcDbEntity
  8
0
100
AcDbLine
 62
7
  6
BYLAYER
 10
186.2216751763
 20
349.6585339169
 11
186.2216751763
 21
352.456492888
  0
LINE
  5
22D
100
AcDbEntity
  8
0
100
AcDbLine
 62
7
  6
BYLAYER
 10
188.6716751763
 20
352.456492888
 11
188.6716751763
 21
372.456492888
  0
LINE
  5
22E
100
AcDbEntity
  8
0
100
AcDbLine
 62
7
  6
BYLAYER
 10
188.9716751763
 20
349.3585339168
 11
188.9716751763
 21
379.2085339168
  0
LINE
  5
22F
100
AcDbEntity
  8
0
100
AcDbLine
 62
7
  6
BYLAYER
 10
191.4716751763
 20
349.2085339168
 11
191.4716751763
 21
379.2085339168
  0
LINE
  5
230
100
AcDbEntity
  8
0
100
AcDbLine
 62
7
  6
BYLAYER
 10
193.9716751763
 20
321.2085339168
 11
193.9716751763
 21
349.2085339168
  0
LINE
  5
231
100
AcDbEntity
  8
0
100
AcDbLine
 62
7
  6
BYLAYER
 10
194.9716751763
 20
321.2085339168
 11
194.9716751763
 21
396.2085339168
  0
LINE
  5
232
100
AcDbEntity
  8
0
100
AcDbLine
 62
7
  6
BYLAYER
 10
197.4716751763
 20
321.2085339168
 11
197.4716751763
 21
396.2085339168
  0
LINE
  5
233
100
AcDbEntity
  8
0
100
AcDbLine
 62
7
  6
BYLAYER
 10
201.0716751763
 20
351.7085339168
 11
201.0716751763
 21
372.0160565398
  0
LINE
  5
234
100
AcDbEntity
  8
0
100
AcDbLine
 62
7
  6
BYLAYER
 10
188.9716751763
 20
352.756492888
 11
188.6716751763
 21
352.456492888
  0
LINE
  5
235
100
AcDbEntity
  8
0
100
AcDbLine
 62
7
  6
BYLAYER
 10
204.3216751763
 20
369.6331551193
 11
204.3216751763
 21
372.0160565398
  0
LINE
  5
236
100
AcDbEntity
  8
0
100
AcDbLine
 62
7
  6
BYLAYER
 10
208.0716751763
 20
369.6331551193
 11
208.0716751763
 21
372.7085339154
  0
LINE
  5
237
100
AcDbEntity
  8
0
100
AcDbLine
 62
7
  6
BYLAYER
 10
53.4716751763
 20
303.2085339168
 11
127.4716751763
 21
303.2085339168
  0
LINE
  5
238
100
AcDbEntity
  8
0
100
AcDbLine
 62
7
  6
BYLAYER
 10
179.4716751763
 20
352.756492888
 11
179.7716751763
 21
352.456492888
  0
LINE
  5
239
100
AcDbEntity
  8
0
100
AcDbLine
 62
7
  6
BYLAYER
 10
222.0716751763
 20
354.7839127144
 11
222.0716751763
 21
369.6331551193
  0
LINE
  5
23A
100
AcDbEntity
  8
0
100
AcDbLine
 62
7
  6
BYLAYER
 10
103.5390053025
 20
309.9585339168
 11
101.0001355456
 21
309.9585339168
  0
LINE
  5
23B
100
AcDbEntity
  8
0
100
AcDbLine
 62
7
  6
BYLAYER
 10
142.4716751763
 20
321.2085339168
 11
197.4716751763
 21
321.2085339168
  0
LINE
  5
23C
100
AcDbEntity
  8
0
100
AcDbLine
 62
7
  6
BYLAYER
 10
178.2216751763
 20
328.2085339168
 11
185.2216751763
 21
328.2085339168
  0
LINE
  5
23D
100
AcDbEntity
  8
0
100
AcDbLine
 62
7
  6
BYLAYER
 10
355.9716751763
 20
330.4085339168
 11
333.4716751763
 21
330.4085339168
  0
LINE
  5
23E
100
AcDbEntity
  8
0
100
AcDbLine
 62
7
  6
BYLAYER
 10
194.9716751763
 20
331.2085339168
 11
197.4716751763
 21
331.2085339168
  0
LINE
  5
23F
100
AcDbEntity
  8
0
100
AcDbLine
 62
7
  6
BYLAYER
 10
333.4716751763
 20
331.4085339168
 11
356.9716751763
 21
331.4085339168
  0
LINE
  5
240
100
AcDbEntity
  8
0
100
AcDbLine
 62
7
  6
BYLAYER
 10
73.4716751763
 20
334.7085339168
 11
105.4716751763
 21
334.7085339168
  0
LINE
  5
241
100
AcDbEntity
  8
0
100
AcDbLine
 62
7
  6
BYLAYER
 10
188.9716751763
 20
372.156492888
 11
188.6716751763
 21
372.456492888
  0
LINE
  5
242
100
AcDbEntity
  8
0
100
AcDbLine
 62
7
  6
BYLAYER
 10
365.4716751763
 20
344.5479628174
 11
333.4716751763
 21
344.5479628174
  0
LINE
  5
243
100
AcDbEntity
  8
0
100
AcDbLine
 62
7
  6
BYLAYER
 10
194.9716751763
 20
349.2085339168
 11
191.4716751763
 21
349.2085339168
  0
LINE
  5
244
100
AcDbEntity
  8
0
100
AcDbLine
 62
7
  6
BYLAYER
 10
191.4716751763
 20
349.3585339168
 11
188.9716751763
 21
349.3585339168
  0
LINE
  5
245
100
AcDbEntity
  8
0
100
AcDbLine
 62
7
  6
BYLAYER
 10
323.9716751763
 20
349.4085339168
 11
327.4716751763
 21
349.4085339168
  0
LINE
  5
246
100
AcDbEntity
  8
0
100
AcDbLine
 62
7
  6
BYLAYER
 10
182.2217521935
 20
349.6585339169
 11
186.221598159
 21
349.6585339169
  0
LINE
  5
247
100
AcDbEntity
  8
0
100
AcDbLine
 62
7
  6
BYLAYER
 10
186.2216751763
 20
351.6085339168
 11
188.9716751763
 21
351.6085339168
  0
LINE
  5
248
100
AcDbEntity
  8
0
100
AcDbLine
 62
7
  6
BYLAYER
 10
201.0716751763
 20
351.7085339168
 11
197.4716751763
 21
351.7085339168
  0
LINE
  5
249
100
AcDbEntity
  8
0
100
AcDbLine
 62
7
  6
BYLAYER
 10
327.4716751763
 20
351.9085339168
 11
333.4716751763
 21
351.9085339168
  0
LINE
  5
24A
100
AcDbEntity
  8
0
100
AcDbLine
 62
7
  6
BYLAYER
 10
188.6716751763
 20
352.456492888
 11
186.2216751763
 21
352.456492888
  0
LINE
  5
24B
100
AcDbEntity
  8
0
100
AcDbLine
 62
7
  6
BYLAYER
 10
182.2216751763
 20
352.456492888
 11
179.7716751763
 21
352.456492888
  0
LINE
  5
24C
100
AcDbEntity
  8
0
100
AcDbLine
 62
7
  6
BYLAYER
 10
188.9716751763
 20
354.3585339168
 11
191.4716751763
 21
354.3585339168
  0
LINE
  5
24D
100
AcDbEntity
  8
0
100
AcDbLine
 62
7
  6
BYLAYER
 10
400.4716751763
 20
354.4085339168
 11
379.4716751763
 21
354.4085339168
  0
LINE
  5
24E
100
AcDbEntity
  8
0
100
AcDbLine
 62
7
  6
BYLAYER
 10
222.0716751763
 20
354.7839127144
 11
201.0716751763
 21
354.7839127144
  0
LINE
  5
24F
100
AcDbEntity
  8
0
100
AcDbLine
 62
7
  6
BYLAYER
 10
323.9716751763
 20
357.4085339168
 11
222.0716751763
 21
357.4085339168
  0
LINE
  5
250
100
AcDbEntity
  8
0
100
AcDbLine
 62
7
  6
BYLAYER
 10
379.4716751763
 20
357.4085339168
 11
400.4716751763
 21
357.4085339168
  0
LINE
  5
251
100
AcDbEntity
  8
0
100
AcDbLine
 62
7
  6
BYLAYER
 10
403.4716751763
 20
357.4085339168
 11
426.4716751763
 21
357.4085339168
  0
LINE
  5
252
100
AcDbEntity
  8
0
100
AcDbLine
 62
7
  6
BYLAYER
 10
179.4716751763
 20
357.6585339168
 11
106.4716751763
 21
357.6585339168
  0
LINE
  5
253
100
AcDbEntity
  8
0
100
AcDbLine
 62
7
  6
BYLAYER
 10
179.4716751763
 20
359.1585339168
 11
106.4716751763
 21
359.1585339168
  0
LINE
  5
254
100
AcDbEntity
  8
0
100
AcDbLine
 62
7
  6
BYLAYER
 10
323.9716751763
 20
359.4085339168
 11
222.0716751763
 21
359.4085339168
  0
LINE
  5
255
100
AcDbEntity
  8
0
100
AcDbLine
 62
7
  6
BYLAYER
 10
425.9716751763
 20
360.8085339168
 11
420.0716751763
 21
360.8085339168
  0
LINE
  5
256
100
AcDbEntity
  8
0
100
AcDbLine
 62
7
  6
BYLAYER
 10
420.0716751763
 20
364.0085339168
 11
425.9716751763
 21
364.0085339168
  0
LINE
  5
257
100
AcDbEntity
  8
0
100
AcDbLine
 62
7
  6
BYLAYER
 10
323.9716751763
 20
365.4085339168
 11
222.0716751763
 21
365.4085339168
  0
LINE
  5
258
100
AcDbEntity
  8
0
100
AcDbLine
 62
7
  6
BYLAYER
 10
179.4716751763
 20
365.6585339168
 11
106.4716751763
 21
365.6585339168
  0
LINE
  5
259
100
AcDbEntity
  8
0
100
AcDbLine
 62
7
  6
BYLAYER
 10
179.4716751763
 20
367.1585339168
 11
106.4716751763
 21
367.1585339168
  0
LINE
  5
25A
100
AcDbEntity
  8
0
100
AcDbLine
 62
7
  6
BYLAYER
 10
400.4716751763
 20
367.4085339168
 11
379.4716751763
 21
367.4085339168
  0
LINE
  5
25B
100
AcDbEntity
  8
0
100
AcDbLine
 62
7
  6
BYLAYER
 10
323.9716751763
 20
367.4085339168
 11
222.0716751763
 21
367.4085339168
  0
LINE
  5
25C
100
AcDbEntity
  8
0
100
AcDbLine
 62
7
  6
BYLAYER
 10
403.4716751763
 20
367.4085339168
 11
426.4716751763
 21
367.4085339168
  0
LINE
  5
25D
100
AcDbEntity
  8
0
100
AcDbLine
 62
7
  6
BYLAYER
 10
366.4716751763
 20
368.5736182198
 11
378.4716751763
 21
368.5736182198
  0
LINE
  5
25E
100
AcDbEntity
  8
0
100
AcDbLine
 62
7
  6
BYLAYER
 10
222.0716751763
 20
369.6331551193
 11
201.0716751763
 21
369.6331551193
  0
LINE
  5
25F
100
AcDbEntity
  8
0
100
AcDbLine
 62
7
  6
BYLAYER
 10
379.4716751763
 20
370.4085339168
 11
400.4716751763
 21
370.4085339168
  0
LINE
  5
260
100
AcDbEntity
  8
0
100
AcDbLine
 62
7
  6
BYLAYER
 10
204.3216751763
 20
372.0160565398
 11
201.0716751763
 21
372.0160565398
  0
LINE
  5
261
100
AcDbEntity
  8
0
100
AcDbLine
 62
7
  6
BYLAYER
 10
188.6716751763
 20
372.456492888
 11
179.7716751763
 21
372.456492888
  0
LINE
  5
262
100
AcDbEntity
  8
0
100
AcDbLine
 62
7
  6
BYLAYER
 10
197.4716751763
 20
372.7085339168
 11
201.8216751763
 21
372.7085339168
  0
LINE
  5
263
100
AcDbEntity
  8
0
100
AcDbLine
 62
7
  6
BYLAYER
 10
206.8216751763
 20
372.7085339168
 11
208.0716751721
 21
372.7085339168
  0
LINE
  5
264
100
AcDbEntity
  8
0
100
AcDbLine
 62
7
  6
BYLAYER
 10
327.4716751763
 20
372.9085339168
 11
333.4716751763
 21
372.9085339168
  0
LINE
  5
265
100
AcDbEntity
  8
0
100
AcDbLine
 62
7
  6
BYLAYER
 10
378.4716751763
 20
373.1311735172
 11
366.4716751763
 21
373.1311735172
  0
LINE
  5
266
100
AcDbEntity
  8
0
100
AcDbLine
 62
7
  6
BYLAYER
 10
378.4716751763
 20
374.5639440225
 11
365.4716751763
 21
374.5639440225
  0
LINE
  5
267
100
AcDbEntity
  8
0
100
AcDbLine
 62
7
  6
BYLAYER
 10
194.9716751763
 20
375.2085339168
 11
191.4716751763
 21
375.2085339168
  0
LINE
  5
268
100
AcDbEntity
  8
0
100
AcDbLine
 62
7
  6
BYLAYER
 10
323.9716751763
 20
375.4085339168
 11
327.4716751763
 21
375.4085339168
  0
LINE
  5
269
100
AcDbEntity
  8
0
100
AcDbLine
 62
7
  6
BYLAYER
 10
194.9716751763
 20
376.4085339168
 11
197.4716751763
 21
376.4085339168
  0
LINE
  5
26A
100
AcDbEntity
  8
0
100
AcDbLine
 62
7
  6
BYLAYER
 10
394.4716751763
 20
354.4085339168
 11
392.4716751763
 21
353.4085339168
  0
LINE
  5
26B
100
AcDbEntity
  8
0
100
AcDbLine
 62
7
  6
BYLAYER
 10
181.9716751763
 20
379.2085339168
 11
197.4716751763
 21
379.2085339168
  0
LINE
  5
26C
100
AcDbEntity
  8
0
100
AcDbLine
 62
7
  6
BYLAYER
 10
127.7974113522
 20
381.2085339168
 11
126.4716751763
 21
381.2085339168
  0
LINE
  5
26D
100
AcDbEntity
  8
0
100
AcDbLine
 62
7
  6
BYLAYER
 10
378.4716751763
 20
382.4085339168
 11
333.4716751763
 21
382.4085339168
  0
LINE
  5
26E
100
AcDbEntity
  8
0
100
AcDbLine
 62
7
  6
BYLAYER
 10
105.4716751763
 20
382.7085339168
 11
73.4716751763
 21
382.7085339168
  0
LINE
  5
26F
100
AcDbEntity
  8
0
100
AcDbLine
 62
7
  6
BYLAYER
 10
90.6716751763
 20
386.7085339168
 11
91.5129457409
 21
386.7085339168
  0
LINE
  5
270
100
AcDbEntity
  8
0
100
AcDbLine
 62
7
  6
BYLAYER
 10
142.4716751763
 20
396.2085339168
 11
197.4716751763
 21
396.2085339168
  0
LINE
  5
271
100
AcDbEntity
  8
0
100
AcDbLine
 62
7
  6
BYLAYER
 10
323.9716751763
 20
375.4085339168
 11
323.9716751763
 21
349.4085339168
  0
LINE
  5
272
100
AcDbEntity
  8
0
100
AcDbLine
 62
7
  6
BYLAYER
 10
101.00434505
 20
414.4585339168
 11
103.5432148069
 21
414.4585339168
  0
LINE
  5
273
100
AcDbEntity
  8
0
100
AcDbLine
 62
7
  6
BYLAYER
 10
327.4716751763
 20
349.4085339168
 11
327.4716751763
 21
375.4085339168
  0
LINE
  5
274
100
AcDbEntity
  8
0
100
AcDbLine
 62
7
  6
BYLAYER
 10
333.4716751763
 20
382.4085061213
 11
333.4716751763
 21
330.4085339168
  0
LINE
  5
275
100
AcDbEntity
  8
0
100
AcDbLine
 62
7
  6
BYLAYER
 10
355.9716751763
 20
330.4085339168
 11
356.9716751763
 21
331.4085339168
  0
LINE
  5
276
100
AcDbEntity
  8
0
100
AcDbLine
 62
7
  6
BYLAYER
 10
53.4716751763
 20
421.2085339168
 11
127.4716751763
 21
421.2085339168
  0
LINE
  5
277
100
AcDbEntity
  8
0
100
AcDbLine
 62
7
  6
BYLAYER
 10
392.4716751763
 20
371.4085339168
 11
394.4716751763
 21
370.4085339168
  0
LINE
  5
278
100
AcDbEntity
  8
0
100
AcDbLine
 62
7
  6
BYLAYER
 10
355.9716751763
 20
248.4085339168
 11
355.9716751763
 21
330.4085339168
  0
LINE
  5
279
100
AcDbEntity
  8
0
100
AcDbLine
 62
7
  6
BYLAYER
 10
356.9716751763
 20
331.4085339168
 11
356.9716751763
 21
247.4085339168
  0
LINE
  5
27A
100
AcDbEntity
  8
0
100
AcDbLine
 62
7
  6
BYLAYER
 10
365.4716751763
 20
344.5479628174
 11
365.4716751763
 21
374.5639440225
  0
LINE
  5
27B
100
AcDbEntity
  8
0
100
AcDbLine
 62
7
  6
BYLAYER
 10
366.4716751763
 20
345.6753333862
 11
366.4716751763
 21
373.146341937
  0
LINE
  5
27C
100
AcDbEntity
  8
0
100
AcDbLine
 62
7
  6
BYLAYER
 10
378.4716751763
 20
247.4085339168
 11
378.4716751763
 21
382.4085252057
  0
LINE
  5
27D
100
AcDbEntity
  8
0
100
AcDbLine
 62
7
  6
BYLAYER
 10
379.4716751763
 20
248.4085339168
 11
379.4716751763
 21
381.4085256413
  0
LINE
  5
27E
100
AcDbEntity
  8
0
100
AcDbLine
 62
7
  6
BYLAYER
 10
392.4716751763
 20
353.4085339168
 11
392.4716751763
 21
354.4085339168
  0
LINE
  5
27F
100
AcDbEntity
  8
0
100
AcDbLine
 62
7
  6
BYLAYER
 10
392.4716751763
 20
370.4085339168
 11
392.4716751763
 21
371.4085339168
  0
LINE
  5
280
100
AcDbEntity
  8
0
100
AcDbLine
 62
7
  6
BYLAYER
 10
427.4716751763
 20
359.4085339168
 11
426.4716751763
 21
357.9085339168
  0
LINE
  5
281
100
AcDbEntity
  8
0
100
AcDbLine
 62
7
  6
BYLAYER
 10
400.4716751763
 20
367.4085339168
 11
400.4716751763
 21
357.4085339168
  0
LINE
  5
282
100
AcDbEntity
  8
0
100
AcDbLine
 62
7
  6
BYLAYER
 10
406.4716751763
 20
367.4085339168
 11
406.4716751763
 21
357.4085339168
  0
LINE
  5
283
100
AcDbEntity
  8
0
100
AcDbLine
 62
7
  6
BYLAYER
 10
427.4716751763
 20
365.4085339168
 11
426.4716751763
 21
366.9085339168
  0
LINE
  5
284
100
AcDbEntity
  8
0
100
AcDbLine
 62
7
  6
BYLAYER
 10
426.4716751763
 20
357.4085339168
 11
426.4716751763
 21
367.4085339168
  0
LINE
  5
285
100
AcDbEntity
  8
0
100
AcDbLine
 62
7
  6
BYLAYER
 10
427.4716751763
 20
359.4089425913
 11
427.4716751763
 21
365.4081252424
  0
ARC
  5
286
100
AcDbEntity
  8
0
100
AcDbCircle
 62
7
  6
BYLAYER
 10
69.7716751763
 20
313.2085339168
 40
10.0
100
AcDbArc
 50
180.0
 51
270.0
  0
ARC
  5
287
100
AcDbEntity
  8
0
100
AcDbCircle
 62
7
  6
BYLAYER
 10
126.2716751763
 20
313.2085339168
 40
10.0
100
AcDbArc
 50
270.0
 51
360.0
  0
ARC
  5
288
100
AcDbEntity
  8
0
100
AcDbCircle
 62
7
  6
BYLAYER
 10
127.4716751763
 20
313.2085339168
 40
10.0
100
AcDbArc
 50
270.0
 51
360.0
  0
ARC
  5
289
100
AcDbEntity
  8
0
100
AcDbCircle
 62
7
  6
BYLAYER
 10
142.4716751763
 20
316.2085339168
 40
5.0
100
AcDbArc
 50
90.0
 51
180.0
  0
CIRCLE
  5
28A
100
AcDbEntity
  8
0
100
AcDbCircle
 62
7
  6
BYLAYER
 10
104.3216751763
 20
325.5585339168
 40
4.25
  0
CIRCLE
  5
28B
100
AcDbEntity
  8
0
100
AcDbCircle
 62
7
  6
BYLAYER
 10
102.2716751763
 20
308.2085339168
 40
2.25
  0
ARC
  5
28C
100
AcDbEntity
  8
0
100
AcDbCircle
 62
7
  6
BYLAYER
 10
126.2716751763
 20
411.2085339168
 40
10.0
100
AcDbArc
 50
0.0
 51
90.0
  0
ARC
  5
28D
100
AcDbEntity
  8
0
100
AcDbCircle
 62
7
  6
BYLAYER
 10
69.7716751763
 20
411.2085339168
 40
10.0
100
AcDbArc
 50
90.0
 51
180.0
  0
ARC
  5
28E
100
AcDbEntity
  8
0
100
AcDbCircle
 62
7
  6
BYLAYER
 10
127.4716751763
 20
411.2085339168
 40
10.0
100
AcDbArc
 50
0.0
 51
90.0
  0
ARC
  5
28F
100
AcDbEntity
  8
0
100
AcDbCircle
 62
7
  6
BYLAYER
 10
105.4716751763
 20
339.7085339168
 40
5.0
100
AcDbArc
 50
270.0
 51
360.0
  0
ARC
  5
290
100
AcDbEntity
  8
0
100
AcDbCircle
 62
7
  6
BYLAYER
 10
73.4716751763
 20
339.7085339168
 40
5.0
100
AcDbArc
 50
180.0
 51
270.0
  0
ARC
  5
291
100
AcDbEntity
  8
0
100
AcDbCircle
 62
7
  6
BYLAYER
 10
73.4716751763
 20
377.7085339168
 40
5.0
100
AcDbArc
 50
90.0
 51
180.0
  0
ARC
  5
292
100
AcDbEntity
  8
0
100
AcDbCircle
 62
7
  6
BYLAYER
 10
105.4716751763
 20
377.7085339168
 40
5.0
100
AcDbArc
 50
0.0
 51
90.0
  0
ARC
  5
293
100
AcDbEntity
  8
0
100
AcDbCircle
 62
7
  6
BYLAYER
 10
142.4716751763
 20
401.2085339168
 40
5.0
100
AcDbArc
 50
180.0
 51
270.0
  0
CIRCLE
  5
294
100
AcDbEntity
  8
0
100
AcDbCircle
 62
7
  6
BYLAYER
 10
104.3216751763
 20
398.8585339168
 40
4.25
  0
CIRCLE
  5
295
100
AcDbEntity
  8
0
100
AcDbCircle
 62
7
  6
BYLAYER
 10
125.5216751763
 20
377.7085339168
 40
4.25
  0
ARC
  5
296
100
AcDbEntity
  8
0
100
AcDbCircle
 62
7
  6
BYLAYER
 10
181.9716751763
 20
392.2085339168
 40
4.0
100
AcDbArc
 50
90.0
 51
180.0
  0
ARC
  5
297
100
AcDbEntity
  8
0
100
AcDbCircle
 62
7
  6
BYLAYER
 10
181.9716751763
 20
383.2085339168
 40
4.0
100
AcDbArc
 50
180.0
 51
270.0
  0
ARC
  5
298
100
AcDbEntity
  8
0
100
AcDbCircle
 62
7
  6
BYLAYER
 10
126.4716751763
 20
377.2085339168
 40
4.0
100
AcDbArc
 50
90.0
 51
255.7332939704
  0
CIRCLE
  5
299
100
AcDbEntity
  8
0
100
AcDbCircle
 62
7
  6
BYLAYER
 10
125.5216751763
 20
346.7085339168
 40
3.5
  0
CIRCLE
  5
29A
100
AcDbEntity
  8
0
100
AcDbCircle
 62
7
  6
BYLAYER
 10
90.5216751763
 20
389.2085339168
 40
2.75
  0
ARC
  5
29B
100
AcDbEntity
  8
0
100
AcDbCircle
 62
7
  6
BYLAYER
 10
90.6716751763
 20
389.4085339168
 40
2.7
100
AcDbArc
 50
134.7200952864
 51
270.0
  0
CIRCLE
  5
29C
100
AcDbEntity
  8
0
100
AcDbCircle
 62
7
  6
BYLAYER
 10
125.5216751763
 20
346.7085339168
 40
2.5
  0
CIRCLE
  5
29D
100
AcDbEntity
  8
0
100
AcDbCircle
 62
7
  6
BYLAYER
 10
102.2716751763
 20
416.2085339168
 40
2.25
  0
ARC
  5
29E
100
AcDbEntity
  8
0
100
AcDbCircle
 62
7
  6
BYLAYER
 10
378.4716751763
 20
248.4085339168
 40
1.0
100
AcDbArc
 50
270.0
 51
360.0
  0
ARC
  5
29F
100
AcDbEntity
  8
0
100
AcDbCircle
 62
7
  6
BYLAYER
 10
356.9716751763
 20
248.4085339168
 40
1.0
100
AcDbArc
 50
180.0
 51
270.0
  0
ARC
  5
2A0
100
AcDbEntity
  8
0
100
AcDbCircle
 62
7
  6
BYLAYER
 10
403.4716751763
 20
370.4085339168
 40
3.0
100
AcDbArc
 50
180.0
 51
270.0
  0
ARC
  5
2A1
100
AcDbEntity
  8
0
100
AcDbCircle
 62
7
  6
BYLAYER
 10
403.4716751763
 20
354.4085339168
 40
3.0
100
AcDbArc
 50
90.0
 51
180.0
  0
ARC
  5
2A2
100
AcDbEntity
  8
0
100
AcDbCircle
 62
7
  6
BYLAYER
 10
420.0716751763
 20
362.4085339168
 40
1.6
100
AcDbArc
 50
90.0
 51
270.0
  0
ARC
  5
2A3
100
AcDbEntity
  8
0
100
AcDbCircle
 62
7
  6
BYLAYER
 10
378.4716751763
 20
381.4085339168
 40
1.0
100
AcDbArc
 50
0.0
 51
90.0
  0
ARC
  5
2A4
100
AcDbEntity
  8
0
100
AcDbCircle
 62
7
  6
BYLAYER
 10
425.9716751763
 20
363.5085339168
 40
0.5
100
AcDbArc
 50
0.0
 51
90.0
  0
ARC
  5
2A5
100
AcDbEntity
  8
0
100
AcDbCircle
 62
7
  6
BYLAYER
 10
425.9716751763
 20
361.3085339168
 40
0.5
100
AcDbArc
 50
269.9999999999
 51
359.9999999999
  0
SPLINE
  5
2A6
100
AcDbEntity
  8
0
100
AcDbSpline
 62
7
  6
BYLAYER
 70
0
 71
3
 72
27
 73
23
 74
0
 42
0.0000001
 43
0.0000001
 44
0.0000000001
 40
0.0
 40
0.0
 40
0.0
 40
0.0
 40
0.0003060901
 40
0.0012242684
 40
0.0027545244
 40
0.0048968478
 40
0.0076508497
 40
0.011013655
 40
0.0195501677
 40
0.0304753933
 40
0.0437584013
 40
0.0593669526
 40
0.07725418
 40
0.119642101
 40
0.1704690177
 40
0.2291946562
 40
0.2952295796
 40
0.3679306749
 40
0.4466128594
 40
0.6189115306
 40
0.8057393191
 40
1.0
 40
1.0
 40
1.0
 40
1.0
 10
182.221685058
 20
352.4564784403
 30
0.0
 10
182.2217101611
 20
352.4566823273
 30
0.0
 10
182.2229450784
 20
352.4564457798
 30
0.0
 10
182.2243430663
 20
352.4571930324
 30
0.0
 10
182.227600631
 20
352.4575784227
 30
0.0
 10
182.2317253567
 20
352.458521511
 30
0.0
 10
182.2372010857
 20
352.4595714113
 30
0.0
 10
182.2468260043
 20
352.4615136171
 30
0.0
 10
182.2618648088
 20
352.4644788939
 30
0.0
 10
182.2834261665
 20
352.468705165
 30
0.0
 10
182.3096661178
 20
352.4737679377
 30
0.0
 10
182.3405074888
 20
352.4796336272
 30
0.0
 10
182.3905695399
 20
352.4889864747
 30
0.0
 10
182.4639446894
 20
352.5022525531
 30
0.0
 10
182.5644399832
 20
352.5195523352
 30
0.0
 10
182.6807750323
 20
352.5383546984
 30
0.0
 10
182.811847517
 20
352.5579298645
 30
0.0
 10
182.9564436056
 20
352.5775514352
 30
0.0
 10
183.1721198153
 20
352.6035679851
 30
0.0
 10
183.4646766978
 20
352.6315374938
 30
0.0
 10
183.8355105753
 20
352.6534205597
 30
0.0
 10
184.0913007809
 20
352.6585339168
 30
0.0
 10
184.2216751763
 20
352.6585339168
 30
0.0
  0
SPLINE
  5
2A7
100
AcDbEntity
  8
0
100
AcDbSpline
 62
7
  6
BYLAYER
 70
0
 71
3
 72
26
 73
22
 74
0
 42
0.0000001
 43
0.0000001
 44
0.0000000001
 40
0.0
 40
0.0
 40
0.0
 40
0.0
 40
0.1942604609
 40
0.3810827525
 40
0.5533771471
 40
0.6320580047
 40
0.7047597116
 40
0.770795793
 40
0.8295239547
 40
0.8803530081
 40
0.9227431585
 40
0.9406313868
 40
0.9562406177
 40
0.969524069
 40
0.9804495972
 40
0.9889863166
 40
0.9951032779
 40
0.9972456296
 40
0.9987758612
 40
0.9996939818
 40
1.0
 40
1.0
 40
1.0
 40
1.0
 10
184.2216751763
 20
352.6585339168
 30
0.0
 10
184.3520494158
 20
352.6585339168
 30
0.0
 10
184.607835785
 20
352.6534211263
 30
0.0
 10
184.9786629168
 20
352.6315384851
 30
0.0
 10
185.2712125867
 20
352.6035719108
 30
0.0
 10
185.4868853976
 20
352.5775552521
 30
0.0
 10
185.6314817179
 20
352.5579331463
 30
0.0
 10
185.7625569039
 20
352.5383569139
 30
0.0
 10
185.8788958403
 20
352.5195533083
 30
0.0
 10
185.9793955676
 20
352.5022546608
 30
0.0
 10
186.052775363
 20
352.4889878948
 30
0.0
 10
186.1028383421
 20
352.4796356492
 30
0.0
 10
186.1336849479
 20
352.4737668194
 30
0.0
 10
186.1599143612
 20
352.4687115093
 30
0.0
 10
186.1815080389
 20
352.464462382
 30
0.0
 10
186.1982798116
 20
352.4611964847
 30
0.0
 10
186.2094747723
 20
352.4588402225
 30
0.0
 10
186.2157268641
 20
352.4577480726
 30
0.0
 10
186.2190608657
 20
352.4568204803
 30
0.0
 10
186.2203210272
 20
352.4570289285
 30
0.0
 10
186.2216987831
 20
352.4562766285
 30
0.0
 10
186.2216652384
 20
352.4564792489
 30
0.0
  0
SPLINE
  5
2A8
100
AcDbEntity
  8
0
100
AcDbSpline
 62
7
  6
BYLAYER
 70
0
 71
3
 72
39
 73
35
 74
0
 42
0.0000001
 43
0.0000001
 44
0.0000000001
 40
0.0
 40
0.0
 40
0.0
 40
0.0
 40
0.000619896
 40
0.0024735005
 40
0.0055516987
 40
0.0098453851
 40
0.0220288311
 40
0.0388620615
 40
0.0601520046
 40
0.0856479308
 40
0.1150705803
 40
0.1481167
 40
0.2237751329
 40
0.309806273
 40
0.4999695331
 40
0.5969378694
 40
0.6901835163
 40
0.7762146301
 40
0.8155269124
 40
0.8518770338
 40
0.8849243476
 40
0.9143481449
 40
0.9398454148
 40
0.9611360823
 40
0.9701226024
 40
0.9779700266
 40
0.9846549725
 40
0.9901540066
 40
0.9944478725
 40
0.9975262707
 40
0.9986068062
 40
0.9993800376
 40
0.9998448181
 40
1.0
 40
1.0
 40
1.0
 40
1.0
 10
201.8216752016
 20
372.7085339168
 30
0.0
 10
201.8226168457
 20
372.7080855149
 30
0.0
 10
201.8268407399
 20
372.7076166606
 30
0.0
 10
201.8357587536
 20
372.7049781921
 30
0.0
 10
201.8509611299
 20
372.7016838604
 30
0.0
 10
201.8829366018
 20
372.6940129468
 30
0.0
 10
201.9375796152
 20
372.6814955023
 30
0.0
 10
202.0201455127
 20
372.6629049203
 30
0.0
 10
202.1247767702
 20
372.6403172233
 30
0.0
 10
202.2503731968
 20
372.6145119774
 30
0.0
 10
202.3956973357
 20
372.586480732
 30
0.0
 10
202.6244793062
 20
372.5456299547
 30
0.0
 10
202.9484185709
 20
372.4960192145
 30
0.0
 10
203.5366602813
 20
372.4286043416
 30
0.0
 10
204.164895465
 20
372.3988824321
 30
0.0
 10
204.8048733611
 20
372.4142841771
 30
0.0
 10
205.2686511639
 20
372.4471796351
 30
0.0
 10
205.6341387043
 20
372.4890487681
 30
0.0
 10
205.9033997534
 20
372.5279493527
 30
0.0
 10
206.0839475013
 20
372.5572495884
 30
0.0
 10
206.2476283266
 20
372.5864763704
 30
0.0
 10
206.3929577174
 20
372.6145093947
 30
0.0
 10
206.5185616919
 20
372.6403091056
 30
0.0
 10
206.6102856364
 20
372.6601292266
 30
0.0
 10
206.672893971
 20
372.6740738174
 30
0.0
 10
206.7114887771
 20
372.682816575
 30
0.0
 10
206.7443230628
 20
372.6903802783
 30
0.0
 10
206.7713531388
 20
372.696642162
 30
0.0
 10
206.7923648661
 20
372.7016402813
 30
0.0
 10
206.8063576112
 20
372.7047871987
 30
0.0
 10
206.8142275616
 20
372.7068641351
 30
0.0
 10
206.8183587951
 20
372.7075025594
 30
0.0
 10
206.8200432214
 20
372.7085166123
 30
0.0
 10
206.8216751485
 20
372.7082728279
 30
0.0
 10
206.8216751485
 20
372.7085339168
 30
0.0
  0
SPLINE
  5
2A9
100
AcDbEntity
  8
0
100
AcDbSpline
 62
7
  6
BYLAYER
 70
0
 71
3
 72
11
 73
7
 74
0
 42
0.0000001
 43
0.0000001
 44
0.0000000001
 40
0.0
 40
0.0
 40
0.0
 40
0.0
 40
0.0796942089
 40
0.3003718845
 40
0.6224887786
 40
1.0
 40
1.0
 40
1.0
 40
1.0
 10
208.0716751721
 20
372.7085339168
 30
0.0
 10
207.9758551652
 20
372.6743108422
 30
0.0
 10
207.6132928625
 20
372.549139094
 30
0.0
 10
206.8512191812
 20
372.3213927528
 30
0.0
 10
205.6983410526
 20
372.0829156454
 30
0.0
 10
204.803691479
 20
372.0160565398
 30
0.0
 10
204.3216751763
 20
372.0160565398
 30
0.0
  0
SPLINE
  5
2AA
100
AcDbEntity
  8
0
100
AcDbSpline
 62
7
  6
BYLAYER
 70
0
 71
3
 72
12
 73
8
 74
0
 42
0.0000001
 43
0.0000001
 44
0.0000000001
 40
0.0
 40
0.0
 40
0.0
 40
0.0
 40
0.1249216864
 40
0.250006994
 40
0.499042147
 40
0.7493203874
 40
1.0
 40
1.0
 40
1.0
 40
1.0
 10
424.9716751763
 20
367.4085339168
 30
0.0
 10
425.1072744072
 20
367.4085339168
 30
0.0
 10
425.3811195945
 20
367.3543317567
 30
0.0
 10
425.8493645771
 20
367.0643154216
 30
0.0
 10
426.2407808847
 20
366.4786234611
 30
0.0
 10
426.4428360933
 20
365.6830161194
 30
0.0
 10
426.4716751763
 20
365.1376294245
 30
0.0
 10
426.4716751763
 20
364.8655232462
 30
0.0
  0
SPLINE
  5
2AB
100
AcDbEntity
  8
0
100
AcDbSpline
 62
7
  6
BYLAYER
 70
0
 71
3
 72
9
 73
5
 74
0
 42
0.0000001
 43
0.0000001
 44
0.0000000001
 40
0.0
 40
0.0
 40
0.0
 40
0.0
 40
0.4945452273
 40
1.0
 40
1.0
 40
1.0
 40
1.0
 10
401.0626077705
 20
356.1961413316
 30
0.0
 10
400.900658992
 20
356.3549695563
 30
0.0
 10
400.605081518
 20
356.7145918301
 30
0.0
 10
400.4716751763
 20
357.176695681
 30
0.0
 10
400.4716751763
 20
357.4085339168
 30
0.0
  0
SPLINE
  5
2AC
100
AcDbEntity
  8
0
100
AcDbSpline
 62
7
  6
BYLAYER
 70
0
 71
3
 72
9
 73
5
 74
0
 42
0.0000001
 43
0.0000001
 44
0.0000000001
 40
0.0
 40
0.0
 40
0.0
 40
0.0
 40
0.5054524213
 40
1.0
 40
1.0
 40
1.0
 40
1.0
 10
400.4716751763
 20
367.4085339168
 30
0.0
 10
400.4716751763
 20
367.64037106
 30
0.0
 10
400.6050813748
 20
368.1024746771
 30
0.0
 10
400.9006582438
 20
368.4620975158
 30
0.0
 10
401.0626077816
 20
368.6209264867
 30
0.0
  0
SPLINE
  5
2AD
100
AcDbEntity
  8
0
100
AcDbSpline
 62
7
  6
BYLAYER
 70
0
 71
3
 72
12
 73
8
 74
0
 42
0.0000001
 43
0.0000001
 44
0.0000000001
 40
0.0
 40
0.0
 40
0.0
 40
0.0
 40
0.1249214012
 40
0.2500069146
 40
0.4990420451
 40
0.7493203542
 40
1.0
 40
1.0
 40
1.0
 40
1.0
 10
424.9716756821
 20
357.4085339393
 30
0.0
 10
425.1072745834
 20
357.4085339393
 30
0.0
 10
425.3811196183
 20
357.4627360804
 30
0.0
 10
425.8493645043
 20
357.7527522658
 30
0.0
 10
426.2407808543
 20
358.3384443892
 30
0.0
 10
426.4428361202
 20
359.1340516835
 30
0.0
 10
426.4716751763
 20
359.6794384132
 30
0.0
 10
426.4716751763
 20
359.9515445875
 30
0.0
  0
SPLINE
  5
2AE
100
AcDbEntity
  8
0
100
AcDbSpline
 62
7
  6
BYLAYER
 70
0
 71
3
 72
12
 73
8
 74
0
 42
0.0000001
 43
0.0000001
 44
0.0000000001
 40
0.0
 40
0.0
 40
0.0
 40
0.0
 40
0.0932206513
 40
0.2090682407
 40
0.4728919555
 40
0.7434420036
 40
1.0
 40
1.0
 40
1.0
 40
1.0
 10
366.4716751763
 20
373.1463475679
 30
0.0
 10
366.4716751763
 20
373.2012998139
 30
0.0
 10
366.4447339773
 20
373.323851123
 30
0.0
 10
366.3340208123
 20
373.5800239767
 30
0.0
 10
366.1212573166
 20
373.9020835919
 30
0.0
 10
365.8171526586
 20
374.2561534785
 30
0.0
 10
365.5889237642
 20
374.4684166195
 30
0.0
 10
365.4716751763
 20
374.5639440225
 30
0.0
  0
SPLINE
  5
2AF
100
AcDbEntity
  8
0
100
AcDbSpline
 62
7
  6
BYLAYER
 70
0
 71
3
 72
11
 73
7
 74
0
 42
0.0000001
 43
0.0000001
 44
0.0000000001
 40
0.0
 40
0.0
 40
0.0
 40
0.0
 40
0.1666695527
 40
0.3833228162
 40
0.6671775573
 40
1.0
 40
1.0
 40
1.0
 40
1.0
 10
379.4716751763
 20
369.100730065
 30
0.0
 10
379.4716751763
 20
369.0329052546
 30
0.0
 10
379.4070309935
 20
368.8772561779
 30
0.0
 10
379.182303692
 20
368.7126442745
 30
0.0
 10
378.859322174
 20
368.5996946223
 30
0.0
 10
378.6071145453
 20
368.5736182198
 30
0.0
 10
378.4716751763
 20
368.5736182198
 30
0.0
  0
SPLINE
  5
2B0
100
AcDbEntity
  8
0
100
AcDbSpline
 62
7
  6
BYLAYER
 70
0
 71
3
 72
11
 73
7
 74
0
 42
0.0000001
 43
0.0000001
 44
0.0000000001
 40
0.0
 40
0.0
 40
0.0
 40
0.0
 40
0.3027507877
 40
0.5776807936
 40
0.807793593
 40
1.0
 40
1.0
 40
1.0
 40
1.0
 10
378.4716751763
 20
374.5639440225
 30
0.0
 10
378.6001799918
 20
374.5639440225
 30
0.0
 10
378.8466602088
 20
374.5357571103
 30
0.0
 10
379.1703084845
 20
374.4111910223
 30
0.0
 10
379.4053346261
 20
374.2180990564
 30
0.0
 10
379.4716751763
 20
374.0377569512
 30
0.0
 10
379.4716751763
 20
373.9561735173
 30
0.0
  0
SPLINE
  5
2B1
100
AcDbEntity
  8
0
100
AcDbSpline
 62
7
  6
BYLAYER
 70
0
 71
3
 72
11
 73
7
 74
0
 42
0.0000001
 43
0.0000001
 44
0.0000000001
 40
0.0
 40
0.0
 40
0.0
 40
0.0
 40
0.2275418988
 40
0.4688063117
 40
0.7282887804
 40
1.0
 40
1.0
 40
1.0
 40
1.0
 10
379.4716751763
 20
373.9561735172
 30
0.0
 10
379.4716751763
 20
373.8479072562
 30
0.0
 10
379.4154111884
 20
373.6219357753
 30
0.0
 10
379.1861342762
 20
373.3491842933
 30
0.0
 10
378.8557640688
 20
373.1717318752
 30
0.0
 10
378.6009575546
 20
373.1311735172
 30
0.0
 10
378.4716751763
 20
373.1311735172
 30
0.0
  0
SPLINE
  5
2B2
100
AcDbEntity
  8
0
100
AcDbSpline
 62
7
  6
BYLAYER
 70
0
 71
3
 72
11
 73
7
 74
0
 42
0.0000001
 43
0.0000001
 44
0.0000000001
 40
0.0
 40
0.0
 40
0.0
 40
0.0
 40
0.2495469061
 40
0.4993898318
 40
0.7495359404
 40
1.0
 40
1.0
 40
1.0
 40
1.0
 10
365.4716751763
 20
344.5479628174
 30
0.0
 10
365.6099448561
 20
344.5479628174
 30
0.0
 10
365.8904750553
 20
344.6153895615
 30
0.0
 10
366.2217229637
 20
344.8848737203
 30
0.0
 10
366.4264384467
 20
345.256913182
 30
0.0
 10
366.4716751763
 20
345.5365555273
 30
0.0
 10
366.4716751763
 20
345.6753333862
 30
0.0
  0
ENDSEC
  0
SECTION
  2
OBJECTS
  0
DICTIONARY
  5
C
100
AcDbDictionary
280
0
281
1
  3
ACAD_GROUP
350
D
  3
ACAD_MLINESTYLE
350
17
  3
ACAD_LAYOUT
350
1A
  3
ACAD_PLOTSETTINGS
350
19
  3
ACAD_PLOTSTYLENAME
350
E
  0
DICTIONARY
  5
D
102
{ACAD_REACTORS
330
C
102
}
100
AcDbDictionary
280
0
281
1
  0
ACDBDICTIONARYWDFLT
  5
E
102
{ACAD_REACTORS
330
C
102
}
100
AcDbDictionary
281
1
  3
Normal
350
F
100
AcDbDictionaryWithDefault
340
F
  0
DICTIONARY
  5
17
102
{ACAD_REACTORS
330
C
102
}
100
AcDbDictionary
280
0
281
1
  3
Standard
350
18
  0
DICTIONARY
  5
19
102
{ACAD_REACTORS
330
C
102
}
100
AcDbDictionary
281
1
  0
DICTIONARY
  5
1A
102
{ACAD_REACTORS
330
C
102
}
100
AcDbDictionary
281
1
  3
Model
350
2B3
  3
Layout1
350
2B4
  0
ACDBPLACEHOLDER
  5
F
102
{ACAD_REACTORS
330
E
102
}
  0
MLINESTYLE
  5
18
102
{ACAD_REACTORS
330
17
102
}
100
AcDbMlineStyle
  2
STANDARD
 70
0
  3

 62
256
 51
90.0
 52
90.0
 71
2
 49
0.5
 62
256
  6
BYLAYER
 49
-0.5
 62
256
  6
BYLAYER
  0
LAYOUT
  5
2B3
102
{ACAD_REACTORS
330
1A
102
}
100
AcDbPlotSettings
  1

  2
none_device
  4

  6

 40
0.0
 41
0.0
 42
0.0
 43
0.0
 44
210.0
 45
297.0
 46
0.0
 47
0.0
 48
0.0
 49
0.0
140
0.0
141
0.0
142
1.0
143
1.0
 70
1024
 72
1
 73
0
 74
0
  7

 75
0
147
1.0
148
0.0
149
0.0
100
AcDbLayout
  1
Model
 70
0
 71
0
 10
0.0
 20
0.0
 11
210.0
 21
297.0
 12
0.0
 22
0.0
 32
0.0
 14
0.0
 24
0.0
 34
0.0
 15
0.0
 25
0.0
 35
0.0
146
0.0
 13
0.0
 23
0.0
 33
0.0
 16
1.0
 26
0.0
 36
0.0
 17
0.0
 27
1.0
 37
0.0
 76
0
330
210
345
0
346
0
  0
LAYOUT
  5
2B4
102
{ACAD_REACTORS
330
1A
102
}
100
AcDbPlotSettings
  1

  2
none_device
  4

  6

 40
0.0
 41
0.0
 42
0.0
 43
0.0
 44
210.0
 45
297.0
 46
0.0
 47
0.0
 48
0.0
 49
0.0
140
0.0
141
0.0
142
1.0
143
1.0
 70
0
 72
1
 73
0
 74
0
  7

 75
0
147
1.0
148
0.0
149
0.0
100
AcDbLayout
  1
Layout1
 70
0
 71
1
 10
0.0
 20
0.0
 11
210.0
 21
297.0
 12
0.0
 22
0.0
 32
0.0
 14
0.0
 24
0.0
 34
0.0
 15
0.0
 25
0.0
 35
0.0
146
0.0
 13
0.0
 23
0.0
 33
0.0
 16
1.0
 26
0.0
 36
0.0
 17
0.0
 27
1.0
 37
0.0
 76
0
330
211
345
0
346
0
  0
ENDSEC
  0
EOF
