999
DXF file: C:\Users\sesa63760\Dev\_Creo\CAD\MCADPD0004356_3D-CAD\drw0001_5.dxf
999
Pro/ENGINEER 2019471 by Parametric Technology Corporation
  0
SECTION
  2
HEADER
  9
$ACADVER
  1
AC1024
  9
$DWGCODEPAGE
  3
ANSI_1252
  9
$EXTMAX
 10
81.8060782113
 20
115.697167756
 30
0.0
  9
$EXTMIN
 10
0.0
 20
0.0
 30
0.0
  9
$LIMMIN
 10
0.0
 20
0.0
  9
$LIMMAX
 10
81.8060782113
 20
115.697167756
  9
$VIEWCTR
 10
40.9030391057
 20
57.848583878
  9
$VIEWSIZE
 40
115.697167756
  9
$CLAYER
  8
0
  9
$LTSCALE
 40
7.5417413056
  9
$CELTYPE
  6
BYLAYER
  9
$DIMSCALE
 40
1.0
  9
$DIMASZ
 40
0.9738818835
  9
$DIMEXO
 40
1.0
  9
$DIMDLI
 40
5.2106576293
  9
$DIMEXE
 40
1.0
  9
$DIMCEN
 40
1.2341031227
  9
$DIMLFAC
 40
1.0
  9
$DIMBLK
  1
_FILLED
  9
$DIMALT
 70
0
  9
$DIMALTF
 40
0.0393700787
  9
$DIMTXT
 40
1.3634346369
  9
$DIMTOL
 70
1
  9
$DIMLIM
 70
0
  9
$DIMTFAC
 40
1.0
  9
$DIMTP
 40
0.01
  9
$DIMTM
 40
0.01
  9
$DIMGAP
 40
0.625
  9
$DIMDSEP
 70
46
  9
$AUNITS
 70
0
  9
$PDMODE
 70
3
  9
$PDSIZE
 40
0.3125
  9
$HANDSEED
  5
243
  9
$TILEMODE
 70
1
  9
$MEASUREMENT
 70
1
  9
$INSUNITS
 70
4
  0
ENDSEC
  0
SECTION
  2
CLASSES
  0
CLASS
  1
ACDBDICTIONARYWDFLT
  2
AcDbDictionaryWithDefault
  3
AutoCAD 2000
 90
0
 91
1
280
0
281
0
  0
CLASS
  1
ACDBPLACEHOLDER
  2
AcDbPlaceHolder
  3
AutoCAD 2000
 90
0
 91
1
280
0
281
0
  0
CLASS
  1
LAYOUT
  2
AcDbLayout
  3
AutoCAD 2000
 90
0
 91
0
280
0
281
0
  0
ENDSEC
  0
SECTION
  2
TABLES
  0
TABLE
  2
VPORT
  5
8
100
AcDbSymbolTable
 70
2
  0
VPORT
  5
1F4
100
AcDbSymbolTableRecord
100
AcDbViewportTableRecord
  2
*ACTIVE
 70
0
 10
0.0
 20
0.0
 11
1.0
 21
1.0
 12
40.9030391057
 22
57.848583878
 13
0.0
 23
0.0
 14
1.0
 24
1.0
 15
0.0
 25
0.0
 16
0.0
 26
0.0
 36
1.0
 17
0.0
 27
0.0
 37
0.0
 40
115.697167756
 41
0.7070707071
 42
50.0
 43
0.0
 44
0.0
 50
0.0
 51
0.0
 71
0
 72
100
 73
1
 74
1
 75
0
 76
0
 77
0
 78
0
  0
ENDTAB
  0
TABLE
  2
LTYPE
  5
5
100
AcDbSymbolTable
 70
6
  0
LTYPE
  5
14
100
AcDbSymbolTableRecord
100
AcDbLinetypeTableRecord
  2
BYBLOCK
 70
0
  3

 72
65
 73
0
 40
0.0
  0
LTYPE
  5
15
100
AcDbSymbolTableRecord
100
AcDbLinetypeTableRecord
  2
BYLAYER
 70
0
  3

 72
65
 73
0
 40
0.0
  0
LTYPE
  5
16
100
AcDbSymbolTableRecord
100
AcDbLinetypeTableRecord
  2
CONTINUOUS
 70
64
  3
Solid line
 72
65
 73
0
 40
0.0
  0
LTYPE
  5
1F5
100
AcDbSymbolTableRecord
100
AcDbLinetypeTableRecord
  2
CENTER
 70
64
  3
____ _ ____ _ ____ _ ____ _ ____ _ ____ _ ____
 72
65
 73
4
 40
0.6
 49
0.375
 74
0
 49
-0.075
 74
0
 49
0.075
 74
0
 49
-0.075
 74
0
  0
LTYPE
  5
1F6
100
AcDbSymbolTableRecord
100
AcDbLinetypeTableRecord
  2
HIDDEN
 70
64
  3
- - - - - - - - - - - - - - - - - - - -
 72
65
 73
2
 40
0.2
 49
0.1
 74
0
 49
-0.1
 74
0
  0
LTYPE
  5
1F7
100
AcDbSymbolTableRecord
100
AcDbLinetypeTableRecord
  2
PHANTOM
 70
64
  3
_____ _ _ _____ _ _ _____ _ _ _____
 72
65
 73
6
 40
0.8
 49
0.45
 74
0
 49
-0.05
 74
0
 49
0.1
 74
0
 49
-0.05
 74
0
 49
0.1
 74
0
 49
-0.05
 74
0
  0
LTYPE
  5
1F8
100
AcDbSymbolTableRecord
100
AcDbLinetypeTableRecord
  2
DOT
 70
64
  3
. . . . . . . . . . . . . . . . . . . .
 72
65
 73
2
 40
0.2
 49
0.1
 74
0
 49
-0.1
 74
0
  0
LTYPE
  5
1F9
100
AcDbSymbolTableRecord
100
AcDbLinetypeTableRecord
  2
DASHED
 70
64
  3
- - - - - - - - - - - - - - - - - - - -
 72
65
 73
2
 40
0.2
 49
0.1
 74
0
 49
-0.1
 74
0
  0
ENDTAB
  0
TABLE
  2
LAYER
  5
2
100
AcDbSymbolTable
 70
36
  0
LAYER
  5
10
100
AcDbSymbolTableRecord
100
AcDbLayerTableRecord
  2
0
 70
0
 62
7
  6
CONTINUOUS
370
-3
390
F
  0
LAYER
  5
1FA
100
AcDbSymbolTableRecord
100
AcDbLayerTableRecord
  2
DEFAULT_1
 70
0
 62
7
  6
CENTER
370
-3
390
F
  0
LAYER
  5
1FB
100
AcDbSymbolTableRecord
100
AcDbLayerTableRecord
  2
DEFAULT_2
 70
0
 62
7
  6
HIDDEN
370
-3
390
F
  0
LAYER
  5
1FC
100
AcDbSymbolTableRecord
100
AcDbLayerTableRecord
  2
DEFAULT_3
 70
0
 62
7
  6
PHANTOM
370
-3
390
F
  0
LAYER
  5
1FD
100
AcDbSymbolTableRecord
100
AcDbLayerTableRecord
  2
00_COMPONENTS
 70
0
 62
7
  6
CONTINUOUS
370
-3
390
F
  0
LAYER
  5
1FE
100
AcDbSymbolTableRecord
100
AcDbLayerTableRecord
  2
01_1_DEFAULT_DATUMS
 70
0
 62
7
  6
CONTINUOUS
370
-3
390
F
  0
LAYER
  5
1FF
100
AcDbSymbolTableRecord
100
AcDbLayerTableRecord
  2
01_PLANES
 70
0
 62
7
  6
CONTINUOUS
370
-3
390
F
  0
LAYER
  5
200
100
AcDbSymbolTableRecord
100
AcDbLayerTableRecord
  2
02_COORD_SYS
 70
0
 62
7
  6
CONTINUOUS
370
-3
390
F
  0
LAYER
  5
201
100
AcDbSymbolTableRecord
100
AcDbLayerTableRecord
  2
03_AXES
 70
0
 62
7
  6
CONTINUOUS
370
-3
390
F
  0
LAYER
  5
202
100
AcDbSymbolTableRecord
100
AcDbLayerTableRecord
  2
04_POINTS
 70
0
 62
7
  6
CONTINUOUS
370
-3
390
F
  0
LAYER
  5
203
100
AcDbSymbolTableRecord
100
AcDbLayerTableRecord
  2
05_CURVES
 70
0
 62
7
  6
CONTINUOUS
370
-3
390
F
  0
LAYER
  5
204
100
AcDbSymbolTableRecord
100
AcDbLayerTableRecord
  2
06_SURFS
 70
0
 62
7
  6
CONTINUOUS
370
-3
390
F
  0
LAYER
  5
205
100
AcDbSymbolTableRecord
100
AcDbLayerTableRecord
  2
07_COSMETICS
 70
0
 62
7
  6
CONTINUOUS
370
-3
390
F
  0
LAYER
  5
206
100
AcDbSymbolTableRecord
100
AcDbLayerTableRecord
  2
10_NOTES
 70
0
 62
7
  6
CONTINUOUS
370
-3
390
F
  0
LAYER
  5
207
100
AcDbSymbolTableRecord
100
AcDbLayerTableRecord
  2
11_NOTES_PUB
 70
0
 62
7
  6
CONTINUOUS
370
-3
390
F
  0
LAYER
  5
208
100
AcDbSymbolTableRecord
100
AcDbLayerTableRecord
  2
13_REF_GTOL
 70
0
 62
7
  6
CONTINUOUS
370
-3
390
F
  0
LAYER
  5
209
100
AcDbSymbolTableRecord
100
AcDbLayerTableRecord
  2
16_MISC
 70
0
 62
7
  6
CONTINUOUS
370
-3
390
F
  0
LAYER
  5
20A
100
AcDbSymbolTableRecord
100
AcDbLayerTableRecord
  2
17_NO_PRINT
 70
0
 62
7
  6
CONTINUOUS
370
-3
390
F
  0
LAYER
  5
20B
100
AcDbSymbolTableRecord
100
AcDbLayerTableRecord
  2
18_DATUM_CAMS_JOINTS
 70
0
 62
7
  6
CONTINUOUS
370
-3
390
F
  0
LAYER
  5
20C
100
AcDbSymbolTableRecord
100
AcDbLayerTableRecord
  2
19_DATUM_FUNCTIONAL
 70
0
 62
7
  6
CONTINUOUS
370
-3
390
F
  0
LAYER
  5
20D
100
AcDbSymbolTableRecord
100
AcDbLayerTableRecord
  2
20_DATUM_KINEMATIC_SCHEME
 70
0
 62
7
  6
CONTINUOUS
370
-3
390
F
  0
ENDTAB
  0
TABLE
  2
STYLE
  5
3
100
AcDbSymbolTable
 70
1
  0
STYLE
  5
11
100
AcDbSymbolTableRecord
100
AcDbTextStyleTableRecord
  2
STANDARD
 70
0
 40
0.0
 41
1.0
 50
0.0
 71
0
 42
0.2
  3
ARIAL.TTF
  4

  0
STYLE
  5
20E
100
AcDbSymbolTableRecord
100
AcDbTextStyleTableRecord
  2
TEXTSTYLE_1
 70
0
 40
0.0
 41
0.8
 50
0.0
 71
0
 42
0.2
  3
gdt
  4

  0
ENDTAB
  0
TABLE
  2
VIEW
  5
6
100
AcDbSymbolTable
 70
0
  0
ENDTAB
  0
TABLE
  2
UCS
  5
7
100
AcDbSymbolTable
 70
0
  0
ENDTAB
  0
TABLE
  2
APPID
  5
9
100
AcDbSymbolTable
 70
1
  0
APPID
  5
20F
100
AcDbSymbolTableRecord
100
AcDbRegAppTableRecord
  2
ACAD
 70
0
  0
ENDTAB
  0
TABLE
  2
BLOCK_RECORD
  5
1
100
AcDbSymbolTable
 70
0
  0
BLOCK_RECORD
  5
210
100
AcDbSymbolTableRecord
100
AcDbBlockTableRecord
  2
*Model_Space
  0
BLOCK_RECORD
  5
211
100
AcDbSymbolTableRecord
100
AcDbBlockTableRecord
  2
*Paper_Space
  0
BLOCK_RECORD
  5
212
100
AcDbSymbolTableRecord
100
AcDbBlockTableRecord
  2
_FILLED
  0
ENDTAB
  0
TABLE
  2
DIMSTYLE
  5
A
100
AcDbSymbolTable
 70
1
100
AcDbDimStyleTable
 71
0
  0
DIMSTYLE
105
213
100
AcDbSymbolTableRecord
100
AcDbDimStyleTableRecord
  2
STANDARD
 70
0
  3

  4

 40
1.0
 41
0.9738818835
 42
1.0
 43
0.38
 44
1.0
 45
0.0
 46
0.0
 47
0.01
 48
0.01
140
1.3634346369
141
0.09
142
0.0
143
25.4
144
1.0
145
0.0
146
1.0
147
0.625
 71
1
 72
0
 73
0
 74
0
 75
0
 76
0
 77
1
 78
8
 79
2
170
0
171
1
172
0
173
0
174
0
175
0
176
0
177
0
178
0
270
2
179
2
271
2
272
2
273
2
274
2
275
0
280
0
281
0
282
0
283
1
284
8
285
0
286
0
287
3
288
0
340
11
278
46
341
212
342
212
343
212
344
212
  0
ENDTAB
  0
ENDSEC
  0
SECTION
  2
BLOCKS
  0
BLOCK
  5
20
100
AcDbEntity
  8
0
100
AcDbBlockBegin
  2
*Model_Space
 70
0
 10
0.0
 20
0.0
 30
0.0
  3
*Model_Space
  1

  0
ENDBLK
  5
21
100
AcDbEntity
  8
0
100
AcDbBlockEnd
  0
BLOCK
  5
1C
100
AcDbEntity
  8
0
100
AcDbBlockBegin
  2
*Paper_Space
 70
0
 10
0.0
 20
0.0
 30
0.0
  3
*Paper_Space
  1

  0
ENDBLK
  5
1D
100
AcDbEntity
  8
0
100
AcDbBlockEnd
  0
BLOCK
  5
214
100
AcDbEntity
  8
0
100
AcDbBlockBegin
  2
_FILLED
 70
64
 10
0.0
 20
0.0
  3
_FILLED
  1

  0
SOLID
  5
215
100
AcDbEntity
  8
0
  6
BYBLOCK
 62
0
100
AcDbTrace
 10
0.0
 20
0.0
 11
-1.0
 21
0.25
 12
-1.0
 22
-0.25
 13
-1.0
 23
-0.25
  0
ENDBLK
  5
216
100
AcDbEntity
  8
0
  6
BYBLOCK
 62
0
100
AcDbBlockEnd
  0
ENDSEC
  0
SECTION
  2
ENTITIES
  0
LINE
  5
217
100
AcDbEntity
  8
0
100
AcDbLine
 62
7
  6
BYLAYER
 10
12.5359367091
 20
53.3536685809
 11
12.5359367091
 21
51.8536685809
  0
LINE
  5
218
100
AcDbEntity
  8
0
100
AcDbLine
 62
7
  6
BYLAYER
 10
12.5359367091
 20
57.3536685809
 11
12.5359367091
 21
70.3536685809
  0
LINE
  5
219
100
AcDbEntity
  8
0
100
AcDbLine
 62
7
  6
BYLAYER
 10
17.0359367091
 20
45.626723576
 11
17.0359367091
 21
51.8536685809
  0
LINE
  5
21A
100
AcDbEntity
  8
0
100
AcDbLine
 62
7
  6
BYLAYER
 10
19.0359367091
 20
45.626723576
 11
19.0359367091
 21
51.8536685809
  0
LINE
  5
21B
100
AcDbEntity
  8
0
100
AcDbLine
 62
7
  6
BYLAYER
 10
27.3359367091
 20
45.626780681
 11
27.3359367091
 21
51.8536685809
  0
LINE
  5
21C
100
AcDbEntity
  8
0
100
AcDbLine
 62
7
  6
BYLAYER
 10
29.3359367091
 20
45.626780681
 11
29.3359367091
 21
51.8536685809
  0
LINE
  5
21D
100
AcDbEntity
  8
0
100
AcDbLine
 62
7
  6
BYLAYER
 10
17.0359367091
 20
45.626723576
 11
19.0359367091
 21
45.626723576
  0
LINE
  5
21E
100
AcDbEntity
  8
0
100
AcDbLine
 62
7
  6
BYLAYER
 10
27.3359367091
 20
45.626723576
 11
29.3359367091
 21
45.626723576
  0
LINE
  5
21F
100
AcDbEntity
  8
0
100
AcDbLine
 62
7
  6
BYLAYER
 10
17.0359367091
 20
46.2536685809
 11
19.0359367091
 21
46.2536685809
  0
LINE
  5
220
100
AcDbEntity
  8
0
100
AcDbLine
 62
7
  6
BYLAYER
 10
27.3359367091
 20
46.2536685809
 11
29.3359367091
 21
46.2536685809
  0
LINE
  5
221
100
AcDbEntity
  8
0
100
AcDbLine
 62
7
  6
BYLAYER
 10
69.8359367091
 20
48.2536685809
 11
74.3329484633
 21
48.2536685809
  0
LINE
  5
222
100
AcDbEntity
  8
0
100
AcDbLine
 62
7
  6
BYLAYER
 10
69.8359367091
 20
50.3062320166
 11
74.2707654871
 21
50.3062320166
  0
LINE
  5
223
100
AcDbEntity
  8
0
100
AcDbLine
 62
7
  6
BYLAYER
 10
12.5359367091
 20
51.8536685809
 11
66.8359367091
 21
51.8536685809
  0
LINE
  5
224
100
AcDbEntity
  8
0
100
AcDbLine
 62
7
  6
BYLAYER
 10
11.0359367091
 20
53.3536685809
 11
74.2707654871
 21
53.3536685809
  0
LINE
  5
225
100
AcDbEntity
  8
0
100
AcDbLine
 62
7
  6
BYLAYER
 10
74.3868237867
 20
53.3536685809
 11
74.5359367091
 21
53.3536685809
  0
LINE
  5
226
100
AcDbEntity
  8
0
100
AcDbLine
 62
7
  6
BYLAYER
 10
11.0359367091
 20
56.3536685809
 11
11.5359367091
 21
56.3536685809
  0
LINE
  5
227
100
AcDbEntity
  8
0
100
AcDbLine
 62
7
  6
BYLAYER
 10
74.4481956486
 20
67.7804800352
 11
74.1699617606
 21
67.7804806743
  0
LINE
  5
228
100
AcDbEntity
  8
0
100
AcDbLine
 62
7
  6
BYLAYER
 10
12.5359367091
 20
68.8536685809
 11
74.5359367091
 21
68.8536685809
  0
LINE
  5
229
100
AcDbEntity
  8
0
100
AcDbLine
 62
7
  6
BYLAYER
 10
12.5359367091
 20
70.3536685809
 11
71.0359360062
 21
70.3536685809
  0
LINE
  5
22A
100
AcDbEntity
  8
0
100
AcDbLine
 62
7
  6
BYLAYER
 10
65.1563382479
 20
51.8536685809
 11
65.1563382479
 21
53.3536685809
  0
LINE
  5
22B
100
AcDbEntity
  8
0
100
AcDbLine
 62
7
  6
BYLAYER
 10
66.8359367091
 20
53.3536685809
 11
66.8359367091
 21
51.8536685809
  0
LINE
  5
22C
100
AcDbEntity
  8
0
100
AcDbLine
 62
7
  6
BYLAYER
 10
69.3947751691
 20
68.8536685809
 11
69.3947751691
 21
70.3536685809
  0
LINE
  5
22D
100
AcDbEntity
  8
0
100
AcDbLine
 62
7
  6
BYLAYER
 10
69.8359367091
 20
48.253957053
 11
69.8359367091
 21
53.3536685809
  0
LINE
  5
22E
100
AcDbEntity
  8
0
100
AcDbLine
 62
7
  6
BYLAYER
 10
71.0359367091
 20
68.8536685809
 11
71.0359367091
 21
70.3536685809
  0
LINE
  5
22F
100
AcDbEntity
  8
0
100
AcDbLine
 62
7
  6
BYLAYER
 10
74.1633346026
 20
68.8536685809
 11
74.1699617606
 21
67.7804800352
  0
LINE
  5
230
100
AcDbEntity
  8
0
100
AcDbLine
 62
7
  6
BYLAYER
 10
72.5359367091
 20
53.3536685809
 11
72.5359367091
 21
68.8536685809
  0
LINE
  5
231
100
AcDbEntity
  8
0
100
AcDbLine
 62
7
  6
BYLAYER
 10
74.2707654871
 20
50.3062320166
 11
74.2707654871
 21
53.3536685809
  0
LINE
  5
232
100
AcDbEntity
  8
0
100
AcDbLine
 62
7
  6
BYLAYER
 10
74.3868237867
 20
53.3536685809
 11
74.3868237867
 21
50.3062320166
  0
LINE
  5
233
100
AcDbEntity
  8
0
100
AcDbLine
 62
7
  6
BYLAYER
 10
74.5359367091
 20
53.3536685809
 11
74.5359367091
 21
56.9536685809
  0
LINE
  5
234
100
AcDbEntity
  8
0
100
AcDbLine
 62
7
  6
BYLAYER
 10
74.5359367091
 20
64.7536685809
 11
74.5359367091
 21
68.8536685809
  0
LINE
  5
235
100
AcDbEntity
  8
0
100
AcDbLine
 62
7
  6
BYLAYER
 10
74.4481956486
 20
67.7804800352
 11
74.4513926988
 21
68.8536685809
  0
ARC
  5
236
100
AcDbEntity
  8
0
100
AcDbCircle
 62
7
  6
BYLAYER
 10
263.1796221424
 20
60.8536685809
 40
188.6839952244
100
AcDbArc
 50
178.8156417093
 51
181.1843582907
  0
ARC
  5
237
100
AcDbEntity
  8
0
100
AcDbCircle
 62
7
  6
BYLAYER
 10
11.0359367091
 20
54.8536685809
 40
1.5
100
AcDbArc
 50
90.0
 51
270.0
  0
ARC
  5
238
100
AcDbEntity
  8
0
100
AcDbCircle
 62
7
  6
BYLAYER
 10
11.5359367091
 20
57.3536685809
 40
1.0
100
AcDbArc
 50
270.0
 51
360.0
  0
SPLINE
  5
239
100
AcDbEntity
  8
0
100
AcDbSpline
 62
7
  6
BYLAYER
 70
0
 71
3
 72
21
 73
17
 74
0
 42
0.0000001
 43
0.0000001
 44
0.0000000001
 40
0.0
 40
0.0
 40
0.0
 40
0.0
 40
0.0906253186
 40
0.2409856283
 40
0.4875231931
 40
0.6156889299
 40
0.7159869374
 40
0.7926853985
 40
0.8521775839
 40
0.8985192413
 40
0.9343594554
 40
0.9612736706
 40
0.9803657382
 40
0.9873208204
 40
0.992734523
 40
1.0
 40
1.0
 40
1.0
 40
1.0
 10
74.3868237867
 20
50.3062320166
 30
0.0
 10
74.3964915842
 20
50.2444326218
 30
0.0
 10
74.4129005643
 20
50.0787291563
 30
0.0
 10
74.4295969725
 20
49.7426196143
 30
0.0
 10
74.4340706249
 20
49.3801222476
 30
0.0
 10
74.4299583685
 20
49.0522858249
 30
0.0
 10
74.423284673
 20
48.8417485316
 30
0.0
 10
74.414784511
 20
48.6787300648
 30
0.0
 10
74.4052761043
 20
48.5530877312
 30
0.0
 10
74.3949925924
 20
48.4558277823
 30
0.0
 10
74.3842134347
 20
48.3812754006
 30
0.0
 10
74.3728843662
 20
48.3258876459
 30
0.0
 10
74.3625372375
 20
48.2907585897
 30
0.0
 10
74.3531996021
 20
48.270971234
 30
0.0
 10
74.34603674
 20
48.2597379944
 30
0.0
 10
74.3379631677
 20
48.2536797438
 30
0.0
 10
74.3329484205
 20
48.2536810143
 30
0.0
  0
SPLINE
  5
23A
100
AcDbEntity
  8
0
100
AcDbSpline
 62
7
  6
BYLAYER
 70
0
 71
3
 72
18
 73
14
 74
0
 42
0.0000001
 43
0.0000001
 44
0.0000000001
 40
0.0
 40
0.0
 40
0.0
 40
0.0
 40
0.2840744345
 40
0.5049393185
 40
0.6698188241
 40
0.7922651873
 40
0.8406778321
 40
0.8816665383
 40
0.9157652652
 40
0.9434524629
 40
0.9652005614
 40
0.9814558647
 40
1.0
 40
1.0
 40
1.0
 40
1.0
 10
74.1699617606
 20
67.7804800349
 30
0.0
 10
74.1708058016
 20
67.6431700071
 30
0.0
 10
74.1764059276
 20
67.3991005676
 30
0.0
 10
74.1948102485
 20
67.075797649
 30
0.0
 10
74.2169500774
 20
66.8311084021
 30
0.0
 10
74.2375206906
 20
66.6700823297
 30
0.0
 10
74.2543684409
 20
66.5690561248
 30
0.0
 10
74.2658670097
 20
66.5104897519
 30
0.0
 10
74.2772709284
 20
66.4620585262
 30
0.0
 10
74.2883415066
 20
66.4233883724
 30
0.0
 10
74.2995325849
 20
66.3931315065
 30
0.0
 10
74.3109357385
 20
66.3696783792
 30
0.0
 10
74.3239846783
 20
66.3536917389
 30
0.0
 10
74.3329483284
 20
66.353691791
 30
0.0
  0
SPLINE
  5
23B
100
AcDbEntity
  8
0
100
AcDbSpline
 62
7
  6
BYLAYER
 70
0
 71
3
 72
39
 73
35
 74
0
 42
0.0000001
 43
0.0000001
 44
0.0000000001
 40
0.0
 40
0.0
 40
0.0
 40
0.0
 40
0.0023325859
 40
0.0052203725
 40
0.0089561047
 40
0.0136714782
 40
0.0194265322
 40
0.0262460985
 40
0.0430853528
 40
0.0641481374
 40
0.0892926483
 40
0.1182987365
 40
0.1509171043
 40
0.1868475284
 40
0.2257713492
 40
0.3111041842
 40
0.4036941773
 40
0.4999976933
 40
0.5963009059
 40
0.6888902559
 40
0.7742229565
 40
0.8131468216
 40
0.8490778778
 40
0.8816972635
 40
0.9107045394
 40
0.9358502521
 40
0.9569132848
 40
0.9737528321
 40
0.980572568
 40
0.9863278072
 40
0.991043442
 40
0.9947794318
 40
0.9976673827
 40
1.0
 40
1.0
 40
1.0
 40
1.0
 10
73.7226678389
 20
64.7536685809
 30
0.0
 10
73.7165092357
 20
64.7536685809
 30
0.0
 10
73.7026943046
 20
64.7495088494
 30
0.0
 10
73.6844645947
 20
64.7339140592
 30
0.0
 10
73.6665264839
 20
64.7097793377
 30
0.0
 10
73.648603157
 20
64.6767357734
 30
0.0
 10
73.6306211249
 20
64.6347316799
 30
0.0
 10
73.6048077726
 20
64.5614445105
 30
0.0
 10
73.573940011
 20
64.44733866
 30
0.0
 10
73.5394423757
 20
64.2844543416
 30
0.0
 10
73.5059728708
 20
64.0886692386
 30
0.0
 10
73.4739548297
 20
63.8618032062
 30
0.0
 10
73.4439039591
 20
63.6059735325
 30
0.0
 10
73.4162119556
 20
63.3235587685
 30
0.0
 10
73.3819802206
 20
62.9019969181
 30
0.0
 10
73.3485069077
 20
62.3303691751
 30
0.0
 10
73.3240103323
 20
61.6066956967
 30
0.0
 10
73.3156700459
 20
60.8536883765
 30
0.0
 10
73.3240094255
 20
60.1006827452
 30
0.0
 10
73.348504706
 20
59.377012085
 30
0.0
 10
73.3819766356
 20
58.8053861958
 30
0.0
 10
73.4162081615
 20
58.3838228907
 30
0.0
 10
73.4439000714
 20
58.1014036288
 30
0.0
 10
73.4739506712
 20
57.8455663746
 30
0.0
 10
73.5059691791
 20
57.6186913365
 30
0.0
 10
73.5394377622
 20
57.4228989986
 30
0.0
 10
73.573936771
 20
57.2600102385
 30
0.0
 10
73.6048055411
 20
57.1459027231
 30
0.0
 10
73.6306196933
 20
57.0726140165
 30
0.0
 10
73.6486024784
 20
57.0306084882
 30
0.0
 10
73.6665261156
 20
56.997563005
 30
0.0
 10
73.684464338
 20
56.9734261678
 30
0.0
 10
73.702693806
 20
56.9578293395
 30
0.0
 10
73.7165091528
 20
56.9536685809
 30
0.0
 10
73.7226678389
 20
56.9536685809
 30
0.0
  0
SPLINE
  5
23C
100
AcDbEntity
  8
0
100
AcDbSpline
 62
7
  6
BYLAYER
 70
0
 71
3
 72
18
 73
14
 74
0
 42
0.0000001
 43
0.0000001
 44
0.0000000001
 40
0.0
 40
0.0
 40
0.0
 40
0.0
 40
0.0180479985
 40
0.0339656011
 40
0.0553865471
 40
0.0827759052
 40
0.1166189557
 40
0.1574035797
 40
0.2056717577
 40
0.3280501254
 40
0.4932283708
 40
0.7148270171
 40
1.0
 40
1.0
 40
1.0
 40
1.0
 10
74.3329483284
 20
66.353691791
 30
0.0
 10
74.3416343202
 20
66.3536918416
 30
0.0
 10
74.3540953985
 20
66.3697439304
 30
0.0
 10
74.363853995
 20
66.3931727058
 30
0.0
 10
74.373228946
 20
66.4234209416
 30
0.0
 10
74.3819425579
 20
66.4620728424
 30
0.0
 10
74.3905305795
 20
66.5104925608
 30
0.0
 10
74.398749341
 20
66.5690518503
 30
0.0
 10
74.4102205747
 20
66.670178257
 30
0.0
 10
74.423035332
 20
66.8313253317
 30
0.0
 10
74.4355686999
 20
67.0760684213
 30
0.0
 10
74.4450780725
 20
67.3993397746
 30
0.0
 10
74.4477830261
 20
67.6432349556
 30
0.0
 10
74.4481956486
 20
67.7804800349
 30
0.0
  0
SPLINE
  5
23D
100
AcDbEntity
  8
0
100
AcDbSpline
 62
7
  6
BYLAYER
 70
0
 71
3
 72
41
 73
37
 74
0
 42
0.0000001
 43
0.0000001
 44
0.0000000001
 40
0.0
 40
0.0
 40
0.0
 40
0.0
 40
0.0023128695
 40
0.0051478758
 40
0.0088169939
 40
0.013461925
 40
0.0191475313
 40
0.0259013796
 40
0.0337297155
 40
0.0426297005
 40
0.0636080468
 40
0.0887006087
 40
0.1176868191
 40
0.1503150262
 40
0.1862809063
 40
0.2252607705
 40
0.3107461332
 40
0.4035120261
 40
0.4999967024
 40
0.5964811222
 40
0.6892465886
 40
0.7747321481
 40
0.8137122212
 40
0.8496789953
 40
0.8823085205
 40
0.9112961466
 40
0.9363901238
 40
0.9573688148
 40
0.9662689774
 40
0.9740975165
 40
0.9808515663
 40
0.9865373755
 40
0.9911825713
 40
0.9948519412
 40
0.9976871033
 40
1.0
 40
1.0
 40
1.0
 40
1.0
 10
73.7226678389
 20
56.9536685809
 30
0.0
 10
73.7287579926
 20
56.9536685809
 30
0.0
 10
73.7423718343
 20
56.9577603906
 30
0.0
 10
73.7600357186
 20
56.9734080743
 30
0.0
 10
73.7769745832
 20
56.9975530182
 30
0.0
 10
73.7935370223
 20
57.0305858284
 30
0.0
 10
73.8097952595
 20
57.0725762282
 30
0.0
 10
73.8257094282
 20
57.1235469508
 30
0.0
 10
73.8412584357
 20
57.1834104786
 30
0.0
 10
73.8626304815
 20
57.2803885533
 30
0.0
 10
73.8873750735
 20
57.4230701119
 30
0.0
 10
73.9138476876
 20
57.6189519729
 30
0.0
 10
73.9382409305
 20
57.8459819983
 30
0.0
 10
73.9603606973
 20
58.1019861674
 30
0.0
 10
73.9801054037
 20
58.3845672346
 30
0.0
 10
74.0038166775
 20
58.8063520112
 30
0.0
 10
74.0260118308
 20
59.377968206
 30
0.0
 10
74.041707906
 20
60.1012479827
 30
0.0
 10
74.0469519583
 20
60.8536411309
 30
0.0
 10
74.0417085832
 20
61.6060331615
 30
0.0
 10
74.02601353
 20
62.3293116728
 30
0.0
 10
74.0038198078
 20
62.9009278735
 30
0.0
 10
73.980108514
 20
63.3227160776
 30
0.0
 10
73.9603641273
 20
63.6053035518
 30
0.0
 10
73.9382445716
 20
63.8613173358
 30
0.0
 10
73.913850773
 20
64.0883582705
 30
0.0
 10
73.8873794112
 20
64.2842487566
 30
0.0
 10
73.8626333273
 20
64.4269352531
 30
0.0
 10
73.8412607317
 20
64.5239151605
 30
0.0
 10
73.8257112758
 20
64.5837801538
 30
0.0
 10
73.8097966044
 20
64.6347524038
 30
0.0
 10
73.793537561
 20
64.67674437
 30
0.0
 10
73.7769748214
 20
64.7097791227
 30
0.0
 10
73.7600358909
 20
64.7339261281
 30
0.0
 10
73.7423722972
 20
64.7495757953
 30
0.0
 10
73.728758064
 20
64.7536685809
 30
0.0
 10
73.7226678389
 20
64.7536685809
 30
0.0
  0
SPLINE
  5
23E
100
AcDbEntity
  8
0
100
AcDbSpline
 62
7
  6
BYLAYER
 70
0
 71
3
 72
20
 73
16
 74
0
 42
0.0000001
 43
0.0000001
 44
0.0000000001
 40
0.0
 40
0.0
 40
0.0
 40
0.0
 40
0.0074322175
 40
0.012983435
 40
0.0200880491
 40
0.0394741599
 40
0.0666447584
 40
0.1026881756
 40
0.1491582222
 40
0.2086849912
 40
0.2852938385
 40
0.5131380366
 40
0.7589553565
 40
0.9091250216
 40
1.0
 40
1.0
 40
1.0
 40
1.0
 10
74.3329484205
 20
48.2536810143
 30
0.0
 10
74.3278016398
 20
48.2536823183
 30
0.0
 10
74.3195172246
 20
48.2597717436
 30
0.0
 10
74.3116589092
 20
48.270953243
 30
0.0
 10
74.3011897559
 20
48.2907089408
 30
0.0
 10
74.2887894601
 20
48.3257966275
 30
0.0
 10
74.274401349
 20
48.3812115816
 30
0.0
 10
74.259760814
 20
48.4557723429
 30
0.0
 10
74.2448892598
 20
48.5530274195
 30
0.0
 10
74.2302184817
 20
48.678650346
 30
0.0
 10
74.2087732041
 20
48.9298265687
 30
0.0
 10
74.1956592084
 20
49.310937734
 30
0.0
 10
74.2056611963
 20
49.7431391284
 30
0.0
 10
74.2336749186
 20
50.0792478142
 30
0.0
 10
74.2579081177
 20
50.2446289053
 30
0.0
 10
74.2707654871
 20
50.3062320166
 30
0.0
  0
ELLIPSE
  5
23F
100
AcDbEntity
  8
0
100
AcDbEllipse
 62
7
  6
BYLAYER
 10
-114.1540632909
 20
-51.401453286
 30
0.0
 11
0.0
 21
1878.9859182102
 31
0.0
 40
0.0985584821
 41
-1.5067525431
 42
-1.5059525796
  0
ELLIPSE
  5
240
100
AcDbEntity
  8
0
100
AcDbEllipse
 62
7
  6
BYLAYER
 10
-114.1540632909
 20
126.1580994366
 30
0.0
 11
-0.0
 21
1878.9859182102
 31
0.0
 40
0.0985584821
 41
-1.6012985872
 42
-1.6004999224
  0
ENDSEC
  0
SECTION
  2
OBJECTS
  0
DICTIONARY
  5
C
100
AcDbDictionary
280
0
281
1
  3
ACAD_GROUP
350
D
  3
ACAD_MLINESTYLE
350
17
  3
ACAD_LAYOUT
350
1A
  3
ACAD_PLOTSETTINGS
350
19
  3
ACAD_PLOTSTYLENAME
350
E
  0
DICTIONARY
  5
D
102
{ACAD_REACTORS
330
C
102
}
100
AcDbDictionary
280
0
281
1
  0
ACDBDICTIONARYWDFLT
  5
E
102
{ACAD_REACTORS
330
C
102
}
100
AcDbDictionary
281
1
  3
Normal
350
F
100
AcDbDictionaryWithDefault
340
F
  0
DICTIONARY
  5
17
102
{ACAD_REACTORS
330
C
102
}
100
AcDbDictionary
280
0
281
1
  3
Standard
350
18
  0
DICTIONARY
  5
19
102
{ACAD_REACTORS
330
C
102
}
100
AcDbDictionary
281
1
  0
DICTIONARY
  5
1A
102
{ACAD_REACTORS
330
C
102
}
100
AcDbDictionary
281
1
  3
Model
350
241
  3
Layout1
350
242
  0
ACDBPLACEHOLDER
  5
F
102
{ACAD_REACTORS
330
E
102
}
  0
MLINESTYLE
  5
18
102
{ACAD_REACTORS
330
17
102
}
100
AcDbMlineStyle
  2
STANDARD
 70
0
  3

 62
256
 51
90.0
 52
90.0
 71
2
 49
0.5
 62
256
  6
BYLAYER
 49
-0.5
 62
256
  6
BYLAYER
  0
LAYOUT
  5
241
102
{ACAD_REACTORS
330
1A
102
}
100
AcDbPlotSettings
  1

  2
none_device
  4

  6

 40
0.0
 41
0.0
 42
0.0
 43
0.0
 44
210.0
 45
297.0
 46
0.0
 47
0.0
 48
0.0
 49
0.0
140
0.0
141
0.0
142
1.0
143
1.0
 70
1024
 72
1
 73
0
 74
0
  7

 75
0
147
1.0
148
0.0
149
0.0
100
AcDbLayout
  1
Model
 70
0
 71
0
 10
0.0
 20
0.0
 11
210.0
 21
297.0
 12
0.0
 22
0.0
 32
0.0
 14
0.0
 24
0.0
 34
0.0
 15
0.0
 25
0.0
 35
0.0
146
0.0
 13
0.0
 23
0.0
 33
0.0
 16
1.0
 26
0.0
 36
0.0
 17
0.0
 27
1.0
 37
0.0
 76
0
330
210
345
0
346
0
  0
LAYOUT
  5
242
102
{ACAD_REACTORS
330
1A
102
}
100
AcDbPlotSettings
  1

  2
none_device
  4

  6

 40
0.0
 41
0.0
 42
0.0
 43
0.0
 44
210.0
 45
297.0
 46
0.0
 47
0.0
 48
0.0
 49
0.0
140
0.0
141
0.0
142
1.0
143
1.0
 70
0
 72
1
 73
0
 74
0
  7

 75
0
147
1.0
148
0.0
149
0.0
100
AcDbLayout
  1
Layout1
 70
0
 71
1
 10
0.0
 20
0.0
 11
210.0
 21
297.0
 12
0.0
 22
0.0
 32
0.0
 14
0.0
 24
0.0
 34
0.0
 15
0.0
 25
0.0
 35
0.0
146
0.0
 13
0.0
 23
0.0
 33
0.0
 16
1.0
 26
0.0
 36
0.0
 17
0.0
 27
1.0
 37
0.0
 76
0
330
211
345
0
346
0
  0
ENDSEC
  0
EOF
