999
DXF file: C:\Users\sesa63760\Dev\_Creo\CAD\MCADPP0003180_3D-CAD\drw0001_2.dxf
999
Pro/ENGINEER 2019471 by Parametric Technology Corporation
  0
SECTION
  2
HEADER
  9
$ACADVER
  1
AC1024
  9
$DWGCODEPAGE
  3
ANSI_1252
  9
$EXTMAX
 10
248.6736131247
 20
351.6955385621
 30
0.0
  9
$EXTMIN
 10
0.0
 20
0.0
 30
0.0
  9
$LIMMIN
 10
0.0
 20
0.0
  9
$LIMMAX
 10
248.6736131247
 20
351.6955385621
  9
$VIEWCTR
 10
124.3368065624
 20
175.8477692811
  9
$VIEWSIZE
 40
351.6955385621
  9
$CLAYER
  8
0
  9
$LTSCALE
 40
22.92533881
  9
$CELTYPE
  6
BYLAYER
  9
$DIMSCALE
 40
1.0
  9
$DIMASZ
 40
2.9604001562
  9
$DIMEXO
 40
1.0
  9
$DIMDLI
 40
15.839324996
  9
$DIMEXE
 40
1.0
  9
$DIMCEN
 40
3.751419078
  9
$DIMLFAC
 40
1.0
  9
$DIMBLK
  1
_FILLED
  9
$DIMALT
 70
0
  9
$DIMALTF
 40
0.0393700787
  9
$DIMTXT
 40
4.1445602187
  9
$DIMTOL
 70
1
  9
$DIMLIM
 70
0
  9
$DIMTFAC
 40
1.0
  9
$DIMTP
 40
0.01
  9
$DIMTM
 40
0.01
  9
$DIMGAP
 40
0.625
  9
$DIMDSEP
 70
46
  9
$AUNITS
 70
0
  9
$PDMODE
 70
3
  9
$PDSIZE
 40
0.3125
  9
$HANDSEED
  5
4FE
  9
$TILEMODE
 70
1
  9
$MEASUREMENT
 70
1
  9
$INSUNITS
 70
4
  0
ENDSEC
  0
SECTION
  2
CLASSES
  0
CLASS
  1
ACDBDICTIONARYWDFLT
  2
AcDbDictionaryWithDefault
  3
AutoCAD 2000
 90
0
 91
1
280
0
281
0
  0
CLASS
  1
ACDBPLACEHOLDER
  2
AcDbPlaceHolder
  3
AutoCAD 2000
 90
0
 91
1
280
0
281
0
  0
CLASS
  1
LAYOUT
  2
AcDbLayout
  3
AutoCAD 2000
 90
0
 91
0
280
0
281
0
  0
ENDSEC
  0
SECTION
  2
TABLES
  0
TABLE
  2
VPORT
  5
8
100
AcDbSymbolTable
 70
2
  0
VPORT
  5
1F4
100
AcDbSymbolTableRecord
100
AcDbViewportTableRecord
  2
*ACTIVE
 70
0
 10
0.0
 20
0.0
 11
1.0
 21
1.0
 12
124.3368065624
 22
175.8477692811
 13
0.0
 23
0.0
 14
1.0
 24
1.0
 15
0.0
 25
0.0
 16
0.0
 26
0.0
 36
1.0
 17
0.0
 27
0.0
 37
0.0
 40
351.6955385621
 41
0.7070707071
 42
50.0
 43
0.0
 44
0.0
 50
0.0
 51
0.0
 71
0
 72
100
 73
1
 74
1
 75
0
 76
0
 77
0
 78
0
  0
ENDTAB
  0
TABLE
  2
LTYPE
  5
5
100
AcDbSymbolTable
 70
6
  0
LTYPE
  5
14
100
AcDbSymbolTableRecord
100
AcDbLinetypeTableRecord
  2
BYBLOCK
 70
0
  3

 72
65
 73
0
 40
0.0
  0
LTYPE
  5
15
100
AcDbSymbolTableRecord
100
AcDbLinetypeTableRecord
  2
BYLAYER
 70
0
  3

 72
65
 73
0
 40
0.0
  0
LTYPE
  5
16
100
AcDbSymbolTableRecord
100
AcDbLinetypeTableRecord
  2
CONTINUOUS
 70
64
  3
Solid line
 72
65
 73
0
 40
0.0
  0
LTYPE
  5
1F5
100
AcDbSymbolTableRecord
100
AcDbLinetypeTableRecord
  2
CENTER
 70
64
  3
____ _ ____ _ ____ _ ____ _ ____ _ ____ _ ____
 72
65
 73
4
 40
0.6
 49
0.375
 74
0
 49
-0.075
 74
0
 49
0.075
 74
0
 49
-0.075
 74
0
  0
LTYPE
  5
1F6
100
AcDbSymbolTableRecord
100
AcDbLinetypeTableRecord
  2
HIDDEN
 70
64
  3
- - - - - - - - - - - - - - - - - - - -
 72
65
 73
2
 40
0.2
 49
0.1
 74
0
 49
-0.1
 74
0
  0
LTYPE
  5
1F7
100
AcDbSymbolTableRecord
100
AcDbLinetypeTableRecord
  2
PHANTOM
 70
64
  3
_____ _ _ _____ _ _ _____ _ _ _____
 72
65
 73
6
 40
0.8
 49
0.45
 74
0
 49
-0.05
 74
0
 49
0.1
 74
0
 49
-0.05
 74
0
 49
0.1
 74
0
 49
-0.05
 74
0
  0
LTYPE
  5
1F8
100
AcDbSymbolTableRecord
100
AcDbLinetypeTableRecord
  2
DOT
 70
64
  3
. . . . . . . . . . . . . . . . . . . .
 72
65
 73
2
 40
0.2
 49
0.1
 74
0
 49
-0.1
 74
0
  0
LTYPE
  5
1F9
100
AcDbSymbolTableRecord
100
AcDbLinetypeTableRecord
  2
DASHED
 70
64
  3
- - - - - - - - - - - - - - - - - - - -
 72
65
 73
2
 40
0.2
 49
0.1
 74
0
 49
-0.1
 74
0
  0
ENDTAB
  0
TABLE
  2
LAYER
  5
2
100
AcDbSymbolTable
 70
36
  0
LAYER
  5
10
100
AcDbSymbolTableRecord
100
AcDbLayerTableRecord
  2
0
 70
0
 62
7
  6
CONTINUOUS
370
-3
390
F
  0
LAYER
  5
1FA
100
AcDbSymbolTableRecord
100
AcDbLayerTableRecord
  2
DEFAULT_1
 70
0
 62
7
  6
CENTER
370
-3
390
F
  0
LAYER
  5
1FB
100
AcDbSymbolTableRecord
100
AcDbLayerTableRecord
  2
DEFAULT_2
 70
0
 62
8
  6
HIDDEN
370
-3
390
F
  0
LAYER
  5
1FC
100
AcDbSymbolTableRecord
100
AcDbLayerTableRecord
  2
DEFAULT_3
 70
0
 62
7
  6
PHANTOM
370
-3
390
F
  0
LAYER
  5
1FD
100
AcDbSymbolTableRecord
100
AcDbLayerTableRecord
  2
00_COMPONENTS
 70
0
 62
7
  6
CONTINUOUS
370
-3
390
F
  0
LAYER
  5
1FE
100
AcDbSymbolTableRecord
100
AcDbLayerTableRecord
  2
01_1_DEFAULT_DATUMS
 70
0
 62
7
  6
CONTINUOUS
370
-3
390
F
  0
LAYER
  5
1FF
100
AcDbSymbolTableRecord
100
AcDbLayerTableRecord
  2
01_PLANES
 70
0
 62
7
  6
CONTINUOUS
370
-3
390
F
  0
LAYER
  5
200
100
AcDbSymbolTableRecord
100
AcDbLayerTableRecord
  2
02_COORD_SYS
 70
0
 62
7
  6
CONTINUOUS
370
-3
390
F
  0
LAYER
  5
201
100
AcDbSymbolTableRecord
100
AcDbLayerTableRecord
  2
03_AXES
 70
0
 62
7
  6
CONTINUOUS
370
-3
390
F
  0
LAYER
  5
202
100
AcDbSymbolTableRecord
100
AcDbLayerTableRecord
  2
04_POINTS
 70
0
 62
7
  6
CONTINUOUS
370
-3
390
F
  0
LAYER
  5
203
100
AcDbSymbolTableRecord
100
AcDbLayerTableRecord
  2
05_CURVES
 70
0
 62
7
  6
CONTINUOUS
370
-3
390
F
  0
LAYER
  5
204
100
AcDbSymbolTableRecord
100
AcDbLayerTableRecord
  2
06_SURFS
 70
0
 62
7
  6
CONTINUOUS
370
-3
390
F
  0
LAYER
  5
205
100
AcDbSymbolTableRecord
100
AcDbLayerTableRecord
  2
07_COSMETICS
 70
0
 62
7
  6
CONTINUOUS
370
-3
390
F
  0
LAYER
  5
206
100
AcDbSymbolTableRecord
100
AcDbLayerTableRecord
  2
10_NOTES
 70
0
 62
7
  6
CONTINUOUS
370
-3
390
F
  0
LAYER
  5
207
100
AcDbSymbolTableRecord
100
AcDbLayerTableRecord
  2
11_NOTES_PUB
 70
0
 62
7
  6
CONTINUOUS
370
-3
390
F
  0
LAYER
  5
208
100
AcDbSymbolTableRecord
100
AcDbLayerTableRecord
  2
13_REF_GTOL
 70
0
 62
7
  6
CONTINUOUS
370
-3
390
F
  0
LAYER
  5
209
100
AcDbSymbolTableRecord
100
AcDbLayerTableRecord
  2
16_MISC
 70
0
 62
7
  6
CONTINUOUS
370
-3
390
F
  0
LAYER
  5
20A
100
AcDbSymbolTableRecord
100
AcDbLayerTableRecord
  2
17_NO_PRINT
 70
0
 62
7
  6
CONTINUOUS
370
-3
390
F
  0
LAYER
  5
20B
100
AcDbSymbolTableRecord
100
AcDbLayerTableRecord
  2
18_DATUM_CAMS_JOINTS
 70
0
 62
7
  6
CONTINUOUS
370
-3
390
F
  0
LAYER
  5
20C
100
AcDbSymbolTableRecord
100
AcDbLayerTableRecord
  2
19_DATUM_FUNCTIONAL
 70
0
 62
7
  6
CONTINUOUS
370
-3
390
F
  0
LAYER
  5
20D
100
AcDbSymbolTableRecord
100
AcDbLayerTableRecord
  2
20_DATUM_KINEMATIC_SCHEME
 70
0
 62
7
  6
CONTINUOUS
370
-3
390
F
  0
ENDTAB
  0
TABLE
  2
STYLE
  5
3
100
AcDbSymbolTable
 70
1
  0
STYLE
  5
11
100
AcDbSymbolTableRecord
100
AcDbTextStyleTableRecord
  2
STANDARD
 70
0
 40
0.0
 41
0.8
 50
0.0
 71
0
 42
0.2
  3
txt
  4

  0
STYLE
  5
20E
100
AcDbSymbolTableRecord
100
AcDbTextStyleTableRecord
  2
TEXTSTYLE_1
 70
0
 40
0.0
 41
0.8
 50
0.0
 71
0
 42
0.2
  3
gdt
  4

  0
ENDTAB
  0
TABLE
  2
VIEW
  5
6
100
AcDbSymbolTable
 70
0
  0
ENDTAB
  0
TABLE
  2
UCS
  5
7
100
AcDbSymbolTable
 70
0
  0
ENDTAB
  0
TABLE
  2
APPID
  5
9
100
AcDbSymbolTable
 70
1
  0
APPID
  5
20F
100
AcDbSymbolTableRecord
100
AcDbRegAppTableRecord
  2
ACAD
 70
0
  0
ENDTAB
  0
TABLE
  2
BLOCK_RECORD
  5
1
100
AcDbSymbolTable
 70
0
  0
BLOCK_RECORD
  5
210
100
AcDbSymbolTableRecord
100
AcDbBlockTableRecord
  2
*Model_Space
  0
BLOCK_RECORD
  5
211
100
AcDbSymbolTableRecord
100
AcDbBlockTableRecord
  2
*Paper_Space
  0
BLOCK_RECORD
  5
212
100
AcDbSymbolTableRecord
100
AcDbBlockTableRecord
  2
_FILLED
  0
ENDTAB
  0
TABLE
  2
DIMSTYLE
  5
A
100
AcDbSymbolTable
 70
1
100
AcDbDimStyleTable
 71
0
  0
DIMSTYLE
105
213
100
AcDbSymbolTableRecord
100
AcDbDimStyleTableRecord
  2
STANDARD
 70
0
  3

  4

 40
1.0
 41
2.9604001562
 42
1.0
 43
0.38
 44
1.0
 45
0.0
 46
0.0
 47
0.01
 48
0.01
140
4.1445602187
141
0.09
142
0.0
143
25.4
144
1.0
145
0.0
146
1.0
147
0.625
 71
1
 72
0
 73
0
 74
0
 75
0
 76
0
 77
1
 78
8
 79
2
170
0
171
1
172
0
173
0
174
0
175
0
176
0
177
0
178
0
270
2
179
2
271
2
272
2
273
2
274
2
275
0
280
0
281
0
282
0
283
1
284
8
285
0
286
0
287
3
288
0
340
11
278
46
341
212
342
212
343
212
344
212
  0
ENDTAB
  0
ENDSEC
  0
SECTION
  2
BLOCKS
  0
BLOCK
  5
20
100
AcDbEntity
  8
0
100
AcDbBlockBegin
  2
*Model_Space
 70
0
 10
0.0
 20
0.0
 30
0.0
  3
*Model_Space
  1

  0
ENDBLK
  5
21
100
AcDbEntity
  8
0
100
AcDbBlockEnd
  0
BLOCK
  5
1C
100
AcDbEntity
  8
0
100
AcDbBlockBegin
  2
*Paper_Space
 70
0
 10
0.0
 20
0.0
 30
0.0
  3
*Paper_Space
  1

  0
ENDBLK
  5
1D
100
AcDbEntity
  8
0
100
AcDbBlockEnd
  0
BLOCK
  5
214
100
AcDbEntity
  8
0
100
AcDbBlockBegin
  2
_FILLED
 70
64
 10
0.0
 20
0.0
  3
_FILLED
  1

  0
SOLID
  5
215
100
AcDbEntity
  8
0
  6
BYBLOCK
 62
0
100
AcDbTrace
 10
0.0
 20
0.0
 11
-1.0
 21
0.25
 12
-1.0
 22
-0.25
 13
-1.0
 23
-0.25
  0
ENDBLK
  5
216
100
AcDbEntity
  8
0
  6
BYBLOCK
 62
0
100
AcDbBlockEnd
  0
ENDSEC
  0
SECTION
  2
ENTITIES
  0
LINE
  5
217
100
AcDbEntity
  8
0
100
AcDbLine
 62
7
  6
CONTINUOUS
 10
27.2653941441
 20
158.7612966263
 11
27.2653941441
 21
161.5806966263
  0
LINE
  5
218
100
AcDbEntity
  8
0
100
AcDbLine
 62
7
  6
CONTINUOUS
 10
27.2653941441
 20
183.9326966263
 11
27.2653941441
 21
186.7520966263
  0
LINE
  5
219
100
AcDbEntity
  8
0
100
AcDbLine
 62
7
  6
CONTINUOUS
 10
32.6628941441
 20
183.9326966263
 11
32.6628941441
 21
186.7520966263
  0
LINE
  5
21A
100
AcDbEntity
  8
0
100
AcDbLine
 62
7
  6
CONTINUOUS
 10
33.5264941441
 20
161.5806966263
 11
33.5264941441
 21
158.7612966263
  0
LINE
  5
21B
100
AcDbEntity
  8
0
100
AcDbLine
 62
7
  6
CONTINUOUS
 10
41.3242941441
 20
161.5806966263
 11
41.3242941441
 21
158.7612966263
  0
LINE
  5
21C
100
AcDbEntity
  8
0
100
AcDbLine
 62
7
  6
CONTINUOUS
 10
42.1878941441
 20
183.9326966263
 11
42.1878941441
 21
186.7520966263
  0
LINE
  5
21D
100
AcDbEntity
  8
0
100
AcDbLine
 62
7
  6
CONTINUOUS
 10
44.0293941441
 20
175.5724898263
 11
44.0293941441
 21
169.9409034263
  0
LINE
  5
21E
100
AcDbEntity
  8
0
100
AcDbLine
 62
7
  6
CONTINUOUS
 10
44.3886008563
 20
175.9316966263
 11
44.3886008563
 21
169.5816966263
  0
LINE
  5
21F
100
AcDbEntity
  8
0
100
AcDbLine
 62
7
  6
CONTINUOUS
 10
46.3153941441
 20
186.7520966263
 11
46.3153941441
 21
183.9326966263
  0
LINE
  5
220
100
AcDbEntity
  8
0
100
AcDbLine
 62
7
  6
CONTINUOUS
 10
46.3153941441
 20
161.5806966263
 11
46.3153941441
 21
158.7612966263
  0
LINE
  5
221
100
AcDbEntity
  8
0
100
AcDbLine
 62
7
  6
CONTINUOUS
 10
47.2043941441
 20
179.1066547147
 11
47.2043941441
 21
166.406738538
  0
LINE
  5
222
100
AcDbEntity
  8
0
100
AcDbLine
 62
7
  6
CONTINUOUS
 10
50.3793941441
 20
166.4067386708
 11
50.3793941441
 21
179.1066545818
  0
LINE
  5
223
100
AcDbEntity
  8
0
100
AcDbLine
 62
7
  6
CONTINUOUS
 10
51.5985941441
 20
170.7567006263
 11
51.5985941441
 21
174.7566926263
  0
LINE
  5
224
100
AcDbEntity
  8
0
100
AcDbLine
 62
7
  6
CONTINUOUS
 10
51.6239941441
 20
181.6466966263
 11
51.6239941441
 21
163.8666966263
  0
LINE
  5
225
100
AcDbEntity
  8
0
100
AcDbLine
 62
7
  6
CONTINUOUS
 10
51.6493941441
 20
174.7378966263
 11
51.6493941441
 21
170.7754966263
  0
LINE
  5
226
100
AcDbEntity
  8
0
100
AcDbLine
 62
7
  6
CONTINUOUS
 10
54.4433941441
 20
188.5046966263
 11
54.4433941441
 21
157.0086966263
  0
LINE
  5
227
100
AcDbEntity
  8
0
100
AcDbLine
 62
7
  6
CONTINUOUS
 10
57.1103941441
 20
157.0086966263
 11
57.1103941441
 21
188.5046966263
  0
LINE
  5
228
100
AcDbEntity
  8
0
100
AcDbLine
 62
7
  6
CONTINUOUS
 10
57.8723941441
 20
156.7606782758
 11
57.8723941441
 21
148.9725717149
  0
LINE
  5
229
100
AcDbEntity
  8
0
100
AcDbLine
 62
7
  6
CONTINUOUS
 10
57.8723941441
 20
188.7527149768
 11
57.8723941441
 21
196.4900248263
  0
LINE
  5
22A
100
AcDbEntity
  8
0
100
AcDbLine
 62
7
  6
CONTINUOUS
 10
60.7280248787
 20
144.4756611608
 11
59.0329542344
 21
146.1707318051
  0
LINE
  5
22B
100
AcDbEntity
  8
0
100
AcDbLine
 62
7
  6
CONTINUOUS
 10
59.0153941441
 20
174.7378966263
 11
59.0153941441
 21
170.7754966263
  0
LINE
  5
22C
100
AcDbEntity
  8
0
100
AcDbLine
 62
7
  6
CONTINUOUS
 10
59.5487941441
 20
158.5326966263
 11
59.5487941441
 21
166.4067728263
  0
LINE
  5
22D
100
AcDbEntity
  8
0
100
AcDbLine
 62
7
  6
CONTINUOUS
 10
59.5487941441
 20
170.3436995577
 11
59.5487941441
 21
175.169693695
  0
LINE
  5
22E
100
AcDbEntity
  8
0
100
AcDbLine
 62
7
  6
CONTINUOUS
 10
59.5487941441
 20
179.1066204263
 11
59.5487941441
 21
186.9806966263
  0
LINE
  5
22F
100
AcDbEntity
  8
0
100
AcDbLine
 62
7
  6
CONTINUOUS
 10
60.3107941441
 20
148.9725717149
 11
60.3107941441
 21
166.4067728263
  0
LINE
  5
230
100
AcDbEntity
  8
0
100
AcDbLine
 62
7
  6
CONTINUOUS
 10
60.3107941441
 20
179.1066204263
 11
60.3107941441
 21
196.4900248263
  0
LINE
  5
231
100
AcDbEntity
  8
0
100
AcDbLine
 62
7
  6
CONTINUOUS
 10
60.8905998563
 20
166.4067728263
 11
60.8905998563
 21
179.1066204263
  0
LINE
  5
232
100
AcDbEntity
  8
0
100
AcDbLine
 62
7
  6
CONTINUOUS
 10
61.1743941441
 20
214.8952966263
 11
61.1743941441
 21
202.0645661149
  0
LINE
  5
233
100
AcDbEntity
  8
0
100
AcDbLine
 62
7
  6
CONTINUOUS
 10
61.1743941441
 20
143.3980304263
 11
61.1743941441
 21
122.9472966263
  0
LINE
  5
234
100
AcDbEntity
  8
0
100
AcDbLine
 62
7
  6
CONTINUOUS
 10
61.2378941441
 20
184.4406246866
 11
61.2378941441
 21
178.7593302239
  0
LINE
  5
235
100
AcDbEntity
  8
0
100
AcDbLine
 62
7
  6
CONTINUOUS
 10
61.2378941441
 20
166.7540630287
 11
61.2378941441
 21
161.0727685661
  0
LINE
  5
236
100
AcDbEntity
  8
0
100
AcDbLine
 62
7
  6
CONTINUOUS
 10
61.4283819997
 20
166.9455830263
 11
61.4283819997
 21
178.5678102263
  0
LINE
  5
237
100
AcDbEntity
  8
0
100
AcDbLine
 62
7
  6
CONTINUOUS
 10
62.326392955
 20
175.9316585263
 11
62.326392955
 21
169.5817347263
  0
LINE
  5
238
100
AcDbEntity
  8
0
100
AcDbLine
 62
7
  6
CONTINUOUS
 10
63.6127941441
 20
119.7722966263
 11
63.6127941441
 21
214.9206924242
  0
LINE
  5
239
100
AcDbEntity
  8
0
100
AcDbLine
 62
7
  6
CONTINUOUS
 10
59.0329542343
 20
199.2918647361
 11
60.7280248786
 21
200.9869353803
  0
LINE
  5
23A
100
AcDbEntity
  8
0
100
AcDbLine
 62
7
  6
CONTINUOUS
 10
62.4522340538
 20
199.2627262051
 11
60.7571634095
 21
197.5676555608
  0
LINE
  5
23B
100
AcDbEntity
  8
0
100
AcDbLine
 62
7
  6
CONTINUOUS
 10
60.7571634096
 20
147.8949409804
 11
62.4522340539
 21
146.1998703361
  0
LINE
  5
23C
100
AcDbEntity
  8
0
100
AcDbLine
 62
7
  6
CONTINUOUS
 10
44.0293941441
 20
169.9409034263
 11
44.3886008563
 21
169.5816966263
  0
LINE
  5
23D
100
AcDbEntity
  8
0
100
AcDbLine
 62
7
  6
CONTINUOUS
 10
57.8723941441
 20
156.7606782758
 11
57.1103941441
 21
157.5226782758
  0
LINE
  5
23E
100
AcDbEntity
  8
0
100
AcDbLine
 62
7
  6
CONTINUOUS
 10
66.0511941441
 20
119.7722966263
 11
66.0511941441
 21
130.5926924242
  0
LINE
  5
23F
100
AcDbEntity
  8
0
100
AcDbLine
 62
7
  6
CONTINUOUS
 10
66.0511941441
 20
130.5926924242
 11
66.0511941441
 21
135.2408966263
  0
LINE
  5
240
100
AcDbEntity
  8
0
100
AcDbLine
 62
7
  6
CONTINUOUS
 10
66.5083941441
 20
116.5464966263
 11
66.5083941441
 21
118.9848966263
  0
LINE
  5
241
100
AcDbEntity
  8
0
100
AcDbLine
 62
7
  6
CONTINUOUS
 10
67.5497941441
 20
216.698692247
 11
67.5497941441
 21
128.814692247
  0
LINE
  5
242
100
AcDbEntity
  8
0
100
AcDbLine
 62
7
  6
CONTINUOUS
 10
68.0323941441
 20
118.9848966263
 11
68.0323941441
 21
116.5464966263
  0
LINE
  5
243
100
AcDbEntity
  8
0
100
AcDbLine
 62
7
  6
CONTINUOUS
 10
69.4801941441
 20
135.6285006263
 11
69.4801941441
 21
139.7046926263
  0
LINE
  5
244
100
AcDbEntity
  8
0
100
AcDbLine
 62
7
  6
CONTINUOUS
 10
69.4801941441
 20
205.8087006263
 11
69.4801941441
 21
209.8086926263
  0
LINE
  5
245
100
AcDbEntity
  8
0
100
AcDbLine
 62
7
  6
CONTINUOUS
 10
72.9599941441
 20
128.814692247
 11
72.9599941441
 21
216.698692247
  0
LINE
  5
246
100
AcDbEntity
  8
0
100
AcDbLine
 62
7
  6
CONTINUOUS
 10
44.0293941441
 20
175.5724898263
 11
44.3886008563
 21
175.9316966263
  0
LINE
  5
247
100
AcDbEntity
  8
0
100
AcDbLine
 62
7
  6
CONTINUOUS
 10
57.1103941441
 20
187.9907149768
 11
57.8723941441
 21
188.7527149768
  0
LINE
  5
248
100
AcDbEntity
  8
0
100
AcDbLine
 62
7
  6
CONTINUOUS
 10
60.3107941441
 20
187.7426966263
 11
59.5487941441
 21
186.9806966263
  0
LINE
  5
249
100
AcDbEntity
  8
0
100
AcDbLine
 62
7
  6
CONTINUOUS
 10
66.5083941441
 20
116.5464966263
 11
80.4035657441
 21
116.5464966263
  0
LINE
  5
24A
100
AcDbEntity
  8
0
100
AcDbLine
 62
7
  6
CONTINUOUS
 10
80.5981213538
 20
116.5464966263
 11
102.5096827443
 21
116.5464966263
  0
LINE
  5
24B
100
AcDbEntity
  8
0
100
AcDbLine
 62
7
  6
CONTINUOUS
 10
123.8456827443
 20
116.5464966263
 11
163.4696827443
 21
116.5464966263
  0
LINE
  5
24C
100
AcDbEntity
  8
0
100
AcDbLine
 62
7
  6
CONTINUOUS
 10
184.8056827443
 20
116.5464966263
 11
207.8665720458
 21
116.5464966263
  0
LINE
  5
24D
100
AcDbEntity
  8
0
100
AcDbLine
 62
7
  6
CONTINUOUS
 10
208.0612225441
 20
116.5464966263
 11
221.9563941441
 21
116.5464966263
  0
LINE
  5
24E
100
AcDbEntity
  8
0
100
AcDbLine
 62
7
  6
CONTINUOUS
 10
121.6267917076
 20
117.1814966263
 11
123.8456827443
 21
117.1814966263
  0
LINE
  5
24F
100
AcDbEntity
  8
0
100
AcDbLine
 62
7
  6
CONTINUOUS
 10
163.4696827443
 20
117.1814966263
 11
165.679429781
 21
117.1814966263
  0
LINE
  5
250
100
AcDbEntity
  8
0
100
AcDbLine
 62
7
  6
CONTINUOUS
 10
101.3063941441
 20
117.9815966263
 11
102.5096827443
 21
117.9815966263
  0
LINE
  5
251
100
AcDbEntity
  8
0
100
AcDbLine
 62
7
  6
CONTINUOUS
 10
184.8056827443
 20
117.9815966263
 11
187.1583941441
 21
117.9815966263
  0
LINE
  5
252
100
AcDbEntity
  8
0
100
AcDbLine
 62
7
  6
CONTINUOUS
 10
123.8456827443
 20
118.6546966263
 11
163.4696827443
 21
118.6546966263
  0
LINE
  5
253
100
AcDbEntity
  8
0
100
AcDbLine
 62
7
  6
CONTINUOUS
 10
142.1115482507
 20
118.8050318164
 11
146.2516400375
 21
118.8050318164
  0
LINE
  5
254
100
AcDbEntity
  8
0
100
AcDbLine
 62
7
  6
CONTINUOUS
 10
221.9563941441
 20
118.9848966263
 11
208.0612225441
 21
118.9848966263
  0
LINE
  5
255
100
AcDbEntity
  8
0
100
AcDbLine
 62
7
  6
CONTINUOUS
 10
80.4035657441
 20
118.9848966263
 11
66.5083941441
 21
118.9848966263
  0
LINE
  5
256
100
AcDbEntity
  8
0
100
AcDbLine
 62
7
  6
CONTINUOUS
 10
83.659128442
 20
118.9848966263
 11
101.3063941441
 21
118.9848966263
  0
LINE
  5
257
100
AcDbEntity
  8
0
100
AcDbLine
 62
7
  6
CONTINUOUS
 10
187.1583941441
 20
118.9848966263
 11
204.8056598462
 21
118.9848966263
  0
LINE
  5
258
100
AcDbEntity
  8
0
100
AcDbLine
 62
7
  6
CONTINUOUS
 10
123.8456827443
 20
119.0356966263
 11
142.085544353
 21
119.0356966263
  0
LINE
  5
259
100
AcDbEntity
  8
0
100
AcDbLine
 62
7
  6
CONTINUOUS
 10
146.2776439352
 20
119.0356966263
 11
163.4696827443
 21
119.0356966263
  0
LINE
  5
25A
100
AcDbEntity
  8
0
100
AcDbLine
 62
7
  6
CONTINUOUS
 10
121.2838387443
 20
120.2294966263
 11
123.8456827443
 21
120.2294966263
  0
LINE
  5
25B
100
AcDbEntity
  8
0
100
AcDbLine
 62
7
  6
CONTINUOUS
 10
163.4696827443
 20
120.2294966263
 11
166.0223827443
 21
120.2294966263
  0
LINE
  5
25C
100
AcDbEntity
  8
0
100
AcDbLine
 62
7
  6
CONTINUOUS
 10
203.7943823523
 20
120.7374966263
 11
188.4955044607
 21
120.7374966263
  0
LINE
  5
25D
100
AcDbEntity
  8
0
100
AcDbLine
 62
7
  6
CONTINUOUS
 10
85.3303172936
 20
121.1174806263
 11
203.1344709946
 21
121.1174806263
  0
LINE
  5
25E
100
AcDbEntity
  8
0
100
AcDbLine
 62
7
  6
CONTINUOUS
 10
66.0511941441
 20
121.4232966263
 11
82.2513175456
 21
121.4232966263
  0
LINE
  5
25F
100
AcDbEntity
  8
0
100
AcDbLine
 62
7
  6
CONTINUOUS
 10
59.5487941441
 20
158.5326966263
 11
60.3107941441
 21
157.7706966263
  0
LINE
  5
260
100
AcDbEntity
  8
0
100
AcDbLine
 62
7
  6
CONTINUOUS
 10
78.1502445443
 20
194.7669142263
 11
78.1502445443
 21
123.5580142263
  0
LINE
  5
261
100
AcDbEntity
  8
0
100
AcDbLine
 62
7
  6
CONTINUOUS
 10
78.2177941441
 20
135.2154928641
 11
78.2177941441
 21
140.1177003886
  0
LINE
  5
262
100
AcDbEntity
  8
0
100
AcDbLine
 62
7
  6
CONTINUOUS
 10
78.2177941441
 20
205.3956928641
 11
78.2177941441
 21
210.2217003886
  0
LINE
  5
263
100
AcDbEntity
  8
0
100
AcDbLine
 62
7
  6
CONTINUOUS
 10
80.9196827443
 20
121.4232966263
 11
80.9196827443
 21
123.2266966263
  0
LINE
  5
264
100
AcDbEntity
  8
0
100
AcDbLine
 62
7
  6
CONTINUOUS
 10
63.6127941441
 20
122.9726966263
 11
61.1743941441
 21
122.9726966263
  0
LINE
  5
265
100
AcDbEntity
  8
0
100
AcDbLine
 62
7
  6
CONTINUOUS
 10
82.2359107443
 20
123.1758966263
 11
83.8408211996
 21
123.1758966263
  0
LINE
  5
266
100
AcDbEntity
  8
0
100
AcDbLine
 62
7
  6
CONTINUOUS
 10
204.6239670886
 20
123.1758966263
 11
205.0703107443
 21
123.1758966263
  0
LINE
  5
267
100
AcDbEntity
  8
0
100
AcDbLine
 62
7
  6
CONTINUOUS
 10
206.3956827443
 20
123.2266966263
 11
205.0703107443
 21
123.2266966263
  0
LINE
  5
268
100
AcDbEntity
  8
0
100
AcDbLine
 62
7
  6
CONTINUOUS
 10
82.2359107443
 20
123.2266966263
 11
80.9196827443
 21
123.2266966263
  0
LINE
  5
269
100
AcDbEntity
  8
0
100
AcDbLine
 62
7
  6
CONTINUOUS
 10
85.5583941441
 20
123.5558806263
 11
202.9063941441
 21
123.5558806263
  0
LINE
  5
26A
100
AcDbEntity
  8
0
100
AcDbLine
 62
7
  6
CONTINUOUS
 10
204.8200445443
 20
123.5580142263
 11
202.9063941441
 21
123.5580142263
  0
LINE
  5
26B
100
AcDbEntity
  8
0
100
AcDbLine
 62
7
  6
CONTINUOUS
 10
85.5583941441
 20
123.5580142263
 11
78.1502445443
 21
123.5580142263
  0
LINE
  5
26C
100
AcDbEntity
  8
0
100
AcDbLine
 62
7
  6
CONTINUOUS
 10
224.8519941441
 20
124.1664966263
 11
222.4135941441
 21
124.1664966263
  0
LINE
  5
26D
100
AcDbEntity
  8
0
100
AcDbLine
 62
7
  6
CONTINUOUS
 10
63.6127941441
 20
124.1664966263
 11
66.0511941441
 21
124.1664966263
  0
LINE
  5
26E
100
AcDbEntity
  8
0
100
AcDbLine
 62
7
  6
CONTINUOUS
 10
63.6127941441
 20
124.4966966263
 11
61.1743941441
 21
124.4966966263
  0
LINE
  5
26F
100
AcDbEntity
  8
0
100
AcDbLine
 62
7
  6
CONTINUOUS
 10
63.6127941441
 20
126.9604966263
 11
66.0511941441
 21
126.9604966263
  0
LINE
  5
270
100
AcDbEntity
  8
0
100
AcDbLine
 62
7
  6
CONTINUOUS
 10
222.4135941441
 20
126.9604966263
 11
224.8519941441
 21
126.9604966263
  0
LINE
  5
271
100
AcDbEntity
  8
0
100
AcDbLine
 62
7
  6
CONTINUOUS
 10
90.5200445443
 20
127.6474142264
 11
96.0064445443
 21
127.6474142264
  0
LINE
  5
272
100
AcDbEntity
  8
0
100
AcDbLine
 62
7
  6
CONTINUOUS
 10
130.4234445443
 20
127.6474142264
 11
135.9098445443
 21
127.6474142264
  0
LINE
  5
273
100
AcDbEntity
  8
0
100
AcDbLine
 62
7
  6
CONTINUOUS
 10
170.3268445443
 20
127.6474142264
 11
175.8132445443
 21
127.6474142264
  0
LINE
  5
274
100
AcDbEntity
  8
0
100
AcDbLine
 62
7
  6
CONTINUOUS
 10
67.5497941441
 20
128.814692247
 11
72.9599941441
 21
128.814692247
  0
LINE
  5
275
100
AcDbEntity
  8
0
100
AcDbLine
 62
7
  6
CONTINUOUS
 10
82.1637325602
 20
208.7517801349
 11
82.1252438172
 21
210.9567987436
  0
LINE
  5
276
100
AcDbEntity
  8
0
100
AcDbLine
 62
7
  6
CONTINUOUS
 10
81.3927941441
 20
194.7669142263
 11
81.3927941441
 21
214.9206924242
  0
LINE
  5
277
100
AcDbEntity
  8
0
100
AcDbLine
 62
7
  6
CONTINUOUS
 10
81.4141445443
 20
194.7669142263
 11
81.4141445443
 21
123.5580142263
  0
LINE
  5
278
100
AcDbEntity
  8
0
100
AcDbLine
 62
7
  6
CONTINUOUS
 10
81.4943941441
 20
116.746560839
 11
81.4943941441
 21
116.5464966263
  0
LINE
  5
279
100
AcDbEntity
  8
0
100
AcDbLine
 62
7
  6
CONTINUOUS
 10
82.1252438172
 20
210.9567987436
 11
82.1252438172
 21
210.0295701992
  0
LINE
  5
27A
100
AcDbEntity
  8
0
100
AcDbLine
 62
7
  6
CONTINUOUS
 10
82.1252438172
 20
208.7511083114
 11
82.1252438172
 21
204.6605945091
  0
LINE
  5
27B
100
AcDbEntity
  8
0
100
AcDbLine
 62
7
  6
CONTINUOUS
 10
82.2359107443
 20
123.1758966263
 11
82.2359107443
 21
123.5580142263
  0
LINE
  5
27C
100
AcDbEntity
  8
0
100
AcDbLine
 62
7
  6
CONTINUOUS
 10
82.4436827443
 20
123.1758966263
 11
82.4436827443
 21
121.7564829241
  0
LINE
  5
27D
100
AcDbEntity
  8
0
100
AcDbLine
 62
7
  6
CONTINUOUS
 10
83.8017445443
 20
167.7159048403
 11
83.8017445443
 21
194.7669142263
  0
LINE
  5
27E
100
AcDbEntity
  8
0
100
AcDbLine
 62
7
  6
CONTINUOUS
 10
84.0978831443
 20
197.4593142264
 11
84.0978831443
 21
194.7669142263
  0
LINE
  5
27F
100
AcDbEntity
  8
0
100
AcDbLine
 62
7
  6
CONTINUOUS
 10
84.6780445443
 20
167.7159048403
 11
84.6780445443
 21
194.7669142263
  0
LINE
  5
280
100
AcDbEntity
  8
0
100
AcDbLine
 62
7
  6
CONTINUOUS
 10
85.0971445444
 20
139.6616048403
 11
85.0971445444
 21
167.7159048403
  0
LINE
  5
281
100
AcDbEntity
  8
0
100
AcDbLine
 62
7
  6
CONTINUOUS
 10
85.5583941441
 20
121.1174806263
 11
85.5583941441
 21
123.5558806263
  0
LINE
  5
282
100
AcDbEntity
  8
0
100
AcDbLine
 62
7
  6
CONTINUOUS
 10
86.1044831443
 20
217.5761142263
 11
86.1044831443
 21
197.4593142264
  0
LINE
  5
283
100
AcDbEntity
  8
0
100
AcDbLine
 62
7
  6
CONTINUOUS
 10
86.1044831443
 20
194.7669142263
 11
86.1044831443
 21
156.8701142263
  0
LINE
  5
284
100
AcDbEntity
  8
0
100
AcDbLine
 62
7
  6
CONTINUOUS
 10
86.3544445443
 20
218.9855120949
 11
86.3544445443
 21
217.5761142263
  0
LINE
  5
285
100
AcDbEntity
  8
0
100
AcDbLine
 62
7
  6
CONTINUOUS
 10
86.9132445443
 20
153.2379142263
 11
86.9132445443
 21
139.6616048403
  0
LINE
  5
286
100
AcDbEntity
  8
0
100
AcDbLine
 62
7
  6
CONTINUOUS
 10
87.0823941441
 20
123.5558806263
 11
87.0823941441
 21
121.1174806263
  0
LINE
  5
287
100
AcDbEntity
  8
0
100
AcDbLine
 62
7
  6
CONTINUOUS
 10
88.1364831443
 20
171.1703142263
 11
88.1364831443
 21
215.8743142263
  0
LINE
  5
288
100
AcDbEntity
  8
0
100
AcDbLine
 62
7
  6
CONTINUOUS
 10
82.1663732205
 20
207.0168964405
 11
82.1252438172
 21
204.6605945091
  0
LINE
  5
289
100
AcDbEntity
  8
0
100
AcDbLine
 62
7
  6
CONTINUOUS
 10
60.8905998563
 20
166.4067728263
 11
61.4294163947
 21
166.9455830263
  0
LINE
  5
28A
100
AcDbEntity
  8
0
100
AcDbLine
 62
7
  6
CONTINUOUS
 10
61.4283819997
 20
168.6926966263
 11
62.326392955
 21
169.5816966263
  0
LINE
  5
28B
100
AcDbEntity
  8
0
100
AcDbLine
 62
7
  6
CONTINUOUS
 10
63.6127941441
 20
130.4148966263
 11
66.0511941441
 21
130.4148966263
  0
LINE
  5
28C
100
AcDbEntity
  8
0
100
AcDbLine
 62
7
  6
CONTINUOUS
 10
222.4135941441
 20
130.4148966263
 11
224.8519941441
 21
130.4148966263
  0
LINE
  5
28D
100
AcDbEntity
  8
0
100
AcDbLine
 62
7
  6
CONTINUOUS
 10
67.5497941441
 20
130.5926924242
 11
63.6127941441
 21
130.5926924242
  0
LINE
  5
28E
100
AcDbEntity
  8
0
100
AcDbLine
 62
7
  6
CONTINUOUS
 10
72.9599941441
 20
130.5926924242
 11
78.1502445443
 21
130.5926924242
  0
LINE
  5
28F
100
AcDbEntity
  8
0
100
AcDbLine
 62
7
  6
CONTINUOUS
 10
61.1743941441
 20
130.8466966263
 11
63.6127941441
 21
130.8466966263
  0
LINE
  5
290
100
AcDbEntity
  8
0
100
AcDbLine
 62
7
  6
CONTINUOUS
 10
224.8519941441
 20
132.8278966263
 11
222.4135941441
 21
132.8278966263
  0
LINE
  5
291
100
AcDbEntity
  8
0
100
AcDbLine
 62
7
  6
CONTINUOUS
 10
63.6127941441
 20
135.2408966263
 11
66.0511941441
 21
135.2408966263
  0
LINE
  5
292
100
AcDbEntity
  8
0
100
AcDbLine
 62
7
  6
CONTINUOUS
 10
222.4135941441
 20
135.2408966263
 11
224.8519941441
 21
135.2408966263
  0
LINE
  5
293
100
AcDbEntity
  8
0
100
AcDbLine
 62
7
  6
CONTINUOUS
 10
78.2177941441
 20
135.6285006263
 11
69.4801941441
 21
135.6285006263
  0
LINE
  5
294
100
AcDbEntity
  8
0
100
AcDbLine
 62
7
  6
CONTINUOUS
 10
78.2177941441
 20
135.7047006263
 11
69.4801941441
 21
135.7047006263
  0
LINE
  5
295
100
AcDbEntity
  8
0
100
AcDbLine
 62
7
  6
CONTINUOUS
 10
63.6127941441
 20
136.1806966263
 11
61.1743941441
 21
136.1806966263
  0
LINE
  5
296
100
AcDbEntity
  8
0
100
AcDbLine
 62
7
  6
CONTINUOUS
 10
61.4283819997
 20
176.8206966263
 11
62.326392955
 21
175.9316966263
  0
LINE
  5
297
100
AcDbEntity
  8
0
100
AcDbLine
 62
7
  6
CONTINUOUS
 10
60.8905998563
 20
179.1066204263
 11
61.4294163947
 21
178.5678102263
  0
LINE
  5
298
100
AcDbEntity
  8
0
100
AcDbLine
 62
7
  6
CONTINUOUS
 10
88.8880945443
 20
153.2379142263
 11
88.8880945443
 21
153.8729142263
  0
LINE
  5
299
100
AcDbEntity
  8
0
100
AcDbLine
 62
7
  6
CONTINUOUS
 10
88.9528789901
 20
153.8729142263
 11
88.9528789901
 21
155.1429142263
  0
LINE
  5
29A
100
AcDbEntity
  8
0
100
AcDbLine
 62
7
  6
CONTINUOUS
 10
89.3643450158
 20
146.4434142263
 11
89.3643450158
 21
145.5930390299
  0
LINE
  5
29B
100
AcDbEntity
  8
0
100
AcDbLine
 62
7
  6
CONTINUOUS
 10
90.5200445443
 20
127.6474142264
 11
90.5200445443
 21
141.8714142264
  0
LINE
  5
29C
100
AcDbEntity
  8
0
100
AcDbLine
 62
7
  6
CONTINUOUS
 10
93.2632454872
 20
146.4434142263
 11
93.2632454872
 21
143.1795142263
  0
LINE
  5
29D
100
AcDbEntity
  8
0
100
AcDbLine
 62
7
  6
CONTINUOUS
 10
96.0064445443
 20
127.6474142264
 11
96.0064445443
 21
141.8714142264
  0
LINE
  5
29E
100
AcDbEntity
  8
0
100
AcDbLine
 62
7
  6
CONTINUOUS
 10
224.8519941441
 20
138.4158966263
 11
222.4135941441
 21
138.4158966263
  0
LINE
  5
29F
100
AcDbEntity
  8
0
100
AcDbLine
 62
7
  6
CONTINUOUS
 10
78.2177941441
 20
139.6284926263
 11
69.4801941441
 21
139.6284926263
  0
LINE
  5
2A0
100
AcDbEntity
  8
0
100
AcDbLine
 62
7
  6
CONTINUOUS
 10
180.9344582539
 20
139.6616048403
 11
164.5768582539
 21
139.6616048403
  0
LINE
  5
2A1
100
AcDbEntity
  8
0
100
AcDbLine
 62
7
  6
CONTINUOUS
 10
141.2977582539
 20
139.6616048403
 11
124.9401582539
 21
139.6616048403
  0
LINE
  5
2A2
100
AcDbEntity
  8
0
100
AcDbLine
 62
7
  6
CONTINUOUS
 10
101.4547445444
 20
139.6616048403
 11
85.0971445444
 21
139.6616048403
  0
LINE
  5
2A3
100
AcDbEntity
  8
0
100
AcDbLine
 62
7
  6
CONTINUOUS
 10
78.2177941441
 20
139.7046926263
 11
69.4801941441
 21
139.7046926263
  0
LINE
  5
2A4
100
AcDbEntity
  8
0
100
AcDbLine
 62
7
  6
CONTINUOUS
 10
100.8795107443
 20
140.2784278263
 11
106.3659107443
 21
140.2784278263
  0
LINE
  5
2A5
100
AcDbEntity
  8
0
100
AcDbLine
 62
7
  6
CONTINUOUS
 10
140.7829107443
 20
140.2784278263
 11
146.2693107443
 21
140.2784278263
  0
LINE
  5
2A6
100
AcDbEntity
  8
0
100
AcDbLine
 62
7
  6
CONTINUOUS
 10
180.6863107443
 20
140.2784278263
 11
186.1727107443
 21
140.2784278263
  0
LINE
  5
2A7
100
AcDbEntity
  8
0
100
AcDbLine
 62
7
  6
CONTINUOUS
 10
90.5200445443
 20
141.8714142264
 11
96.0064445443
 21
141.8714142264
  0
LINE
  5
2A8
100
AcDbEntity
  8
0
100
AcDbLine
 62
7
  6
CONTINUOUS
 10
130.4234445443
 20
141.8714142264
 11
135.9098445443
 21
141.8714142264
  0
LINE
  5
2A9
100
AcDbEntity
  8
0
100
AcDbLine
 62
7
  6
CONTINUOUS
 10
170.3268445443
 20
141.8714142264
 11
175.8132445443
 21
141.8714142264
  0
LINE
  5
2AA
100
AcDbEntity
  8
0
100
AcDbLine
 62
7
  6
CONTINUOUS
 10
61.1743941441
 20
142.5306966263
 11
63.6127941441
 21
142.5306966263
  0
LINE
  5
2AB
100
AcDbEntity
  8
0
100
AcDbLine
 62
7
  6
CONTINUOUS
 10
61.0256633911
 20
144.0546966263
 11
63.5580025254
 21
144.0546966263
  0
LINE
  5
2AC
100
AcDbEntity
  8
0
100
AcDbLine
 62
7
  6
CONTINUOUS
 10
97.0899941441
 20
118.9848966263
 11
97.0899941441
 21
121.1174806263
  0
LINE
  5
2AD
100
AcDbEntity
  8
0
100
AcDbLine
 62
7
  6
CONTINUOUS
 10
97.1621450158
 20
146.4434142263
 11
97.1621450158
 21
145.5928585782
  0
LINE
  5
2AE
100
AcDbEntity
  8
0
100
AcDbLine
 62
7
  6
CONTINUOUS
 10
97.5736100985
 20
155.1429142263
 11
97.5736100985
 21
153.8729142263
  0
LINE
  5
2AF
100
AcDbEntity
  8
0
100
AcDbLine
 62
7
  6
CONTINUOUS
 10
97.6383945443
 20
153.2379142263
 11
97.6383945443
 21
153.8729142263
  0
LINE
  5
2B0
100
AcDbEntity
  8
0
100
AcDbLine
 62
7
  6
CONTINUOUS
 10
99.6132445443
 20
139.6616048403
 11
99.6132445443
 21
153.2379142263
  0
LINE
  5
2B1
100
AcDbEntity
  8
0
100
AcDbLine
 62
7
  6
CONTINUOUS
 10
99.7823941441
 20
116.5464966263
 11
99.7823941441
 21
118.9848966263
  0
LINE
  5
2B2
100
AcDbEntity
  8
0
100
AcDbLine
 62
7
  6
CONTINUOUS
 10
100.1379941441
 20
121.1174806263
 11
100.1379941441
 21
118.9848966263
  0
LINE
  5
2B3
100
AcDbEntity
  8
0
100
AcDbLine
 62
7
  6
CONTINUOUS
 10
100.8795107443
 20
140.2784278263
 11
100.8795107443
 21
154.5024278263
  0
LINE
  5
2B4
100
AcDbEntity
  8
0
100
AcDbLine
 62
7
  6
CONTINUOUS
 10
101.3063941441
 20
118.9848966263
 11
101.3063941441
 21
116.5464966263
  0
LINE
  5
2B5
100
AcDbEntity
  8
0
100
AcDbLine
 62
7
  6
CONTINUOUS
 10
101.4547445444
 20
167.7159048403
 11
101.4547445444
 21
139.6616048403
  0
LINE
  5
2B6
100
AcDbEntity
  8
0
100
AcDbLine
 62
7
  6
CONTINUOUS
 10
101.6746831443
 20
169.4685142263
 11
101.6746831443
 21
167.7159048403
  0
LINE
  5
2B7
100
AcDbEntity
  8
0
100
AcDbLine
 62
7
  6
CONTINUOUS
 10
102.5096827443
 20
116.5464966263
 11
102.5096827443
 21
120.2011663196
  0
LINE
  5
2B8
100
AcDbEntity
  8
0
100
AcDbLine
 62
7
  6
CONTINUOUS
 10
103.8590831443
 20
169.4685142263
 11
103.8590831443
 21
217.5761142263
  0
LINE
  5
2B9
100
AcDbEntity
  8
0
100
AcDbLine
 62
7
  6
CONTINUOUS
 10
103.9606831443
 20
169.2399142263
 11
103.9606831443
 21
167.7159048403
  0
LINE
  5
2BA
100
AcDbEntity
  8
0
100
AcDbLine
 62
7
  6
CONTINUOUS
 10
89.3643450158
 20
146.4434142263
 11
97.1621450158
 21
146.4434142263
  0
LINE
  5
2BB
100
AcDbEntity
  8
0
100
AcDbLine
 62
7
  6
CONTINUOUS
 10
129.2677450158
 20
146.4434142263
 11
137.0655450158
 21
146.4434142263
  0
LINE
  5
2BC
100
AcDbEntity
  8
0
100
AcDbLine
 62
7
  6
CONTINUOUS
 10
169.1711450158
 20
146.4434142263
 11
176.9689450158
 21
146.4434142263
  0
LINE
  5
2BD
100
AcDbEntity
  8
0
100
AcDbLine
 62
7
  6
CONTINUOUS
 10
91.057082551
 20
151.3329142263
 11
95.4689172474
 21
151.3329142263
  0
LINE
  5
2BE
100
AcDbEntity
  8
0
100
AcDbLine
 62
7
  6
CONTINUOUS
 10
130.960482551
 20
151.3329142263
 11
135.3723172474
 21
151.3329142263
  0
LINE
  5
2BF
100
AcDbEntity
  8
0
100
AcDbLine
 62
7
  6
CONTINUOUS
 10
170.863882551
 20
151.3329142263
 11
175.2757172474
 21
151.3329142263
  0
LINE
  5
2C0
100
AcDbEntity
  8
0
100
AcDbLine
 62
7
  6
CONTINUOUS
 10
179.4200445443
 20
153.2379142263
 11
166.7200445443
 21
153.2379142263
  0
LINE
  5
2C1
100
AcDbEntity
  8
0
100
AcDbLine
 62
7
  6
CONTINUOUS
 10
139.5166445443
 20
153.2379142263
 11
126.8166445443
 21
153.2379142263
  0
LINE
  5
2C2
100
AcDbEntity
  8
0
100
AcDbLine
 62
7
  6
CONTINUOUS
 10
99.6132445443
 20
153.2379142263
 11
86.9132445443
 21
153.2379142263
  0
LINE
  5
2C3
100
AcDbEntity
  8
0
100
AcDbLine
 62
7
  6
CONTINUOUS
 10
105.8783831443
 20
171.1703142263
 11
105.8783831443
 21
173.7103142263
  0
LINE
  5
2C4
100
AcDbEntity
  8
0
100
AcDbLine
 62
7
  6
CONTINUOUS
 10
105.8783831443
 20
175.6153142263
 11
105.8783831443
 21
178.0283142262
  0
LINE
  5
2C5
100
AcDbEntity
  8
0
100
AcDbLine
 62
7
  6
CONTINUOUS
 10
105.8783831443
 20
179.9333142262
 11
105.8783831443
 21
182.3463142262
  0
LINE
  5
2C6
100
AcDbEntity
  8
0
100
AcDbLine
 62
7
  6
CONTINUOUS
 10
105.8783831443
 20
184.2513142262
 11
105.8783831443
 21
186.6643142262
  0
LINE
  5
2C7
100
AcDbEntity
  8
0
100
AcDbLine
 62
7
  6
CONTINUOUS
 10
105.8783831443
 20
188.5693142262
 11
105.8783831443
 21
190.9823142262
  0
LINE
  5
2C8
100
AcDbEntity
  8
0
100
AcDbLine
 62
7
  6
CONTINUOUS
 10
105.8783831443
 20
192.8873142262
 11
105.8783831443
 21
195.3003142262
  0
LINE
  5
2C9
100
AcDbEntity
  8
0
100
AcDbLine
 62
7
  6
CONTINUOUS
 10
105.8783831443
 20
197.2053142261
 11
105.8783831443
 21
215.8743142262
  0
LINE
  5
2CA
100
AcDbEntity
  8
0
100
AcDbLine
 62
7
  6
CONTINUOUS
 10
106.1323831443
 20
194.3097142263
 11
106.1323831443
 21
192.8873142263
  0
LINE
  5
2CB
100
AcDbEntity
  8
0
100
AcDbLine
 62
7
  6
CONTINUOUS
 10
106.1323831443
 20
189.9917142263
 11
106.1323831443
 21
188.5693142263
  0
LINE
  5
2CC
100
AcDbEntity
  8
0
100
AcDbLine
 62
7
  6
CONTINUOUS
 10
106.1323831443
 20
185.6737142263
 11
106.1323831443
 21
184.2513142263
  0
LINE
  5
2CD
100
AcDbEntity
  8
0
100
AcDbLine
 62
7
  6
CONTINUOUS
 10
106.1323831443
 20
181.3557142263
 11
106.1323831443
 21
179.9333142263
  0
LINE
  5
2CE
100
AcDbEntity
  8
0
100
AcDbLine
 62
7
  6
CONTINUOUS
 10
106.1323831443
 20
177.0377142263
 11
106.1323831443
 21
175.6153142263
  0
LINE
  5
2CF
100
AcDbEntity
  8
0
100
AcDbLine
 62
7
  6
CONTINUOUS
 10
106.1323831443
 20
172.5927142263
 11
106.1323831443
 21
171.1703142263
  0
LINE
  5
2D0
100
AcDbEntity
  8
0
100
AcDbLine
 62
7
  6
CONTINUOUS
 10
106.3659107443
 20
140.2784278263
 11
106.3659107443
 21
154.5024278263
  0
LINE
  5
2D1
100
AcDbEntity
  8
0
100
AcDbLine
 62
7
  6
CONTINUOUS
 10
106.6403831443
 20
194.3097142263
 11
106.6403831443
 21
192.8873142263
  0
LINE
  5
2D2
100
AcDbEntity
  8
0
100
AcDbLine
 62
7
  6
CONTINUOUS
 10
106.6403831443
 20
189.9917142263
 11
106.6403831443
 21
188.5693142263
  0
LINE
  5
2D3
100
AcDbEntity
  8
0
100
AcDbLine
 62
7
  6
CONTINUOUS
 10
106.6403831443
 20
185.6737142263
 11
106.6403831443
 21
184.2513142263
  0
LINE
  5
2D4
100
AcDbEntity
  8
0
100
AcDbLine
 62
7
  6
CONTINUOUS
 10
106.6403831443
 20
181.3557142263
 11
106.6403831443
 21
179.9333142263
  0
LINE
  5
2D5
100
AcDbEntity
  8
0
100
AcDbLine
 62
7
  6
CONTINUOUS
 10
106.6403831443
 20
177.0377142263
 11
106.6403831443
 21
175.6153142263
  0
LINE
  5
2D6
100
AcDbEntity
  8
0
100
AcDbLine
 62
7
  6
CONTINUOUS
 10
106.6403831443
 20
172.5927142263
 11
106.6403831443
 21
171.1703142263
  0
LINE
  5
2D7
100
AcDbEntity
  8
0
100
AcDbLine
 62
7
  6
CONTINUOUS
 10
107.7833831443
 20
173.7103142263
 11
107.7833831443
 21
175.6153142263
  0
LINE
  5
2D8
100
AcDbEntity
  8
0
100
AcDbLine
 62
7
  6
CONTINUOUS
 10
107.7833831443
 20
178.0283142262
 11
107.7833831443
 21
179.9333142262
  0
LINE
  5
2D9
100
AcDbEntity
  8
0
100
AcDbLine
 62
7
  6
CONTINUOUS
 10
107.7833831443
 20
182.3463142262
 11
107.7833831443
 21
184.2513142262
  0
LINE
  5
2DA
100
AcDbEntity
  8
0
100
AcDbLine
 62
7
  6
CONTINUOUS
 10
107.7833831443
 20
186.6643142262
 11
107.7833831443
 21
188.5693142262
  0
LINE
  5
2DB
100
AcDbEntity
  8
0
100
AcDbLine
 62
7
  6
CONTINUOUS
 10
107.7833831443
 20
190.9823142262
 11
107.7833831443
 21
192.8873142262
  0
LINE
  5
2DC
100
AcDbEntity
  8
0
100
AcDbLine
 62
7
  6
CONTINUOUS
 10
107.7833831443
 20
195.3003142262
 11
107.7833831443
 21
197.2053142261
  0
LINE
  5
2DD
100
AcDbEntity
  8
0
100
AcDbLine
 62
7
  6
CONTINUOUS
 10
110.0693831443
 20
172.5927142263
 11
110.0693831443
 21
175.6153142263
  0
LINE
  5
2DE
100
AcDbEntity
  8
0
100
AcDbLine
 62
7
  6
CONTINUOUS
 10
110.0693831443
 20
177.0377142263
 11
110.0693831443
 21
179.9333142263
  0
LINE
  5
2DF
100
AcDbEntity
  8
0
100
AcDbLine
 62
7
  6
CONTINUOUS
 10
110.0693831443
 20
181.3557142263
 11
110.0693831443
 21
184.2513142263
  0
LINE
  5
2E0
100
AcDbEntity
  8
0
100
AcDbLine
 62
7
  6
CONTINUOUS
 10
110.0693831443
 20
185.6737142263
 11
110.0693831443
 21
188.5693142263
  0
LINE
  5
2E1
100
AcDbEntity
  8
0
100
AcDbLine
 62
7
  6
CONTINUOUS
 10
110.0693831443
 20
189.9917142263
 11
110.0693831443
 21
192.8873142263
  0
LINE
  5
2E2
100
AcDbEntity
  8
0
100
AcDbLine
 62
7
  6
CONTINUOUS
 10
110.0693831443
 20
194.3097142263
 11
110.0693831443
 21
203.3825020266
  0
LINE
  5
2E3
100
AcDbEntity
  8
0
100
AcDbLine
 62
7
  6
CONTINUOUS
 10
110.0780445443
 20
123.5580142263
 11
110.0780445443
 21
167.7159048403
  0
LINE
  5
2E4
100
AcDbEntity
  8
0
100
AcDbLine
 62
7
  6
CONTINUOUS
 10
110.4884013644
 20
172.5927142263
 11
110.4884013644
 21
174.1048801673
  0
LINE
  5
2E5
100
AcDbEntity
  8
0
100
AcDbLine
 62
7
  6
CONTINUOUS
 10
110.5037512601
 20
179.9333142263
 11
110.5037512601
 21
178.8569211226
  0
LINE
  5
2E6
100
AcDbEntity
  8
0
100
AcDbLine
 62
7
  6
CONTINUOUS
 10
110.9416953443
 20
172.5927142263
 11
110.9416953443
 21
175.1998022281
  0
LINE
  5
2E7
100
AcDbEntity
  8
0
100
AcDbLine
 62
7
  6
CONTINUOUS
 10
177.4451757612
 20
153.8729142263
 11
177.3804100985
 21
153.8729142263
  0
LINE
  5
2E8
100
AcDbEntity
  8
0
100
AcDbLine
 62
7
  6
CONTINUOUS
 10
168.7596789901
 20
153.8729142263
 11
168.6949133274
 21
153.8729142263
  0
LINE
  5
2E9
100
AcDbEntity
  8
0
100
AcDbLine
 62
7
  6
CONTINUOUS
 10
137.5417757612
 20
153.8729142263
 11
137.4770100985
 21
153.8729142263
  0
LINE
  5
2EA
100
AcDbEntity
  8
0
100
AcDbLine
 62
7
  6
CONTINUOUS
 10
128.8562789901
 20
153.8729142263
 11
128.7915133274
 21
153.8729142263
  0
LINE
  5
2EB
100
AcDbEntity
  8
0
100
AcDbLine
 62
7
  6
CONTINUOUS
 10
97.6383757612
 20
153.8729142263
 11
97.5736100985
 21
153.8729142263
  0
LINE
  5
2EC
100
AcDbEntity
  8
0
100
AcDbLine
 62
7
  6
CONTINUOUS
 10
88.9528789901
 20
153.8729142263
 11
88.8881133274
 21
153.8729142263
  0
LINE
  5
2ED
100
AcDbEntity
  8
0
100
AcDbLine
 62
7
  6
CONTINUOUS
 10
100.8795107443
 20
154.5024278263
 11
106.3659107443
 21
154.5024278263
  0
LINE
  5
2EE
100
AcDbEntity
  8
0
100
AcDbLine
 62
7
  6
CONTINUOUS
 10
140.7829107443
 20
154.5024278263
 11
146.2693107443
 21
154.5024278263
  0
LINE
  5
2EF
100
AcDbEntity
  8
0
100
AcDbLine
 62
7
  6
CONTINUOUS
 10
180.6863107443
 20
154.5024278263
 11
186.1727107443
 21
154.5024278263
  0
LINE
  5
2F0
100
AcDbEntity
  8
0
100
AcDbLine
 62
7
  6
CONTINUOUS
 10
177.3804100985
 20
155.1429142263
 11
168.7596789901
 21
155.1429142263
  0
LINE
  5
2F1
100
AcDbEntity
  8
0
100
AcDbLine
 62
7
  6
CONTINUOUS
 10
137.4770100985
 20
155.1429142263
 11
128.8562789901
 21
155.1429142263
  0
LINE
  5
2F2
100
AcDbEntity
  8
0
100
AcDbLine
 62
7
  6
CONTINUOUS
 10
97.5736100985
 20
155.1429142263
 11
88.9528789901
 21
155.1429142263
  0
LINE
  5
2F3
100
AcDbEntity
  8
0
100
AcDbLine
 62
7
  6
CONTINUOUS
 10
86.1044831443
 20
156.8701142263
 11
101.4547445444
 21
156.8701142263
  0
LINE
  5
2F4
100
AcDbEntity
  8
0
100
AcDbLine
 62
7
  6
CONTINUOUS
 10
126.3126831443
 20
156.8701142263
 11
141.2977582539
 21
156.8701142263
  0
LINE
  5
2F5
100
AcDbEntity
  8
0
100
AcDbLine
 62
7
  6
CONTINUOUS
 10
166.2160831443
 20
156.8701142263
 11
180.9344582539
 21
156.8701142263
  0
LINE
  5
2F6
100
AcDbEntity
  8
0
100
AcDbLine
 62
7
  6
CONTINUOUS
 10
57.1103941441
 20
157.0086966263
 11
54.4433941441
 21
157.0086966263
  0
LINE
  5
2F7
100
AcDbEntity
  8
0
100
AcDbLine
 62
7
  6
CONTINUOUS
 10
27.2653941441
 20
158.7612966263
 11
49.3379941441
 21
158.7612966263
  0
LINE
  5
2F8
100
AcDbEntity
  8
0
100
AcDbLine
 62
7
  6
CONTINUOUS
 10
59.5487941441
 20
158.9890765401
 11
57.1103941441
 21
158.9890765401
  0
LINE
  5
2F9
100
AcDbEntity
  8
0
100
AcDbLine
 62
7
  6
CONTINUOUS
 10
57.1103941441
 20
159.6552517055
 11
59.5487941441
 21
159.6552517055
  0
LINE
  5
2FA
100
AcDbEntity
  8
0
100
AcDbLine
 62
7
  6
CONTINUOUS
 10
112.7958445443
 20
167.7159048403
 11
112.7958445443
 21
123.5580142263
  0
LINE
  5
2FB
100
AcDbEntity
  8
0
100
AcDbLine
 62
7
  6
CONTINUOUS
 10
113.3800953443
 20
175.3508301482
 11
113.3800953443
 21
172.5927142263
  0
LINE
  5
2FC
100
AcDbEntity
  8
0
100
AcDbLine
 62
7
  6
CONTINUOUS
 10
114.051410753
 20
174.1048801673
 11
114.051410753
 21
172.5927142263
  0
LINE
  5
2FD
100
AcDbEntity
  8
0
100
AcDbLine
 62
7
  6
CONTINUOUS
 10
114.0978512601
 20
178.8569211226
 11
114.0978512601
 21
179.9333142263
  0
LINE
  5
2FE
100
AcDbEntity
  8
0
100
AcDbLine
 62
7
  6
CONTINUOUS
 10
114.2944445443
 20
123.5580142263
 11
114.2944445443
 21
167.7159048403
  0
LINE
  5
2FF
100
AcDbEntity
  8
0
100
AcDbLine
 62
7
  6
CONTINUOUS
 10
115.3049327443
 20
174.8775966263
 11
115.3049327443
 21
123.2266966263
  0
LINE
  5
300
100
AcDbEntity
  8
0
100
AcDbLine
 62
7
  6
CONTINUOUS
 10
116.4193831443
 20
172.5927142263
 11
116.4193831443
 21
175.6153142263
  0
LINE
  5
301
100
AcDbEntity
  8
0
100
AcDbLine
 62
7
  6
CONTINUOUS
 10
116.4193831443
 20
177.0377142263
 11
116.4193831443
 21
179.9333142263
  0
LINE
  5
302
100
AcDbEntity
  8
0
100
AcDbLine
 62
7
  6
CONTINUOUS
 10
116.4193831443
 20
181.3557142263
 11
116.4193831443
 21
184.2513142263
  0
LINE
  5
303
100
AcDbEntity
  8
0
100
AcDbLine
 62
7
  6
CONTINUOUS
 10
116.4193831443
 20
185.6737142263
 11
116.4193831443
 21
188.5693142263
  0
LINE
  5
304
100
AcDbEntity
  8
0
100
AcDbLine
 62
7
  6
CONTINUOUS
 10
116.4193831443
 20
189.9917142263
 11
116.4193831443
 21
192.8873142263
  0
LINE
  5
305
100
AcDbEntity
  8
0
100
AcDbLine
 62
7
  6
CONTINUOUS
 10
116.4193831443
 20
194.3097142263
 11
116.4193831443
 21
203.3825020266
  0
LINE
  5
306
100
AcDbEntity
  8
0
100
AcDbLine
 62
7
  6
CONTINUOUS
 10
117.0122445443
 20
167.7159048403
 11
117.0122445443
 21
123.5580142263
  0
LINE
  5
307
100
AcDbEntity
  8
0
100
AcDbLine
 62
7
  6
CONTINUOUS
 10
118.7053831443
 20
197.2053142261
 11
118.7053831443
 21
195.3003142262
  0
LINE
  5
308
100
AcDbEntity
  8
0
100
AcDbLine
 62
7
  6
CONTINUOUS
 10
118.7053831443
 20
192.8873142262
 11
118.7053831443
 21
190.9823142262
  0
LINE
  5
309
100
AcDbEntity
  8
0
100
AcDbLine
 62
7
  6
CONTINUOUS
 10
118.7053831443
 20
188.5693142262
 11
118.7053831443
 21
186.6643142262
  0
LINE
  5
30A
100
AcDbEntity
  8
0
100
AcDbLine
 62
7
  6
CONTINUOUS
 10
118.7053831443
 20
184.2513142262
 11
118.7053831443
 21
182.3463142262
  0
LINE
  5
30B
100
AcDbEntity
  8
0
100
AcDbLine
 62
7
  6
CONTINUOUS
 10
118.7053831443
 20
179.9333142262
 11
118.7053831443
 21
178.0283142262
  0
LINE
  5
30C
100
AcDbEntity
  8
0
100
AcDbLine
 62
7
  6
CONTINUOUS
 10
118.7053831443
 20
175.6153142263
 11
118.7053831443
 21
173.7103142263
  0
LINE
  5
30D
100
AcDbEntity
  8
0
100
AcDbLine
 62
7
  6
CONTINUOUS
 10
82.5586895913
 20
121.9556806263
 11
81.0634771018
 21
119.3658966263
  0
LINE
  5
30E
100
AcDbEntity
  8
0
100
AcDbLine
 62
7
  6
CONTINUOUS
 10
84.6704059359
 20
120.7364806263
 11
83.1751934464
 21
118.1466966263
  0
LINE
  5
30F
100
AcDbEntity
  8
0
100
AcDbLine
 62
7
  6
CONTINUOUS
 10
61.2378941441
 20
161.0726966263
 11
63.6127941441
 21
161.0726966263
  0
LINE
  5
310
100
AcDbEntity
  8
0
100
AcDbLine
 62
7
  6
CONTINUOUS
 10
49.3379941441
 20
161.5806966263
 11
27.2653941441
 21
161.5806966263
  0
LINE
  5
311
100
AcDbEntity
  8
0
100
AcDbLine
 62
7
  6
CONTINUOUS
 10
209.8619445443
 20
162.9906587268
 11
204.8200445443
 21
162.9906587268
  0
LINE
  5
312
100
AcDbEntity
  8
0
100
AcDbLine
 62
7
  6
CONTINUOUS
 10
47.2043941441
 20
166.4066966263
 11
50.3793941441
 21
166.4066966263
  0
LINE
  5
313
100
AcDbEntity
  8
0
100
AcDbLine
 62
7
  6
CONTINUOUS
 10
57.1103940563
 20
166.4067728263
 11
60.8905998563
 21
166.4067728263
  0
LINE
  5
314
100
AcDbEntity
  8
0
100
AcDbLine
 62
7
  6
CONTINUOUS
 10
202.4324445443
 20
167.7159048403
 11
180.9344582539
 21
167.7159048403
  0
LINE
  5
315
100
AcDbEntity
  8
0
100
AcDbLine
 62
7
  6
CONTINUOUS
 10
164.5768582539
 20
167.7159048403
 11
141.2977582539
 21
167.7159048403
  0
LINE
  5
316
100
AcDbEntity
  8
0
100
AcDbLine
 62
7
  6
CONTINUOUS
 10
124.9401582539
 20
167.7159048403
 11
101.4547445444
 21
167.7159048403
  0
LINE
  5
317
100
AcDbEntity
  8
0
100
AcDbLine
 62
7
  6
CONTINUOUS
 10
85.0971445444
 20
167.7159048403
 11
83.8017445443
 21
167.7159048403
  0
LINE
  5
318
100
AcDbEntity
  8
0
100
AcDbLine
 62
7
  6
CONTINUOUS
 10
50.3793941441
 20
167.9941966263
 11
51.6239941441
 21
167.9941966263
  0
LINE
  5
319
100
AcDbEntity
  8
0
100
AcDbLine
 62
7
  6
CONTINUOUS
 10
121.6267387443
 20
117.1814966263
 11
121.2838387443
 21
120.2294966263
  0
LINE
  5
31A
100
AcDbEntity
  8
0
100
AcDbLine
 62
7
  6
CONTINUOUS
 10
119.8483831443
 20
194.3097142263
 11
119.8483831443
 21
192.8873142263
  0
LINE
  5
31B
100
AcDbEntity
  8
0
100
AcDbLine
 62
7
  6
CONTINUOUS
 10
119.8483831443
 20
189.9917142263
 11
119.8483831443
 21
188.5693142263
  0
LINE
  5
31C
100
AcDbEntity
  8
0
100
AcDbLine
 62
7
  6
CONTINUOUS
 10
119.8483831443
 20
185.6737142263
 11
119.8483831443
 21
184.2513142263
  0
LINE
  5
31D
100
AcDbEntity
  8
0
100
AcDbLine
 62
7
  6
CONTINUOUS
 10
119.8483831443
 20
181.3557142263
 11
119.8483831443
 21
179.9333142263
  0
LINE
  5
31E
100
AcDbEntity
  8
0
100
AcDbLine
 62
7
  6
CONTINUOUS
 10
119.8483831443
 20
177.0377142263
 11
119.8483831443
 21
175.6153142263
  0
LINE
  5
31F
100
AcDbEntity
  8
0
100
AcDbLine
 62
7
  6
CONTINUOUS
 10
119.8483831443
 20
172.5927142263
 11
119.8483831443
 21
171.1703142263
  0
LINE
  5
320
100
AcDbEntity
  8
0
100
AcDbLine
 62
7
  6
CONTINUOUS
 10
120.3563831443
 20
171.1703142263
 11
120.3563831443
 21
172.5927142263
  0
LINE
  5
321
100
AcDbEntity
  8
0
100
AcDbLine
 62
7
  6
CONTINUOUS
 10
120.3563831443
 20
175.6153142263
 11
120.3563831443
 21
177.0377142263
  0
LINE
  5
322
100
AcDbEntity
  8
0
100
AcDbLine
 62
7
  6
CONTINUOUS
 10
120.3563831443
 20
179.9333142263
 11
120.3563831443
 21
181.3557142263
  0
LINE
  5
323
100
AcDbEntity
  8
0
100
AcDbLine
 62
7
  6
CONTINUOUS
 10
120.3563831443
 20
184.2513142263
 11
120.3563831443
 21
185.6737142263
  0
LINE
  5
324
100
AcDbEntity
  8
0
100
AcDbLine
 62
7
  6
CONTINUOUS
 10
120.3563831443
 20
188.5693142263
 11
120.3563831443
 21
189.9917142263
  0
LINE
  5
325
100
AcDbEntity
  8
0
100
AcDbLine
 62
7
  6
CONTINUOUS
 10
120.3563831443
 20
192.8873142263
 11
120.3563831443
 21
194.3097142263
  0
LINE
  5
326
100
AcDbEntity
  8
0
100
AcDbLine
 62
7
  6
CONTINUOUS
 10
120.6103831443
 20
215.8743142262
 11
120.6103831443
 21
197.2053142261
  0
LINE
  5
327
100
AcDbEntity
  8
0
100
AcDbLine
 62
7
  6
CONTINUOUS
 10
120.6103831443
 20
195.3003142262
 11
120.6103831443
 21
192.8873142262
  0
LINE
  5
328
100
AcDbEntity
  8
0
100
AcDbLine
 62
7
  6
CONTINUOUS
 10
120.6103831443
 20
190.9823142262
 11
120.6103831443
 21
188.5693142262
  0
LINE
  5
329
100
AcDbEntity
  8
0
100
AcDbLine
 62
7
  6
CONTINUOUS
 10
120.6103831443
 20
186.6643142262
 11
120.6103831443
 21
184.2513142262
  0
LINE
  5
32A
100
AcDbEntity
  8
0
100
AcDbLine
 62
7
  6
CONTINUOUS
 10
120.6103831443
 20
182.3463142262
 11
120.6103831443
 21
179.9333142262
  0
LINE
  5
32B
100
AcDbEntity
  8
0
100
AcDbLine
 62
7
  6
CONTINUOUS
 10
120.6103831443
 20
178.0283142262
 11
120.6103831443
 21
175.6153142263
  0
LINE
  5
32C
100
AcDbEntity
  8
0
100
AcDbLine
 62
7
  6
CONTINUOUS
 10
120.6103831443
 20
173.7103142263
 11
120.6103831443
 21
171.1703142263
  0
LINE
  5
32D
100
AcDbEntity
  8
0
100
AcDbLine
 62
7
  6
CONTINUOUS
 10
120.7968445443
 20
217.5761142263
 11
120.7968445443
 21
218.9855120949
  0
LINE
  5
32E
100
AcDbEntity
  8
0
100
AcDbLine
 62
7
  6
CONTINUOUS
 10
121.2838387443
 20
121.1174806263
 11
121.2838387443
 21
120.2294966263
  0
LINE
  5
32F
100
AcDbEntity
  8
0
100
AcDbLine
 62
7
  6
CONTINUOUS
 10
121.8803831443
 20
171.1703142263
 11
121.8803831443
 21
215.8743142263
  0
LINE
  5
330
100
AcDbEntity
  8
0
100
AcDbLine
 62
7
  6
CONTINUOUS
 10
122.5280831443
 20
169.4685142263
 11
122.5280831443
 21
167.7159048403
  0
LINE
  5
331
100
AcDbEntity
  8
0
100
AcDbLine
 62
7
  6
CONTINUOUS
 10
122.5280831443
 20
171.1703142263
 11
122.5280831443
 21
172.4911142263
  0
LINE
  5
332
100
AcDbEntity
  8
0
100
AcDbLine
 62
7
  6
CONTINUOUS
 10
122.6256445443
 20
172.4911142263
 11
122.6256445443
 21
171.1703142263
  0
LINE
  5
333
100
AcDbEntity
  8
0
100
AcDbLine
 62
7
  6
CONTINUOUS
 10
122.6256445443
 20
169.4685142263
 11
122.6256445443
 21
167.7159075842
  0
LINE
  5
334
100
AcDbEntity
  8
0
100
AcDbLine
 62
7
  6
CONTINUOUS
 10
123.8456827443
 20
116.5464966263
 11
123.8456827443
 21
121.1174806263
  0
LINE
  5
335
100
AcDbEntity
  8
0
100
AcDbLine
 62
7
  6
CONTINUOUS
 10
124.5814445443
 20
167.7159048403
 11
124.5814445443
 21
169.4685142263
  0
LINE
  5
336
100
AcDbEntity
  8
0
100
AcDbLine
 62
7
  6
CONTINUOUS
 10
124.9401582539
 20
139.6616048403
 11
124.9401582539
 21
167.7159048403
  0
LINE
  5
337
100
AcDbEntity
  8
0
100
AcDbLine
 62
7
  6
CONTINUOUS
 10
125.3696827443
 20
118.6546966263
 11
125.3696827443
 21
116.5464966263
  0
LINE
  5
338
100
AcDbEntity
  8
0
100
AcDbLine
 62
7
  6
CONTINUOUS
 10
126.2578445443
 20
218.9924270054
 11
126.2578445443
 21
217.5761142263
  0
LINE
  5
339
100
AcDbEntity
  8
0
100
AcDbLine
 62
7
  6
CONTINUOUS
 10
126.3126831443
 20
169.4685142263
 11
126.3126831443
 21
156.8701142263
  0
LINE
  5
33A
100
AcDbEntity
  8
0
100
AcDbLine
 62
7
  6
CONTINUOUS
 10
126.3126831443
 20
171.1703142263
 11
126.3126831443
 21
172.4911142263
  0
LINE
  5
33B
100
AcDbEntity
  8
0
100
AcDbLine
 62
7
  6
CONTINUOUS
 10
126.8166445443
 20
153.2379142263
 11
126.8166445443
 21
139.6616048403
  0
LINE
  5
33C
100
AcDbEntity
  8
0
100
AcDbLine
 62
7
  6
CONTINUOUS
 10
183.7674831443
 20
169.2399142263
 11
181.4814831443
 21
169.2399142263
  0
LINE
  5
33D
100
AcDbEntity
  8
0
100
AcDbLine
 62
7
  6
CONTINUOUS
 10
143.8640831443
 20
169.2399142263
 11
141.5780831443
 21
169.2399142263
  0
LINE
  5
33E
100
AcDbEntity
  8
0
100
AcDbLine
 62
7
  6
CONTINUOUS
 10
103.9606831443
 20
169.2399142263
 11
101.6746831443
 21
169.2399142263
  0
LINE
  5
33F
100
AcDbEntity
  8
0
100
AcDbLine
 62
7
  6
CONTINUOUS
 10
202.0808831443
 20
169.4685142263
 11
101.6746831443
 21
169.4685142263
  0
LINE
  5
340
100
AcDbEntity
  8
0
100
AcDbLine
 62
7
  6
CONTINUOUS
 10
209.8619445443
 20
169.5711793414
 11
204.8200445443
 21
169.5711793414
  0
LINE
  5
341
100
AcDbEntity
  8
0
100
AcDbLine
 62
7
  6
CONTINUOUS
 10
44.3886008563
 20
169.5816966263
 11
47.2043941441
 21
169.5816966263
  0
LINE
  5
342
100
AcDbEntity
  8
0
100
AcDbLine
 62
7
  6
CONTINUOUS
 10
62.326392955
 20
169.5817347263
 11
63.6127941441
 21
169.5817347263
  0
LINE
  5
343
100
AcDbEntity
  8
0
100
AcDbLine
 62
7
  6
CONTINUOUS
 10
59.5487941441
 20
170.7567006263
 11
51.5985941441
 21
170.7567006263
  0
LINE
  5
344
100
AcDbEntity
  8
0
100
AcDbLine
 62
7
  6
CONTINUOUS
 10
51.6493941441
 20
170.7754966263
 11
59.0153941441
 21
170.7754966263
  0
LINE
  5
345
100
AcDbEntity
  8
0
100
AcDbLine
 62
7
  6
CONTINUOUS
 10
200.4171831443
 20
171.1703142263
 11
185.6851831443
 21
171.1703142263
  0
LINE
  5
346
100
AcDbEntity
  8
0
100
AcDbLine
 62
7
  6
CONTINUOUS
 10
184.4151831443
 20
171.1703142263
 11
161.7837831443
 21
171.1703142263
  0
LINE
  5
347
100
AcDbEntity
  8
0
100
AcDbLine
 62
7
  6
CONTINUOUS
 10
160.5137831443
 20
171.1703142263
 11
145.7817831443
 21
171.1703142263
  0
LINE
  5
348
100
AcDbEntity
  8
0
100
AcDbLine
 62
7
  6
CONTINUOUS
 10
144.5117831443
 20
171.1703142263
 11
121.8803831443
 21
171.1703142263
  0
LINE
  5
349
100
AcDbEntity
  8
0
100
AcDbLine
 62
7
  6
CONTINUOUS
 10
120.6103831443
 20
171.1703142263
 11
105.8783831443
 21
171.1703142263
  0
LINE
  5
34A
100
AcDbEntity
  8
0
100
AcDbLine
 62
7
  6
CONTINUOUS
 10
103.8590831443
 20
171.1703142263
 11
88.1364831443
 21
171.1703142263
  0
LINE
  5
34B
100
AcDbEntity
  8
0
100
AcDbLine
 62
7
  6
CONTINUOUS
 10
166.2160831443
 20
172.4911142263
 11
164.4848445443
 21
172.4911142263
  0
LINE
  5
34C
100
AcDbEntity
  8
0
100
AcDbLine
 62
7
  6
CONTINUOUS
 10
162.5290445443
 20
172.4911142263
 11
162.4314831443
 21
172.4911142263
  0
LINE
  5
34D
100
AcDbEntity
  8
0
100
AcDbLine
 62
7
  6
CONTINUOUS
 10
126.3126831443
 20
172.4911142263
 11
124.5814445443
 21
172.4911142263
  0
LINE
  5
34E
100
AcDbEntity
  8
0
100
AcDbLine
 62
7
  6
CONTINUOUS
 10
122.6256445443
 20
172.4911142263
 11
122.5280831443
 21
172.4911142263
  0
LINE
  5
34F
100
AcDbEntity
  8
0
100
AcDbLine
 62
7
  6
CONTINUOUS
 10
200.4171831443
 20
172.5927142263
 11
185.6851831443
 21
172.5927142263
  0
LINE
  5
350
100
AcDbEntity
  8
0
100
AcDbLine
 62
7
  6
CONTINUOUS
 10
160.5137831443
 20
172.5927142263
 11
145.7817831443
 21
172.5927142263
  0
LINE
  5
351
100
AcDbEntity
  8
0
100
AcDbLine
 62
7
  6
CONTINUOUS
 10
120.6103831443
 20
172.5927142263
 11
105.8783831443
 21
172.5927142263
  0
LINE
  5
352
100
AcDbEntity
  8
0
100
AcDbLine
 62
7
  6
CONTINUOUS
 10
105.8783831443
 20
173.7103142263
 11
107.7833831443
 21
173.7103142263
  0
LINE
  5
353
100
AcDbEntity
  8
0
100
AcDbLine
 62
7
  6
CONTINUOUS
 10
118.7053831443
 20
173.7103142263
 11
120.6103831443
 21
173.7103142263
  0
LINE
  5
354
100
AcDbEntity
  8
0
100
AcDbLine
 62
7
  6
CONTINUOUS
 10
145.7817831443
 20
173.7103142263
 11
147.6867831443
 21
173.7103142263
  0
LINE
  5
355
100
AcDbEntity
  8
0
100
AcDbLine
 62
7
  6
CONTINUOUS
 10
158.6087831443
 20
173.7103142263
 11
160.5137831443
 21
173.7103142263
  0
LINE
  5
356
100
AcDbEntity
  8
0
100
AcDbLine
 62
7
  6
CONTINUOUS
 10
185.6851831443
 20
173.7103142263
 11
187.5901831443
 21
173.7103142263
  0
LINE
  5
357
100
AcDbEntity
  8
0
100
AcDbLine
 62
7
  6
CONTINUOUS
 10
198.5121831443
 20
173.7103142263
 11
200.4171831443
 21
173.7103142263
  0
LINE
  5
358
100
AcDbEntity
  8
0
100
AcDbLine
 62
7
  6
CONTINUOUS
 10
51.6493941441
 20
174.7378966263
 11
59.0153941441
 21
174.7378966263
  0
LINE
  5
359
100
AcDbEntity
  8
0
100
AcDbLine
 62
7
  6
CONTINUOUS
 10
59.5487941441
 20
174.7566926263
 11
51.5985941441
 21
174.7566926263
  0
LINE
  5
35A
100
AcDbEntity
  8
0
100
AcDbLine
 62
7
  6
CONTINUOUS
 10
200.4171831443
 20
175.6153142263
 11
185.6851831443
 21
175.6153142263
  0
LINE
  5
35B
100
AcDbEntity
  8
0
100
AcDbLine
 62
7
  6
CONTINUOUS
 10
160.5137831443
 20
175.6153142263
 11
145.7817831443
 21
175.6153142263
  0
LINE
  5
35C
100
AcDbEntity
  8
0
100
AcDbLine
 62
7
  6
CONTINUOUS
 10
120.6103831443
 20
175.6153142263
 11
105.8783831443
 21
175.6153142263
  0
LINE
  5
35D
100
AcDbEntity
  8
0
100
AcDbLine
 62
7
  6
CONTINUOUS
 10
62.326392955
 20
175.9316585263
 11
63.6127941441
 21
175.9316585263
  0
LINE
  5
35E
100
AcDbEntity
  8
0
100
AcDbLine
 62
7
  6
CONTINUOUS
 10
44.3886008563
 20
175.9316966263
 11
47.2043941441
 21
175.9316966263
  0
LINE
  5
35F
100
AcDbEntity
  8
0
100
AcDbLine
 62
7
  6
CONTINUOUS
 10
128.7914945443
 20
153.2379142263
 11
128.7914945443
 21
153.8729142263
  0
LINE
  5
360
100
AcDbEntity
  8
0
100
AcDbLine
 62
7
  6
CONTINUOUS
 10
128.8562789901
 20
153.8729142263
 11
128.8562789901
 21
155.1429142263
  0
LINE
  5
361
100
AcDbEntity
  8
0
100
AcDbLine
 62
7
  6
CONTINUOUS
 10
129.2677450158
 20
146.4434142263
 11
129.2677450158
 21
145.5930390299
  0
LINE
  5
362
100
AcDbEntity
  8
0
100
AcDbLine
 62
7
  6
CONTINUOUS
 10
130.4234445443
 20
127.6474142264
 11
130.4234445443
 21
141.8714142264
  0
LINE
  5
363
100
AcDbEntity
  8
0
100
AcDbLine
 62
7
  6
CONTINUOUS
 10
133.1666454872
 20
146.4434142263
 11
133.1666454872
 21
143.1795142263
  0
LINE
  5
364
100
AcDbEntity
  8
0
100
AcDbLine
 62
7
  6
CONTINUOUS
 10
200.4171831443
 20
177.0377142263
 11
185.6851831443
 21
177.0377142263
  0
LINE
  5
365
100
AcDbEntity
  8
0
100
AcDbLine
 62
7
  6
CONTINUOUS
 10
160.5137831443
 20
177.0377142263
 11
145.7817831443
 21
177.0377142263
  0
LINE
  5
366
100
AcDbEntity
  8
0
100
AcDbLine
 62
7
  6
CONTINUOUS
 10
120.6103831443
 20
177.0377142263
 11
105.8783831443
 21
177.0377142263
  0
LINE
  5
367
100
AcDbEntity
  8
0
100
AcDbLine
 62
7
  6
CONTINUOUS
 10
50.3793941441
 20
177.5191966263
 11
51.6239941441
 21
177.5191966263
  0
LINE
  5
368
100
AcDbEntity
  8
0
100
AcDbLine
 62
7
  6
CONTINUOUS
 10
105.8783831443
 20
178.0283142262
 11
107.7833831443
 21
178.0283142262
  0
LINE
  5
369
100
AcDbEntity
  8
0
100
AcDbLine
 62
7
  6
CONTINUOUS
 10
118.7053831443
 20
178.0283142262
 11
120.6103831443
 21
178.0283142262
  0
LINE
  5
36A
100
AcDbEntity
  8
0
100
AcDbLine
 62
7
  6
CONTINUOUS
 10
145.7817831443
 20
178.0283142262
 11
147.6867831443
 21
178.0283142262
  0
LINE
  5
36B
100
AcDbEntity
  8
0
100
AcDbLine
 62
7
  6
CONTINUOUS
 10
158.6087831443
 20
178.0283142262
 11
160.5137831443
 21
178.0283142262
  0
LINE
  5
36C
100
AcDbEntity
  8
0
100
AcDbLine
 62
7
  6
CONTINUOUS
 10
185.6851831443
 20
178.0283142262
 11
187.5901831443
 21
178.0283142262
  0
LINE
  5
36D
100
AcDbEntity
  8
0
100
AcDbLine
 62
7
  6
CONTINUOUS
 10
198.5121831443
 20
178.0283142262
 11
200.4171831443
 21
178.0283142262
  0
LINE
  5
36E
100
AcDbEntity
  8
0
100
AcDbLine
 62
7
  6
CONTINUOUS
 10
193.3458512601
 20
178.8569211226
 11
189.8761831443
 21
178.8569211226
  0
LINE
  5
36F
100
AcDbEntity
  8
0
100
AcDbLine
 62
7
  6
CONTINUOUS
 10
153.7218512601
 20
178.8569211226
 11
150.1277512601
 21
178.8569211226
  0
LINE
  5
370
100
AcDbEntity
  8
0
100
AcDbLine
 62
7
  6
CONTINUOUS
 10
114.0978512601
 20
178.8569211226
 11
110.5037512601
 21
178.8569211226
  0
LINE
  5
371
100
AcDbEntity
  8
0
100
AcDbLine
 62
7
  6
CONTINUOUS
 10
57.1103940563
 20
179.1066204263
 11
60.8905998563
 21
179.1066204263
  0
LINE
  5
372
100
AcDbEntity
  8
0
100
AcDbLine
 62
7
  6
CONTINUOUS
 10
47.2043941441
 20
179.1066966263
 11
50.3793941441
 21
179.1066966263
  0
LINE
  5
373
100
AcDbEntity
  8
0
100
AcDbLine
 62
7
  6
CONTINUOUS
 10
200.4171831443
 20
179.9333142262
 11
185.6851831443
 21
179.9333142262
  0
LINE
  5
374
100
AcDbEntity
  8
0
100
AcDbLine
 62
7
  6
CONTINUOUS
 10
160.5137831443
 20
179.9333142262
 11
145.7817831443
 21
179.9333142262
  0
LINE
  5
375
100
AcDbEntity
  8
0
100
AcDbLine
 62
7
  6
CONTINUOUS
 10
120.6103831443
 20
179.9333142262
 11
105.8783831443
 21
179.9333142262
  0
LINE
  5
376
100
AcDbEntity
  8
0
100
AcDbLine
 62
7
  6
CONTINUOUS
 10
200.4171831443
 20
181.3557142263
 11
185.6851831443
 21
181.3557142263
  0
LINE
  5
377
100
AcDbEntity
  8
0
100
AcDbLine
 62
7
  6
CONTINUOUS
 10
160.5137831443
 20
181.3557142263
 11
145.7817831443
 21
181.3557142263
  0
LINE
  5
378
100
AcDbEntity
  8
0
100
AcDbLine
 62
7
  6
CONTINUOUS
 10
120.6103831443
 20
181.3557142263
 11
105.8783831443
 21
181.3557142263
  0
LINE
  5
379
100
AcDbEntity
  8
0
100
AcDbLine
 62
7
  6
CONTINUOUS
 10
209.8619445443
 20
182.0032401468
 11
204.8200445443
 21
182.0032401468
  0
LINE
  5
37A
100
AcDbEntity
  8
0
100
AcDbLine
 62
7
  6
CONTINUOUS
 10
105.8783831443
 20
182.3463142262
 11
107.7833831443
 21
182.3463142262
  0
LINE
  5
37B
100
AcDbEntity
  8
0
100
AcDbLine
 62
7
  6
CONTINUOUS
 10
118.7053831443
 20
182.3463142262
 11
120.6103831443
 21
182.3463142262
  0
LINE
  5
37C
100
AcDbEntity
  8
0
100
AcDbLine
 62
7
  6
CONTINUOUS
 10
145.7817831443
 20
182.3463142262
 11
147.6867831443
 21
182.3463142262
  0
LINE
  5
37D
100
AcDbEntity
  8
0
100
AcDbLine
 62
7
  6
CONTINUOUS
 10
158.6087831443
 20
182.3463142262
 11
160.5137831443
 21
182.3463142262
  0
LINE
  5
37E
100
AcDbEntity
  8
0
100
AcDbLine
 62
7
  6
CONTINUOUS
 10
185.6851831443
 20
182.3463142262
 11
187.5901831443
 21
182.3463142262
  0
LINE
  5
37F
100
AcDbEntity
  8
0
100
AcDbLine
 62
7
  6
CONTINUOUS
 10
198.5121831443
 20
182.3463142262
 11
200.4171831443
 21
182.3463142262
  0
LINE
  5
380
100
AcDbEntity
  8
0
100
AcDbLine
 62
7
  6
CONTINUOUS
 10
135.9098445443
 20
127.6474142264
 11
135.9098445443
 21
141.8714142264
  0
LINE
  5
381
100
AcDbEntity
  8
0
100
AcDbLine
 62
7
  6
CONTINUOUS
 10
137.0655450158
 20
146.4434142263
 11
137.0655450158
 21
145.5928585782
  0
LINE
  5
382
100
AcDbEntity
  8
0
100
AcDbLine
 62
7
  6
CONTINUOUS
 10
137.4770100985
 20
155.1429142263
 11
137.4770100985
 21
153.8729142263
  0
LINE
  5
383
100
AcDbEntity
  8
0
100
AcDbLine
 62
7
  6
CONTINUOUS
 10
137.5417945443
 20
153.2379142263
 11
137.5417945443
 21
153.8729142263
  0
LINE
  5
384
100
AcDbEntity
  8
0
100
AcDbLine
 62
7
  6
CONTINUOUS
 10
139.5166445443
 20
139.6616048403
 11
139.5166445443
 21
153.2379142263
  0
LINE
  5
385
100
AcDbEntity
  8
0
100
AcDbLine
 62
7
  6
CONTINUOUS
 10
140.7829107443
 20
140.2784278263
 11
140.7829107443
 21
154.5024278263
  0
LINE
  5
386
100
AcDbEntity
  8
0
100
AcDbLine
 62
7
  6
CONTINUOUS
 10
141.2977582539
 20
167.7159048403
 11
141.2977582539
 21
139.6616048403
  0
LINE
  5
387
100
AcDbEntity
  8
0
100
AcDbLine
 62
7
  6
CONTINUOUS
 10
141.5780831443
 20
169.4685142263
 11
141.5780831443
 21
167.7159048403
  0
LINE
  5
388
100
AcDbEntity
  8
0
100
AcDbLine
 62
7
  6
CONTINUOUS
 10
27.2653941441
 20
183.9326966263
 11
49.3379941441
 21
183.9326966263
  0
LINE
  5
389
100
AcDbEntity
  8
0
100
AcDbLine
 62
7
  6
CONTINUOUS
 10
200.4171831443
 20
184.2513142262
 11
185.6851831443
 21
184.2513142262
  0
LINE
  5
38A
100
AcDbEntity
  8
0
100
AcDbLine
 62
7
  6
CONTINUOUS
 10
160.5137831443
 20
184.2513142262
 11
145.7817831443
 21
184.2513142262
  0
LINE
  5
38B
100
AcDbEntity
  8
0
100
AcDbLine
 62
7
  6
CONTINUOUS
 10
120.6103831443
 20
184.2513142262
 11
105.8783831443
 21
184.2513142262
  0
LINE
  5
38C
100
AcDbEntity
  8
0
100
AcDbLine
 62
7
  6
CONTINUOUS
 10
61.2378941441
 20
184.4406966263
 11
63.6127941441
 21
184.4406966263
  0
LINE
  5
38D
100
AcDbEntity
  8
0
100
AcDbLine
 62
7
  6
CONTINUOUS
 10
200.4171831443
 20
185.6737142263
 11
185.6851831443
 21
185.6737142263
  0
LINE
  5
38E
100
AcDbEntity
  8
0
100
AcDbLine
 62
7
  6
CONTINUOUS
 10
160.5137831443
 20
185.6737142263
 11
145.7817831443
 21
185.6737142263
  0
LINE
  5
38F
100
AcDbEntity
  8
0
100
AcDbLine
 62
7
  6
CONTINUOUS
 10
120.6103831443
 20
185.6737142263
 11
105.8783831443
 21
185.6737142263
  0
LINE
  5
390
100
AcDbEntity
  8
0
100
AcDbLine
 62
7
  6
CONTINUOUS
 10
57.1103941441
 20
185.8581415472
 11
59.5487941441
 21
185.8581415472
  0
LINE
  5
391
100
AcDbEntity
  8
0
100
AcDbLine
 62
7
  6
CONTINUOUS
 10
196.2261831443
 20
186.3282765722
 11
189.8761831443
 21
186.3282765722
  0
LINE
  5
392
100
AcDbEntity
  8
0
100
AcDbLine
 62
7
  6
CONTINUOUS
 10
156.3227831443
 20
186.3282765722
 11
149.9727831443
 21
186.3282765722
  0
LINE
  5
393
100
AcDbEntity
  8
0
100
AcDbLine
 62
7
  6
CONTINUOUS
 10
116.4193831443
 20
186.3282765722
 11
110.0693831443
 21
186.3282765722
  0
LINE
  5
394
100
AcDbEntity
  8
0
100
AcDbLine
 62
7
  6
CONTINUOUS
 10
57.1103941441
 20
186.5243167126
 11
59.5487941441
 21
186.5243167126
  0
LINE
  5
395
100
AcDbEntity
  8
0
100
AcDbLine
 62
7
  6
CONTINUOUS
 10
105.8783831443
 20
186.6643142262
 11
107.7833831443
 21
186.6643142262
  0
LINE
  5
396
100
AcDbEntity
  8
0
100
AcDbLine
 62
7
  6
CONTINUOUS
 10
118.7053831443
 20
186.6643142262
 11
120.6103831443
 21
186.6643142262
  0
LINE
  5
397
100
AcDbEntity
  8
0
100
AcDbLine
 62
7
  6
CONTINUOUS
 10
145.7817831443
 20
186.6643142262
 11
147.6867831443
 21
186.6643142262
  0
LINE
  5
398
100
AcDbEntity
  8
0
100
AcDbLine
 62
7
  6
CONTINUOUS
 10
158.6087831443
 20
186.6643142262
 11
160.5137831443
 21
186.6643142262
  0
LINE
  5
399
100
AcDbEntity
  8
0
100
AcDbLine
 62
7
  6
CONTINUOUS
 10
185.6851831443
 20
186.6643142262
 11
187.5901831443
 21
186.6643142262
  0
LINE
  5
39A
100
AcDbEntity
  8
0
100
AcDbLine
 62
7
  6
CONTINUOUS
 10
198.5121831443
 20
186.6643142262
 11
200.4171831443
 21
186.6643142262
  0
LINE
  5
39B
100
AcDbEntity
  8
0
100
AcDbLine
 62
7
  6
CONTINUOUS
 10
49.3379941441
 20
186.7520966263
 11
27.2653941441
 21
186.7520966263
  0
LINE
  5
39C
100
AcDbEntity
  8
0
100
AcDbLine
 62
7
  6
CONTINUOUS
 10
54.4433941441
 20
188.5046966263
 11
57.1103941441
 21
188.5046966263
  0
LINE
  5
39D
100
AcDbEntity
  8
0
100
AcDbLine
 62
7
  6
CONTINUOUS
 10
200.4171831443
 20
188.5693142262
 11
185.6851831443
 21
188.5693142262
  0
LINE
  5
39E
100
AcDbEntity
  8
0
100
AcDbLine
 62
7
  6
CONTINUOUS
 10
160.5137831443
 20
188.5693142262
 11
145.7817831443
 21
188.5693142262
  0
LINE
  5
39F
100
AcDbEntity
  8
0
100
AcDbLine
 62
7
  6
CONTINUOUS
 10
120.6103831443
 20
188.5693142262
 11
105.8783831443
 21
188.5693142262
  0
LINE
  5
3A0
100
AcDbEntity
  8
0
100
AcDbLine
 62
7
  6
CONTINUOUS
 10
200.4171831443
 20
189.9917142263
 11
185.6851831443
 21
189.9917142263
  0
LINE
  5
3A1
100
AcDbEntity
  8
0
100
AcDbLine
 62
7
  6
CONTINUOUS
 10
160.5137831443
 20
189.9917142263
 11
145.7817831443
 21
189.9917142263
  0
LINE
  5
3A2
100
AcDbEntity
  8
0
100
AcDbLine
 62
7
  6
CONTINUOUS
 10
120.6103831443
 20
189.9917142263
 11
105.8783831443
 21
189.9917142263
  0
LINE
  5
3A3
100
AcDbEntity
  8
0
100
AcDbLine
 62
7
  6
CONTINUOUS
 10
105.8783831443
 20
190.9823142262
 11
107.7833831443
 21
190.9823142262
  0
LINE
  5
3A4
100
AcDbEntity
  8
0
100
AcDbLine
 62
7
  6
CONTINUOUS
 10
118.7053831443
 20
190.9823142262
 11
120.6103831443
 21
190.9823142262
  0
LINE
  5
3A5
100
AcDbEntity
  8
0
100
AcDbLine
 62
7
  6
CONTINUOUS
 10
145.7817831443
 20
190.9823142262
 11
147.6867831443
 21
190.9823142262
  0
LINE
  5
3A6
100
AcDbEntity
  8
0
100
AcDbLine
 62
7
  6
CONTINUOUS
 10
158.6087831443
 20
190.9823142262
 11
160.5137831443
 21
190.9823142262
  0
LINE
  5
3A7
100
AcDbEntity
  8
0
100
AcDbLine
 62
7
  6
CONTINUOUS
 10
185.6851831443
 20
190.9823142262
 11
187.5901831443
 21
190.9823142262
  0
LINE
  5
3A8
100
AcDbEntity
  8
0
100
AcDbLine
 62
7
  6
CONTINUOUS
 10
198.5121831443
 20
190.9823142262
 11
200.4171831443
 21
190.9823142262
  0
LINE
  5
3A9
100
AcDbEntity
  8
0
100
AcDbLine
 62
7
  6
CONTINUOUS
 10
142.1114941441
 20
118.8050318164
 11
141.953651085
 21
120.2080812301
  0
LINE
  5
3AA
100
AcDbEntity
  8
0
100
AcDbLine
 62
7
  6
CONTINUOUS
 10
143.8640831443
 20
169.2399142263
 11
143.8640831443
 21
167.7159048403
  0
LINE
  5
3AB
100
AcDbEntity
  8
0
100
AcDbLine
 62
7
  6
CONTINUOUS
 10
144.5117831443
 20
215.8743142263
 11
144.5117831443
 21
171.1703142263
  0
LINE
  5
3AC
100
AcDbEntity
  8
0
100
AcDbLine
 62
7
  6
CONTINUOUS
 10
145.7817831443
 20
171.1703142263
 11
145.7817831443
 21
173.7103142263
  0
LINE
  5
3AD
100
AcDbEntity
  8
0
100
AcDbLine
 62
7
  6
CONTINUOUS
 10
145.7817831443
 20
175.6153142263
 11
145.7817831443
 21
178.0283142262
  0
LINE
  5
3AE
100
AcDbEntity
  8
0
100
AcDbLine
 62
7
  6
CONTINUOUS
 10
145.7817831443
 20
179.9333142262
 11
145.7817831443
 21
182.3463142262
  0
LINE
  5
3AF
100
AcDbEntity
  8
0
100
AcDbLine
 62
7
  6
CONTINUOUS
 10
145.7817831443
 20
184.2513142262
 11
145.7817831443
 21
186.6643142262
  0
LINE
  5
3B0
100
AcDbEntity
  8
0
100
AcDbLine
 62
7
  6
CONTINUOUS
 10
145.7817831443
 20
188.5693142262
 11
145.7817831443
 21
190.9823142262
  0
LINE
  5
3B1
100
AcDbEntity
  8
0
100
AcDbLine
 62
7
  6
CONTINUOUS
 10
145.7817831443
 20
192.8873142262
 11
145.7817831443
 21
195.3003142262
  0
LINE
  5
3B2
100
AcDbEntity
  8
0
100
AcDbLine
 62
7
  6
CONTINUOUS
 10
145.7817831443
 20
197.2053142261
 11
145.7817831443
 21
215.8743142262
  0
LINE
  5
3B3
100
AcDbEntity
  8
0
100
AcDbLine
 62
7
  6
CONTINUOUS
 10
146.0357831443
 20
194.3097142263
 11
146.0357831443
 21
192.8873142263
  0
LINE
  5
3B4
100
AcDbEntity
  8
0
100
AcDbLine
 62
7
  6
CONTINUOUS
 10
146.0357831443
 20
189.9917142263
 11
146.0357831443
 21
188.5693142263
  0
LINE
  5
3B5
100
AcDbEntity
  8
0
100
AcDbLine
 62
7
  6
CONTINUOUS
 10
146.0357831443
 20
185.6737142263
 11
146.0357831443
 21
184.2513142263
  0
LINE
  5
3B6
100
AcDbEntity
  8
0
100
AcDbLine
 62
7
  6
CONTINUOUS
 10
146.0357831443
 20
181.3557142263
 11
146.0357831443
 21
179.9333142263
  0
LINE
  5
3B7
100
AcDbEntity
  8
0
100
AcDbLine
 62
7
  6
CONTINUOUS
 10
146.0357831443
 20
177.0377142263
 11
146.0357831443
 21
175.6153142263
  0
LINE
  5
3B8
100
AcDbEntity
  8
0
100
AcDbLine
 62
7
  6
CONTINUOUS
 10
146.0357831443
 20
172.5927142263
 11
146.0357831443
 21
171.1703142263
  0
LINE
  5
3B9
100
AcDbEntity
  8
0
100
AcDbLine
 62
7
  6
CONTINUOUS
 10
146.2693107443
 20
140.2784278263
 11
146.2693107443
 21
154.5024278263
  0
LINE
  5
3BA
100
AcDbEntity
  8
0
100
AcDbLine
 62
7
  6
CONTINUOUS
 10
146.5437831443
 20
194.3097142263
 11
146.5437831443
 21
192.8873142263
  0
LINE
  5
3BB
100
AcDbEntity
  8
0
100
AcDbLine
 62
7
  6
CONTINUOUS
 10
146.5437831443
 20
189.9917142263
 11
146.5437831443
 21
188.5693142263
  0
LINE
  5
3BC
100
AcDbEntity
  8
0
100
AcDbLine
 62
7
  6
CONTINUOUS
 10
146.5437831443
 20
185.6737142263
 11
146.5437831443
 21
184.2513142263
  0
LINE
  5
3BD
100
AcDbEntity
  8
0
100
AcDbLine
 62
7
  6
CONTINUOUS
 10
146.5437831443
 20
181.3557142263
 11
146.5437831443
 21
179.9333142263
  0
LINE
  5
3BE
100
AcDbEntity
  8
0
100
AcDbLine
 62
7
  6
CONTINUOUS
 10
146.5437831443
 20
177.0377142263
 11
146.5437831443
 21
175.6153142263
  0
LINE
  5
3BF
100
AcDbEntity
  8
0
100
AcDbLine
 62
7
  6
CONTINUOUS
 10
146.5437831443
 20
172.5927142263
 11
146.5437831443
 21
171.1703142263
  0
LINE
  5
3C0
100
AcDbEntity
  8
0
100
AcDbLine
 62
7
  6
CONTINUOUS
 10
147.6867831443
 20
173.7103142263
 11
147.6867831443
 21
175.6153142263
  0
LINE
  5
3C1
100
AcDbEntity
  8
0
100
AcDbLine
 62
7
  6
CONTINUOUS
 10
147.6867831443
 20
178.0283142262
 11
147.6867831443
 21
179.9333142262
  0
LINE
  5
3C2
100
AcDbEntity
  8
0
100
AcDbLine
 62
7
  6
CONTINUOUS
 10
147.6867831443
 20
182.3463142262
 11
147.6867831443
 21
184.2513142262
  0
LINE
  5
3C3
100
AcDbEntity
  8
0
100
AcDbLine
 62
7
  6
CONTINUOUS
 10
147.6867831443
 20
186.6643142262
 11
147.6867831443
 21
188.5693142262
  0
LINE
  5
3C4
100
AcDbEntity
  8
0
100
AcDbLine
 62
7
  6
CONTINUOUS
 10
147.6867831443
 20
190.9823142262
 11
147.6867831443
 21
192.8873142262
  0
LINE
  5
3C5
100
AcDbEntity
  8
0
100
AcDbLine
 62
7
  6
CONTINUOUS
 10
147.6867831443
 20
195.3003142262
 11
147.6867831443
 21
197.2053142261
  0
LINE
  5
3C6
100
AcDbEntity
  8
0
100
AcDbLine
 62
7
  6
CONTINUOUS
 10
149.9210687443
 20
123.5580142263
 11
149.9210687443
 21
167.7159048403
  0
LINE
  5
3C7
100
AcDbEntity
  8
0
100
AcDbLine
 62
7
  6
CONTINUOUS
 10
149.9727831443
 20
172.5927142263
 11
149.9727831443
 21
175.6153142263
  0
LINE
  5
3C8
100
AcDbEntity
  8
0
100
AcDbLine
 62
7
  6
CONTINUOUS
 10
149.9727831443
 20
177.0377142263
 11
149.9727831443
 21
179.9333142263
  0
LINE
  5
3C9
100
AcDbEntity
  8
0
100
AcDbLine
 62
7
  6
CONTINUOUS
 10
149.9727831443
 20
181.3557142263
 11
149.9727831443
 21
184.2513142263
  0
LINE
  5
3CA
100
AcDbEntity
  8
0
100
AcDbLine
 62
7
  6
CONTINUOUS
 10
149.9727831443
 20
185.6737142263
 11
149.9727831443
 21
188.5693142263
  0
LINE
  5
3CB
100
AcDbEntity
  8
0
100
AcDbLine
 62
7
  6
CONTINUOUS
 10
149.9727831443
 20
189.9917142263
 11
149.9727831443
 21
192.8873142263
  0
LINE
  5
3CC
100
AcDbEntity
  8
0
100
AcDbLine
 62
7
  6
CONTINUOUS
 10
149.9727831443
 20
194.3097142263
 11
149.9727831443
 21
203.3825020266
  0
LINE
  5
3CD
100
AcDbEntity
  8
0
100
AcDbLine
 62
7
  6
CONTINUOUS
 10
204.8200445443
 20
192.3781966263
 11
205.0703107443
 21
192.3781966263
  0
LINE
  5
3CE
100
AcDbEntity
  8
0
100
AcDbLine
 62
7
  6
CONTINUOUS
 10
200.4171831443
 20
192.8873142262
 11
185.6851831443
 21
192.8873142262
  0
LINE
  5
3CF
100
AcDbEntity
  8
0
100
AcDbLine
 62
7
  6
CONTINUOUS
 10
160.5137831443
 20
192.8873142262
 11
145.7817831443
 21
192.8873142262
  0
LINE
  5
3D0
100
AcDbEntity
  8
0
100
AcDbLine
 62
7
  6
CONTINUOUS
 10
120.6103831443
 20
192.8873142262
 11
105.8783831443
 21
192.8873142262
  0
LINE
  5
3D1
100
AcDbEntity
  8
0
100
AcDbLine
 62
7
  6
CONTINUOUS
 10
200.4171831443
 20
194.3097142263
 11
185.6851831443
 21
194.3097142263
  0
LINE
  5
3D2
100
AcDbEntity
  8
0
100
AcDbLine
 62
7
  6
CONTINUOUS
 10
160.5137831443
 20
194.3097142263
 11
145.7817831443
 21
194.3097142263
  0
LINE
  5
3D3
100
AcDbEntity
  8
0
100
AcDbLine
 62
7
  6
CONTINUOUS
 10
120.6103831443
 20
194.3097142263
 11
105.8783831443
 21
194.3097142263
  0
LINE
  5
3D4
100
AcDbEntity
  8
0
100
AcDbLine
 62
7
  6
CONTINUOUS
 10
86.1044831443
 20
194.7669142263
 11
78.1502445443
 21
194.7669142263
  0
LINE
  5
3D5
100
AcDbEntity
  8
0
100
AcDbLine
 62
7
  6
CONTINUOUS
 10
202.0808831443
 20
194.7669142263
 11
204.8200445443
 21
194.7669142263
  0
LINE
  5
3D6
100
AcDbEntity
  8
0
100
AcDbLine
 62
7
  6
CONTINUOUS
 10
156.3227831443
 20
194.7669396263
 11
152.9659445443
 21
194.7669396263
  0
LINE
  5
3D7
100
AcDbEntity
  8
0
100
AcDbLine
 62
7
  6
CONTINUOUS
 10
202.0808831443
 20
194.9701142263
 11
205.1288831443
 21
194.9701142263
  0
LINE
  5
3D8
100
AcDbEntity
  8
0
100
AcDbLine
 62
7
  6
CONTINUOUS
 10
105.8783831443
 20
195.3003142262
 11
107.7833831443
 21
195.3003142262
  0
LINE
  5
3D9
100
AcDbEntity
  8
0
100
AcDbLine
 62
7
  6
CONTINUOUS
 10
118.7053831443
 20
195.3003142262
 11
120.6103831443
 21
195.3003142262
  0
LINE
  5
3DA
100
AcDbEntity
  8
0
100
AcDbLine
 62
7
  6
CONTINUOUS
 10
145.7817831443
 20
195.3003142262
 11
147.6867831443
 21
195.3003142262
  0
LINE
  5
3DB
100
AcDbEntity
  8
0
100
AcDbLine
 62
7
  6
CONTINUOUS
 10
158.6087831443
 20
195.3003142262
 11
160.5137831443
 21
195.3003142262
  0
LINE
  5
3DC
100
AcDbEntity
  8
0
100
AcDbLine
 62
7
  6
CONTINUOUS
 10
185.6851831443
 20
195.3003142262
 11
187.5901831443
 21
195.3003142262
  0
LINE
  5
3DD
100
AcDbEntity
  8
0
100
AcDbLine
 62
7
  6
CONTINUOUS
 10
198.5121831443
 20
195.3003142262
 11
200.4171831443
 21
195.3003142262
  0
LINE
  5
3DE
100
AcDbEntity
  8
0
100
AcDbLine
 62
7
  6
CONTINUOUS
 10
201.0648831443
 20
196.7989142263
 11
205.1288831443
 21
196.7989142263
  0
LINE
  5
3DF
100
AcDbEntity
  8
0
100
AcDbLine
 62
7
  6
CONTINUOUS
 10
200.4171831443
 20
197.2053142261
 11
198.5121831443
 21
197.2053142261
  0
LINE
  5
3E0
100
AcDbEntity
  8
0
100
AcDbLine
 62
7
  6
CONTINUOUS
 10
187.5901831443
 20
197.2053142261
 11
185.6851831443
 21
197.2053142261
  0
LINE
  5
3E1
100
AcDbEntity
  8
0
100
AcDbLine
 62
7
  6
CONTINUOUS
 10
160.5137831443
 20
197.2053142261
 11
158.6087831443
 21
197.2053142261
  0
LINE
  5
3E2
100
AcDbEntity
  8
0
100
AcDbLine
 62
7
  6
CONTINUOUS
 10
147.6867831443
 20
197.2053142261
 11
145.7817831443
 21
197.2053142261
  0
LINE
  5
3E3
100
AcDbEntity
  8
0
100
AcDbLine
 62
7
  6
CONTINUOUS
 10
120.6103831443
 20
197.2053142261
 11
118.7053831443
 21
197.2053142261
  0
LINE
  5
3E4
100
AcDbEntity
  8
0
100
AcDbLine
 62
7
  6
CONTINUOUS
 10
107.7833831443
 20
197.2053142261
 11
105.8783831443
 21
197.2053142261
  0
LINE
  5
3E5
100
AcDbEntity
  8
0
100
AcDbLine
 62
7
  6
CONTINUOUS
 10
86.1044831443
 20
197.4593142264
 11
84.0978831443
 21
197.4593142264
  0
LINE
  5
3E6
100
AcDbEntity
  8
0
100
AcDbLine
 62
7
  6
CONTINUOUS
 10
150.1124013644
 20
172.5927142263
 11
150.1124013644
 21
174.1048801673
  0
LINE
  5
3E7
100
AcDbEntity
  8
0
100
AcDbLine
 62
7
  6
CONTINUOUS
 10
150.1277512601
 20
179.9333142263
 11
150.1277512601
 21
178.8569211226
  0
LINE
  5
3E8
100
AcDbEntity
  8
0
100
AcDbLine
 62
7
  6
CONTINUOUS
 10
150.8450953443
 20
172.5927142263
 11
150.8450953443
 21
175.3933014824
  0
LINE
  5
3E9
100
AcDbEntity
  8
0
100
AcDbLine
 62
7
  6
CONTINUOUS
 10
152.6388687443
 20
167.7159048403
 11
152.6388687443
 21
123.5580142263
  0
LINE
  5
3EA
100
AcDbEntity
  8
0
100
AcDbLine
 62
7
  6
CONTINUOUS
 10
152.9659445443
 20
186.3282765722
 11
152.9659445443
 21
188.5693142263
  0
LINE
  5
3EB
100
AcDbEntity
  8
0
100
AcDbLine
 62
7
  6
CONTINUOUS
 10
152.9659445443
 20
189.9917142263
 11
152.9659445443
 21
192.8873142263
  0
LINE
  5
3EC
100
AcDbEntity
  8
0
100
AcDbLine
 62
7
  6
CONTINUOUS
 10
152.9659445443
 20
194.3097142263
 11
152.9659445443
 21
194.766922693
  0
LINE
  5
3ED
100
AcDbEntity
  8
0
100
AcDbLine
 62
7
  6
CONTINUOUS
 10
153.2834953443
 20
175.1547284538
 11
153.2834953443
 21
172.5927142263
  0
LINE
  5
3EE
100
AcDbEntity
  8
0
100
AcDbLine
 62
7
  6
CONTINUOUS
 10
153.675410753
 20
174.1048801673
 11
153.675410753
 21
172.5927142263
  0
LINE
  5
3EF
100
AcDbEntity
  8
0
100
AcDbLine
 62
7
  6
CONTINUOUS
 10
153.7218512601
 20
178.8569211226
 11
153.7218512601
 21
179.9333142263
  0
LINE
  5
3F0
100
AcDbEntity
  8
0
100
AcDbLine
 62
7
  6
CONTINUOUS
 10
154.0866687443
 20
123.5580142263
 11
154.0866687443
 21
167.7159048403
  0
LINE
  5
3F1
100
AcDbEntity
  8
0
100
AcDbLine
 62
7
  6
CONTINUOUS
 10
156.3227831443
 20
172.5927142263
 11
156.3227831443
 21
175.6153142263
  0
LINE
  5
3F2
100
AcDbEntity
  8
0
100
AcDbLine
 62
7
  6
CONTINUOUS
 10
156.3227831443
 20
177.0377142263
 11
156.3227831443
 21
179.9333142263
  0
LINE
  5
3F3
100
AcDbEntity
  8
0
100
AcDbLine
 62
7
  6
CONTINUOUS
 10
156.3227831443
 20
181.3557142263
 11
156.3227831443
 21
184.2513142263
  0
LINE
  5
3F4
100
AcDbEntity
  8
0
100
AcDbLine
 62
7
  6
CONTINUOUS
 10
156.3227831443
 20
185.6737142263
 11
156.3227831443
 21
188.5693142263
  0
LINE
  5
3F5
100
AcDbEntity
  8
0
100
AcDbLine
 62
7
  6
CONTINUOUS
 10
156.3227831443
 20
189.9917142263
 11
156.3227831443
 21
192.8873142263
  0
LINE
  5
3F6
100
AcDbEntity
  8
0
100
AcDbLine
 62
7
  6
CONTINUOUS
 10
156.3227831443
 20
194.3097142263
 11
156.3227831443
 21
203.3825020266
  0
LINE
  5
3F7
100
AcDbEntity
  8
0
100
AcDbLine
 62
7
  6
CONTINUOUS
 10
156.8044687443
 20
167.7159048403
 11
156.8044687443
 21
123.5580142263
  0
LINE
  5
3F8
100
AcDbEntity
  8
0
100
AcDbLine
 62
7
  6
CONTINUOUS
 10
146.2516941441
 20
118.8050318164
 11
146.4214284763
 21
120.3137814361
  0
LINE
  5
3F9
100
AcDbEntity
  8
0
100
AcDbLine
 62
7
  6
CONTINUOUS
 10
105.8783831443
 20
203.3825020266
 11
120.6103831443
 21
203.3825020266
  0
LINE
  5
3FA
100
AcDbEntity
  8
0
100
AcDbLine
 62
7
  6
CONTINUOUS
 10
145.7817831443
 20
203.3825020266
 11
160.5137831443
 21
203.3825020266
  0
LINE
  5
3FB
100
AcDbEntity
  8
0
100
AcDbLine
 62
7
  6
CONTINUOUS
 10
185.6851831443
 20
203.3825020266
 11
200.4171831443
 21
203.3825020266
  0
LINE
  5
3FC
100
AcDbEntity
  8
0
100
AcDbLine
 62
7
  6
CONTINUOUS
 10
78.2177941441
 20
205.8087006263
 11
69.4801941441
 21
205.8087006263
  0
LINE
  5
3FD
100
AcDbEntity
  8
0
100
AcDbLine
 62
7
  6
CONTINUOUS
 10
158.6087831443
 20
197.2053142261
 11
158.6087831443
 21
195.3003142262
  0
LINE
  5
3FE
100
AcDbEntity
  8
0
100
AcDbLine
 62
7
  6
CONTINUOUS
 10
158.6087831443
 20
192.8873142262
 11
158.6087831443
 21
190.9823142262
  0
LINE
  5
3FF
100
AcDbEntity
  8
0
100
AcDbLine
 62
7
  6
CONTINUOUS
 10
158.6087831443
 20
188.5693142262
 11
158.6087831443
 21
186.6643142262
  0
LINE
  5
400
100
AcDbEntity
  8
0
100
AcDbLine
 62
7
  6
CONTINUOUS
 10
158.6087831443
 20
184.2513142262
 11
158.6087831443
 21
182.3463142262
  0
LINE
  5
401
100
AcDbEntity
  8
0
100
AcDbLine
 62
7
  6
CONTINUOUS
 10
158.6087831443
 20
179.9333142262
 11
158.6087831443
 21
178.0283142262
  0
LINE
  5
402
100
AcDbEntity
  8
0
100
AcDbLine
 62
7
  6
CONTINUOUS
 10
158.6087831443
 20
175.6153142263
 11
158.6087831443
 21
173.7103142263
  0
LINE
  5
403
100
AcDbEntity
  8
0
100
AcDbLine
 62
7
  6
CONTINUOUS
 10
159.7517831443
 20
194.3097142263
 11
159.7517831443
 21
192.8873142263
  0
LINE
  5
404
100
AcDbEntity
  8
0
100
AcDbLine
 62
7
  6
CONTINUOUS
 10
159.7517831443
 20
189.9917142263
 11
159.7517831443
 21
188.5693142263
  0
LINE
  5
405
100
AcDbEntity
  8
0
100
AcDbLine
 62
7
  6
CONTINUOUS
 10
159.7517831443
 20
185.6737142263
 11
159.7517831443
 21
184.2513142263
  0
LINE
  5
406
100
AcDbEntity
  8
0
100
AcDbLine
 62
7
  6
CONTINUOUS
 10
159.7517831443
 20
181.3557142263
 11
159.7517831443
 21
179.9333142263
  0
LINE
  5
407
100
AcDbEntity
  8
0
100
AcDbLine
 62
7
  6
CONTINUOUS
 10
159.7517831443
 20
177.0377142263
 11
159.7517831443
 21
175.6153142263
  0
LINE
  5
408
100
AcDbEntity
  8
0
100
AcDbLine
 62
7
  6
CONTINUOUS
 10
159.7517831443
 20
172.5927142263
 11
159.7517831443
 21
171.1703142263
  0
LINE
  5
409
100
AcDbEntity
  8
0
100
AcDbLine
 62
7
  6
CONTINUOUS
 10
160.2597831443
 20
171.1703142263
 11
160.2597831443
 21
172.5927142263
  0
LINE
  5
40A
100
AcDbEntity
  8
0
100
AcDbLine
 62
7
  6
CONTINUOUS
 10
160.2597831443
 20
175.6153142263
 11
160.2597831443
 21
177.0377142263
  0
LINE
  5
40B
100
AcDbEntity
  8
0
100
AcDbLine
 62
7
  6
CONTINUOUS
 10
160.2597831443
 20
179.9333142263
 11
160.2597831443
 21
181.3557142263
  0
LINE
  5
40C
100
AcDbEntity
  8
0
100
AcDbLine
 62
7
  6
CONTINUOUS
 10
160.2597831443
 20
184.2513142263
 11
160.2597831443
 21
185.6737142263
  0
LINE
  5
40D
100
AcDbEntity
  8
0
100
AcDbLine
 62
7
  6
CONTINUOUS
 10
160.2597831443
 20
188.5693142263
 11
160.2597831443
 21
189.9917142263
  0
LINE
  5
40E
100
AcDbEntity
  8
0
100
AcDbLine
 62
7
  6
CONTINUOUS
 10
160.2597831443
 20
192.8873142263
 11
160.2597831443
 21
194.3097142263
  0
LINE
  5
40F
100
AcDbEntity
  8
0
100
AcDbLine
 62
7
  6
CONTINUOUS
 10
160.5137831443
 20
215.8743142262
 11
160.5137831443
 21
197.2053142261
  0
LINE
  5
410
100
AcDbEntity
  8
0
100
AcDbLine
 62
7
  6
CONTINUOUS
 10
160.5137831443
 20
195.3003142262
 11
160.5137831443
 21
192.8873142262
  0
LINE
  5
411
100
AcDbEntity
  8
0
100
AcDbLine
 62
7
  6
CONTINUOUS
 10
160.5137831443
 20
190.9823142262
 11
160.5137831443
 21
188.5693142262
  0
LINE
  5
412
100
AcDbEntity
  8
0
100
AcDbLine
 62
7
  6
CONTINUOUS
 10
160.5137831443
 20
186.6643142262
 11
160.5137831443
 21
184.2513142262
  0
LINE
  5
413
100
AcDbEntity
  8
0
100
AcDbLine
 62
7
  6
CONTINUOUS
 10
160.5137831443
 20
182.3463142262
 11
160.5137831443
 21
179.9333142262
  0
LINE
  5
414
100
AcDbEntity
  8
0
100
AcDbLine
 62
7
  6
CONTINUOUS
 10
160.5137831443
 20
178.0283142262
 11
160.5137831443
 21
175.6153142263
  0
LINE
  5
415
100
AcDbEntity
  8
0
100
AcDbLine
 62
7
  6
CONTINUOUS
 10
160.5137831443
 20
173.7103142263
 11
160.5137831443
 21
171.1703142263
  0
LINE
  5
416
100
AcDbEntity
  8
0
100
AcDbLine
 62
7
  6
CONTINUOUS
 10
160.7002445443
 20
217.5761142263
 11
160.7002445443
 21
218.9924270054
  0
LINE
  5
417
100
AcDbEntity
  8
0
100
AcDbLine
 62
7
  6
CONTINUOUS
 10
161.7837831443
 20
171.1703142263
 11
161.7837831443
 21
215.8743142263
  0
LINE
  5
418
100
AcDbEntity
  8
0
100
AcDbLine
 62
7
  6
CONTINUOUS
 10
161.9456827443
 20
116.5464966263
 11
161.9456827443
 21
118.6546966263
  0
LINE
  5
419
100
AcDbEntity
  8
0
100
AcDbLine
 62
7
  6
CONTINUOUS
 10
162.4314831443
 20
169.4685142263
 11
162.4314831443
 21
167.7159048403
  0
LINE
  5
41A
100
AcDbEntity
  8
0
100
AcDbLine
 62
7
  6
CONTINUOUS
 10
162.4314831443
 20
171.1703142263
 11
162.4314831443
 21
172.4911142263
  0
LINE
  5
41B
100
AcDbEntity
  8
0
100
AcDbLine
 62
7
  6
CONTINUOUS
 10
162.5290445443
 20
172.4911142263
 11
162.5290445443
 21
171.1703142263
  0
LINE
  5
41C
100
AcDbEntity
  8
0
100
AcDbLine
 62
7
  6
CONTINUOUS
 10
162.5290445443
 20
169.4685142263
 11
162.5290445443
 21
167.7159075842
  0
LINE
  5
41D
100
AcDbEntity
  8
0
100
AcDbLine
 62
7
  6
CONTINUOUS
 10
163.4696827443
 20
116.5464966263
 11
163.4696827443
 21
121.1174806263
  0
LINE
  5
41E
100
AcDbEntity
  8
0
100
AcDbLine
 62
7
  6
CONTINUOUS
 10
164.4848445443
 20
167.7159048403
 11
164.4848445443
 21
169.4685142263
  0
LINE
  5
41F
100
AcDbEntity
  8
0
100
AcDbLine
 62
7
  6
CONTINUOUS
 10
164.5768582539
 20
139.6616048403
 11
164.5768582539
 21
167.7159048403
  0
LINE
  5
420
100
AcDbEntity
  8
0
100
AcDbLine
 62
7
  6
CONTINUOUS
 10
63.6127941441
 20
208.5452966263
 11
61.1743941441
 21
208.5452966263
  0
LINE
  5
421
100
AcDbEntity
  8
0
100
AcDbLine
 62
7
  6
CONTINUOUS
 10
78.2177941441
 20
209.8086926263
 11
69.4801941441
 21
209.8086926263
  0
LINE
  5
422
100
AcDbEntity
  8
0
100
AcDbLine
 62
7
  6
CONTINUOUS
 10
166.0223827443
 20
121.1174806263
 11
166.0223827443
 21
120.2294966263
  0
LINE
  5
423
100
AcDbEntity
  8
0
100
AcDbLine
 62
7
  6
CONTINUOUS
 10
166.1612445443
 20
218.9924363915
 11
166.1612445443
 21
217.5761142263
  0
LINE
  5
424
100
AcDbEntity
  8
0
100
AcDbLine
 62
7
  6
CONTINUOUS
 10
166.2160831443
 20
169.4685142263
 11
166.2160831443
 21
156.8701142263
  0
LINE
  5
425
100
AcDbEntity
  8
0
100
AcDbLine
 62
7
  6
CONTINUOUS
 10
166.2160831443
 20
171.1703142263
 11
166.2160831443
 21
172.4911142263
  0
LINE
  5
426
100
AcDbEntity
  8
0
100
AcDbLine
 62
7
  6
CONTINUOUS
 10
166.7200445443
 20
153.2379142263
 11
166.7200445443
 21
139.6616048403
  0
LINE
  5
427
100
AcDbEntity
  8
0
100
AcDbLine
 62
7
  6
CONTINUOUS
 10
168.6948945443
 20
153.2379142263
 11
168.6948945443
 21
153.8729142263
  0
LINE
  5
428
100
AcDbEntity
  8
0
100
AcDbLine
 62
7
  6
CONTINUOUS
 10
168.7596789901
 20
153.8729142263
 11
168.7596789901
 21
155.1429142263
  0
LINE
  5
429
100
AcDbEntity
  8
0
100
AcDbLine
 62
7
  6
CONTINUOUS
 10
169.1711450158
 20
146.4434142263
 11
169.1711450158
 21
145.5930390299
  0
LINE
  5
42A
100
AcDbEntity
  8
0
100
AcDbLine
 62
7
  6
CONTINUOUS
 10
170.3268445443
 20
127.6474142264
 11
170.3268445443
 21
141.8714142264
  0
LINE
  5
42B
100
AcDbEntity
  8
0
100
AcDbLine
 62
7
  6
CONTINUOUS
 10
165.6794827443
 20
117.1814966263
 11
166.0223827443
 21
120.2294966263
  0
LINE
  5
42C
100
AcDbEntity
  8
0
100
AcDbLine
 62
7
  6
CONTINUOUS
 10
61.1743941441
 20
214.8952966263
 11
63.6127941441
 21
214.8952966263
  0
LINE
  5
42D
100
AcDbEntity
  8
0
100
AcDbLine
 62
7
  6
CONTINUOUS
 10
67.5497941441
 20
214.9206924242
 11
63.6127941441
 21
214.9206924242
  0
LINE
  5
42E
100
AcDbEntity
  8
0
100
AcDbLine
 62
7
  6
CONTINUOUS
 10
72.9599941441
 20
214.9206924242
 11
81.3927941441
 21
214.9206924242
  0
LINE
  5
42F
100
AcDbEntity
  8
0
100
AcDbLine
 62
7
  6
CONTINUOUS
 10
88.1364831443
 20
215.8743142263
 11
103.8590831443
 21
215.8743142263
  0
LINE
  5
430
100
AcDbEntity
  8
0
100
AcDbLine
 62
7
  6
CONTINUOUS
 10
105.8783831443
 20
215.8743142262
 11
120.6103831443
 21
215.8743142262
  0
LINE
  5
431
100
AcDbEntity
  8
0
100
AcDbLine
 62
7
  6
CONTINUOUS
 10
121.8803831443
 20
215.8743142263
 11
144.5117831443
 21
215.8743142263
  0
LINE
  5
432
100
AcDbEntity
  8
0
100
AcDbLine
 62
7
  6
CONTINUOUS
 10
145.7817831443
 20
215.8743142262
 11
160.5137831443
 21
215.8743142262
  0
LINE
  5
433
100
AcDbEntity
  8
0
100
AcDbLine
 62
7
  6
CONTINUOUS
 10
161.7837831443
 20
215.8743142263
 11
184.4151831443
 21
215.8743142263
  0
LINE
  5
434
100
AcDbEntity
  8
0
100
AcDbLine
 62
7
  6
CONTINUOUS
 10
185.6851831443
 20
215.8743142262
 11
200.4171831443
 21
215.8743142262
  0
LINE
  5
435
100
AcDbEntity
  8
0
100
AcDbLine
 62
7
  6
CONTINUOUS
 10
67.5497941441
 20
216.698692247
 11
72.9599941441
 21
216.698692247
  0
LINE
  5
436
100
AcDbEntity
  8
0
100
AcDbLine
 62
7
  6
CONTINUOUS
 10
86.1044831443
 20
217.5761142263
 11
205.1288831443
 21
217.5761142263
  0
LINE
  5
437
100
AcDbEntity
  8
0
100
AcDbLine
 62
7
  6
CONTINUOUS
 10
205.2895948418
 20
118.1466966263
 11
203.7943823523
 21
120.7364806263
  0
LINE
  5
438
100
AcDbEntity
  8
0
100
AcDbLine
 62
7
  6
CONTINUOUS
 10
207.4013111864
 20
119.3658966263
 11
205.9060986969
 21
121.9556806263
  0
LINE
  5
439
100
AcDbEntity
  8
0
100
AcDbLine
 62
7
  6
CONTINUOUS
 10
173.0700454872
 20
146.4434142263
 11
173.0700454872
 21
143.1795142263
  0
LINE
  5
43A
100
AcDbEntity
  8
0
100
AcDbLine
 62
7
  6
CONTINUOUS
 10
175.8132445443
 20
127.6474142264
 11
175.8132445443
 21
141.8714142264
  0
LINE
  5
43B
100
AcDbEntity
  8
0
100
AcDbLine
 62
7
  6
CONTINUOUS
 10
176.9689450158
 20
146.4434142263
 11
176.9689450158
 21
145.5928585782
  0
LINE
  5
43C
100
AcDbEntity
  8
0
100
AcDbLine
 62
7
  6
CONTINUOUS
 10
177.3804100985
 20
155.1429142263
 11
177.3804100985
 21
153.8729142263
  0
LINE
  5
43D
100
AcDbEntity
  8
0
100
AcDbLine
 62
7
  6
CONTINUOUS
 10
177.4451945443
 20
153.2379142263
 11
177.4451945443
 21
153.8729142263
  0
LINE
  5
43E
100
AcDbEntity
  8
0
100
AcDbLine
 62
7
  6
CONTINUOUS
 10
179.4200445443
 20
139.6616048403
 11
179.4200445443
 21
153.2379142263
  0
LINE
  5
43F
100
AcDbEntity
  8
0
100
AcDbLine
 62
7
  6
CONTINUOUS
 10
180.6863107443
 20
140.2784278263
 11
180.6863107443
 21
154.5024278263
  0
LINE
  5
440
100
AcDbEntity
  8
0
100
AcDbLine
 62
7
  6
CONTINUOUS
 10
180.9344582539
 20
167.7159048403
 11
180.9344582539
 21
139.6616048403
  0
LINE
  5
441
100
AcDbEntity
  8
0
100
AcDbLine
 62
7
  6
CONTINUOUS
 10
181.4814831443
 20
169.4685142263
 11
181.4814831443
 21
167.7159048403
  0
LINE
  5
442
100
AcDbEntity
  8
0
100
AcDbLine
 62
7
  6
CONTINUOUS
 10
183.7674831443
 20
169.2399142263
 11
183.7674831443
 21
167.7159048403
  0
LINE
  5
443
100
AcDbEntity
  8
0
100
AcDbLine
 62
7
  6
CONTINUOUS
 10
184.4151831443
 20
215.8743142263
 11
184.4151831443
 21
171.1703142263
  0
LINE
  5
444
100
AcDbEntity
  8
0
100
AcDbLine
 62
7
  6
CONTINUOUS
 10
184.8056827443
 20
120.2080906161
 11
184.8056827443
 21
116.5464966263
  0
LINE
  5
445
100
AcDbEntity
  8
0
100
AcDbLine
 62
7
  6
CONTINUOUS
 10
185.6851831443
 20
171.1703142263
 11
185.6851831443
 21
173.7103142263
  0
LINE
  5
446
100
AcDbEntity
  8
0
100
AcDbLine
 62
7
  6
CONTINUOUS
 10
185.6851831443
 20
175.6153142263
 11
185.6851831443
 21
178.0283142262
  0
LINE
  5
447
100
AcDbEntity
  8
0
100
AcDbLine
 62
7
  6
CONTINUOUS
 10
185.6851831443
 20
179.9333142262
 11
185.6851831443
 21
182.3463142262
  0
LINE
  5
448
100
AcDbEntity
  8
0
100
AcDbLine
 62
7
  6
CONTINUOUS
 10
185.6851831443
 20
184.2513142262
 11
185.6851831443
 21
186.6643142262
  0
LINE
  5
449
100
AcDbEntity
  8
0
100
AcDbLine
 62
7
  6
CONTINUOUS
 10
185.6851831443
 20
188.5693142262
 11
185.6851831443
 21
190.9823142262
  0
LINE
  5
44A
100
AcDbEntity
  8
0
100
AcDbLine
 62
7
  6
CONTINUOUS
 10
185.6851831443
 20
192.8873142262
 11
185.6851831443
 21
195.3003142262
  0
LINE
  5
44B
100
AcDbEntity
  8
0
100
AcDbLine
 62
7
  6
CONTINUOUS
 10
185.6851831443
 20
197.2053142261
 11
185.6851831443
 21
215.8743142262
  0
LINE
  5
44C
100
AcDbEntity
  8
0
100
AcDbLine
 62
7
  6
CONTINUOUS
 10
185.9391831443
 20
194.3097142263
 11
185.9391831443
 21
192.8873142263
  0
LINE
  5
44D
100
AcDbEntity
  8
0
100
AcDbLine
 62
7
  6
CONTINUOUS
 10
185.9391831443
 20
189.9917142263
 11
185.9391831443
 21
188.5693142263
  0
LINE
  5
44E
100
AcDbEntity
  8
0
100
AcDbLine
 62
7
  6
CONTINUOUS
 10
185.9391831443
 20
185.6737142263
 11
185.9391831443
 21
184.2513142263
  0
LINE
  5
44F
100
AcDbEntity
  8
0
100
AcDbLine
 62
7
  6
CONTINUOUS
 10
185.9391831443
 20
181.3557142263
 11
185.9391831443
 21
179.9333142263
  0
LINE
  5
450
100
AcDbEntity
  8
0
100
AcDbLine
 62
7
  6
CONTINUOUS
 10
185.9391831443
 20
177.0377142263
 11
185.9391831443
 21
175.6153142263
  0
LINE
  5
451
100
AcDbEntity
  8
0
100
AcDbLine
 62
7
  6
CONTINUOUS
 10
185.9391831443
 20
172.5927142263
 11
185.9391831443
 21
171.1703142263
  0
LINE
  5
452
100
AcDbEntity
  8
0
100
AcDbLine
 62
7
  6
CONTINUOUS
 10
186.1727107443
 20
140.2784278263
 11
186.1727107443
 21
154.5024278263
  0
LINE
  5
453
100
AcDbEntity
  8
0
100
AcDbLine
 62
7
  6
CONTINUOUS
 10
186.4471831443
 20
194.3097142263
 11
186.4471831443
 21
192.8873142263
  0
LINE
  5
454
100
AcDbEntity
  8
0
100
AcDbLine
 62
7
  6
CONTINUOUS
 10
186.4471831443
 20
189.9917142263
 11
186.4471831443
 21
188.5693142263
  0
LINE
  5
455
100
AcDbEntity
  8
0
100
AcDbLine
 62
7
  6
CONTINUOUS
 10
186.4471831443
 20
185.6737142263
 11
186.4471831443
 21
184.2513142263
  0
LINE
  5
456
100
AcDbEntity
  8
0
100
AcDbLine
 62
7
  6
CONTINUOUS
 10
186.4471831443
 20
181.3557142263
 11
186.4471831443
 21
179.9333142263
  0
LINE
  5
457
100
AcDbEntity
  8
0
100
AcDbLine
 62
7
  6
CONTINUOUS
 10
186.4471831443
 20
177.0377142263
 11
186.4471831443
 21
175.6153142263
  0
LINE
  5
458
100
AcDbEntity
  8
0
100
AcDbLine
 62
7
  6
CONTINUOUS
 10
186.4471831443
 20
172.5927142263
 11
186.4471831443
 21
171.1703142263
  0
LINE
  5
459
100
AcDbEntity
  8
0
100
AcDbLine
 62
7
  6
CONTINUOUS
 10
187.1583941441
 20
116.5464966263
 11
187.1583941441
 21
118.9848966263
  0
LINE
  5
45A
100
AcDbEntity
  8
0
100
AcDbLine
 62
7
  6
CONTINUOUS
 10
187.5901831443
 20
173.7103142263
 11
187.5901831443
 21
175.6153142263
  0
LINE
  5
45B
100
AcDbEntity
  8
0
100
AcDbLine
 62
7
  6
CONTINUOUS
 10
187.5901831443
 20
178.0283142262
 11
187.5901831443
 21
179.9333142262
  0
LINE
  5
45C
100
AcDbEntity
  8
0
100
AcDbLine
 62
7
  6
CONTINUOUS
 10
187.5901831443
 20
182.3463142262
 11
187.5901831443
 21
184.2513142262
  0
LINE
  5
45D
100
AcDbEntity
  8
0
100
AcDbLine
 62
7
  6
CONTINUOUS
 10
187.5901831443
 20
186.6643142262
 11
187.5901831443
 21
188.5693142262
  0
LINE
  5
45E
100
AcDbEntity
  8
0
100
AcDbLine
 62
7
  6
CONTINUOUS
 10
187.5901831443
 20
190.9823142262
 11
187.5901831443
 21
192.8873142262
  0
LINE
  5
45F
100
AcDbEntity
  8
0
100
AcDbLine
 62
7
  6
CONTINUOUS
 10
187.5901831443
 20
195.3003142262
 11
187.5901831443
 21
197.2053142261
  0
LINE
  5
460
100
AcDbEntity
  8
0
100
AcDbLine
 62
7
  6
CONTINUOUS
 10
146.6318011263
 20
121.0335831521
 11
146.6123228251
 21
121.0251559016
  0
LINE
  5
461
100
AcDbEntity
  8
0
100
AcDbLine
 62
7
  6
CONTINUOUS
 10
146.5926496661
 20
121.1237355203
 11
146.5725292538
 21
121.1174806263
  0
LINE
  5
462
100
AcDbEntity
  8
0
100
AcDbLine
 62
7
  6
CONTINUOUS
 10
188.6823941441
 20
118.9848966263
 11
188.6823941441
 21
116.5464966263
  0
LINE
  5
463
100
AcDbEntity
  8
0
100
AcDbLine
 62
7
  6
CONTINUOUS
 10
189.5577687443
 20
123.5580142263
 11
189.5577687443
 21
167.7159048403
  0
LINE
  5
464
100
AcDbEntity
  8
0
100
AcDbLine
 62
7
  6
CONTINUOUS
 10
189.8761831443
 20
172.5927142263
 11
189.8761831443
 21
175.6153142263
  0
LINE
  5
465
100
AcDbEntity
  8
0
100
AcDbLine
 62
7
  6
CONTINUOUS
 10
189.8761831443
 20
177.0377142263
 11
189.8761831443
 21
179.9333142263
  0
LINE
  5
466
100
AcDbEntity
  8
0
100
AcDbLine
 62
7
  6
CONTINUOUS
 10
189.8761831443
 20
181.3557142263
 11
189.8761831443
 21
184.2513142263
  0
LINE
  5
467
100
AcDbEntity
  8
0
100
AcDbLine
 62
7
  6
CONTINUOUS
 10
189.8761831443
 20
185.6737142263
 11
189.8761831443
 21
188.5693142263
  0
LINE
  5
468
100
AcDbEntity
  8
0
100
AcDbLine
 62
7
  6
CONTINUOUS
 10
189.8761831443
 20
189.9917142263
 11
189.8761831443
 21
192.8873142263
  0
LINE
  5
469
100
AcDbEntity
  8
0
100
AcDbLine
 62
7
  6
CONTINUOUS
 10
189.8761831443
 20
194.3097142263
 11
189.8761831443
 21
203.3825020266
  0
LINE
  5
46A
100
AcDbEntity
  8
0
100
AcDbLine
 62
7
  6
CONTINUOUS
 10
190.7484953443
 20
172.5927142263
 11
190.7484953443
 21
175.5868007368
  0
LINE
  5
46B
100
AcDbEntity
  8
0
100
AcDbLine
 62
7
  6
CONTINUOUS
 10
192.2755687443
 20
167.7159048403
 11
192.2755687443
 21
123.5580142263
  0
LINE
  5
46C
100
AcDbEntity
  8
0
100
AcDbLine
 62
7
  6
CONTINUOUS
 10
193.1868953443
 20
174.4375164535
 11
193.1868953443
 21
172.5927142263
  0
LINE
  5
46D
100
AcDbEntity
  8
0
100
AcDbLine
 62
7
  6
CONTINUOUS
 10
193.299410753
 20
174.1048801673
 11
193.299410753
 21
172.5927142263
  0
LINE
  5
46E
100
AcDbEntity
  8
0
100
AcDbLine
 62
7
  6
CONTINUOUS
 10
193.3458512601
 20
178.8569211226
 11
193.3458512601
 21
179.9333142263
  0
LINE
  5
46F
100
AcDbEntity
  8
0
100
AcDbLine
 62
7
  6
CONTINUOUS
 10
193.8503687443
 20
123.5580142263
 11
193.8503687443
 21
167.7159048403
  0
LINE
  5
470
100
AcDbEntity
  8
0
100
AcDbLine
 62
7
  6
CONTINUOUS
 10
196.2261831443
 20
172.5927142263
 11
196.2261831443
 21
175.6153142263
  0
LINE
  5
471
100
AcDbEntity
  8
0
100
AcDbLine
 62
7
  6
CONTINUOUS
 10
196.2261831443
 20
177.0377142263
 11
196.2261831443
 21
179.9333142263
  0
LINE
  5
472
100
AcDbEntity
  8
0
100
AcDbLine
 62
7
  6
CONTINUOUS
 10
196.2261831443
 20
181.3557142263
 11
196.2261831443
 21
184.2513142263
  0
LINE
  5
473
100
AcDbEntity
  8
0
100
AcDbLine
 62
7
  6
CONTINUOUS
 10
196.2261831443
 20
185.6737142263
 11
196.2261831443
 21
188.5693142263
  0
LINE
  5
474
100
AcDbEntity
  8
0
100
AcDbLine
 62
7
  6
CONTINUOUS
 10
196.2261831443
 20
189.9917142263
 11
196.2261831443
 21
192.8873142263
  0
LINE
  5
475
100
AcDbEntity
  8
0
100
AcDbLine
 62
7
  6
CONTINUOUS
 10
196.2261831443
 20
194.3097142263
 11
196.2261831443
 21
203.3825020266
  0
LINE
  5
476
100
AcDbEntity
  8
0
100
AcDbLine
 62
7
  6
CONTINUOUS
 10
196.5681687443
 20
167.7159048403
 11
196.5681687443
 21
123.5580142263
  0
LINE
  5
477
100
AcDbEntity
  8
0
100
AcDbLine
 62
7
  6
CONTINUOUS
 10
198.5121831443
 20
197.2053142261
 11
198.5121831443
 21
195.3003142262
  0
LINE
  5
478
100
AcDbEntity
  8
0
100
AcDbLine
 62
7
  6
CONTINUOUS
 10
198.5121831443
 20
192.8873142262
 11
198.5121831443
 21
190.9823142262
  0
LINE
  5
479
100
AcDbEntity
  8
0
100
AcDbLine
 62
7
  6
CONTINUOUS
 10
198.5121831443
 20
188.5693142262
 11
198.5121831443
 21
186.6643142262
  0
LINE
  5
47A
100
AcDbEntity
  8
0
100
AcDbLine
 62
7
  6
CONTINUOUS
 10
198.5121831443
 20
184.2513142262
 11
198.5121831443
 21
182.3463142262
  0
LINE
  5
47B
100
AcDbEntity
  8
0
100
AcDbLine
 62
7
  6
CONTINUOUS
 10
198.5121831443
 20
179.9333142262
 11
198.5121831443
 21
178.0283142262
  0
LINE
  5
47C
100
AcDbEntity
  8
0
100
AcDbLine
 62
7
  6
CONTINUOUS
 10
198.5121831443
 20
175.6153142263
 11
198.5121831443
 21
173.7103142263
  0
LINE
  5
47D
100
AcDbEntity
  8
0
100
AcDbLine
 62
7
  6
CONTINUOUS
 10
199.5526687443
 20
123.5580142263
 11
199.5526687443
 21
167.7159048403
  0
LINE
  5
47E
100
AcDbEntity
  8
0
100
AcDbLine
 62
7
  6
CONTINUOUS
 10
199.6551831443
 20
194.3097142263
 11
199.6551831443
 21
192.8873142263
  0
LINE
  5
47F
100
AcDbEntity
  8
0
100
AcDbLine
 62
7
  6
CONTINUOUS
 10
199.6551831443
 20
189.9917142263
 11
199.6551831443
 21
188.5693142263
  0
LINE
  5
480
100
AcDbEntity
  8
0
100
AcDbLine
 62
7
  6
CONTINUOUS
 10
199.6551831443
 20
185.6737142263
 11
199.6551831443
 21
184.2513142263
  0
LINE
  5
481
100
AcDbEntity
  8
0
100
AcDbLine
 62
7
  6
CONTINUOUS
 10
199.6551831443
 20
181.3557142263
 11
199.6551831443
 21
179.9333142263
  0
LINE
  5
482
100
AcDbEntity
  8
0
100
AcDbLine
 62
7
  6
CONTINUOUS
 10
199.6551831443
 20
177.0377142263
 11
199.6551831443
 21
175.6153142263
  0
LINE
  5
483
100
AcDbEntity
  8
0
100
AcDbLine
 62
7
  6
CONTINUOUS
 10
199.6551831443
 20
172.5927142263
 11
199.6551831443
 21
171.1703142263
  0
LINE
  5
484
100
AcDbEntity
  8
0
100
AcDbLine
 62
7
  6
CONTINUOUS
 10
200.1631831443
 20
171.1703142263
 11
200.1631831443
 21
172.5927142263
  0
LINE
  5
485
100
AcDbEntity
  8
0
100
AcDbLine
 62
7
  6
CONTINUOUS
 10
200.1631831443
 20
175.6153142263
 11
200.1631831443
 21
177.0377142263
  0
LINE
  5
486
100
AcDbEntity
  8
0
100
AcDbLine
 62
7
  6
CONTINUOUS
 10
200.1631831443
 20
179.9333142263
 11
200.1631831443
 21
181.3557142263
  0
LINE
  5
487
100
AcDbEntity
  8
0
100
AcDbLine
 62
7
  6
CONTINUOUS
 10
200.1631831443
 20
184.2513142263
 11
200.1631831443
 21
185.6737142263
  0
LINE
  5
488
100
AcDbEntity
  8
0
100
AcDbLine
 62
7
  6
CONTINUOUS
 10
200.1631831443
 20
188.5693142263
 11
200.1631831443
 21
189.9917142263
  0
LINE
  5
489
100
AcDbEntity
  8
0
100
AcDbLine
 62
7
  6
CONTINUOUS
 10
200.1631831443
 20
192.8873142263
 11
200.1631831443
 21
194.3097142263
  0
LINE
  5
48A
100
AcDbEntity
  8
0
100
AcDbLine
 62
7
  6
CONTINUOUS
 10
200.4171831443
 20
215.8743142262
 11
200.4171831443
 21
197.2053142261
  0
LINE
  5
48B
100
AcDbEntity
  8
0
100
AcDbLine
 62
7
  6
CONTINUOUS
 10
200.4171831443
 20
195.3003142262
 11
200.4171831443
 21
192.8873142262
  0
LINE
  5
48C
100
AcDbEntity
  8
0
100
AcDbLine
 62
7
  6
CONTINUOUS
 10
200.4171831443
 20
190.9823142262
 11
200.4171831443
 21
188.5693142262
  0
LINE
  5
48D
100
AcDbEntity
  8
0
100
AcDbLine
 62
7
  6
CONTINUOUS
 10
200.4171831443
 20
186.6643142262
 11
200.4171831443
 21
184.2513142262
  0
LINE
  5
48E
100
AcDbEntity
  8
0
100
AcDbLine
 62
7
  6
CONTINUOUS
 10
200.4171831443
 20
182.3463142262
 11
200.4171831443
 21
179.9333142262
  0
LINE
  5
48F
100
AcDbEntity
  8
0
100
AcDbLine
 62
7
  6
CONTINUOUS
 10
200.4171831443
 20
178.0283142262
 11
200.4171831443
 21
175.6153142263
  0
LINE
  5
490
100
AcDbEntity
  8
0
100
AcDbLine
 62
7
  6
CONTINUOUS
 10
200.4171831443
 20
173.7103142263
 11
200.4171831443
 21
171.1703142263
  0
LINE
  5
491
100
AcDbEntity
  8
0
100
AcDbLine
 62
7
  6
CONTINUOUS
 10
200.6036445443
 20
217.5761142263
 11
200.6036445443
 21
218.9924363914
  0
LINE
  5
492
100
AcDbEntity
  8
0
100
AcDbLine
 62
7
  6
CONTINUOUS
 10
201.0648831443
 20
169.4685142263
 11
201.0648831443
 21
217.5761142263
  0
LINE
  5
493
100
AcDbEntity
  8
0
100
AcDbLine
 62
7
  6
CONTINUOUS
 10
201.3823941441
 20
121.1174806263
 11
201.3823941441
 21
123.5558806263
  0
LINE
  5
494
100
AcDbEntity
  8
0
100
AcDbLine
 62
7
  6
CONTINUOUS
 10
202.0808831443
 20
194.9701142263
 11
202.0808831443
 21
167.7159048403
  0
LINE
  5
495
100
AcDbEntity
  8
0
100
AcDbLine
 62
7
  6
CONTINUOUS
 10
202.2704687443
 20
167.7159048403
 11
202.2704687443
 21
123.5580142263
  0
LINE
  5
496
100
AcDbEntity
  8
0
100
AcDbLine
 62
7
  6
CONTINUOUS
 10
202.4324445443
 20
167.7159048403
 11
202.4324445443
 21
194.7669142263
  0
LINE
  5
497
100
AcDbEntity
  8
0
100
AcDbLine
 62
7
  6
CONTINUOUS
 10
202.9063941441
 20
123.5558806263
 11
202.9063941441
 21
121.1174806263
  0
LINE
  5
498
100
AcDbEntity
  8
0
100
AcDbLine
 62
7
  6
CONTINUOUS
 10
204.8200445443
 20
123.5580142263
 11
204.8200445443
 21
194.7669142263
  0
LINE
  5
499
100
AcDbEntity
  8
0
100
AcDbLine
 62
7
  6
CONTINUOUS
 10
204.8716827443
 20
123.0037183247
 11
204.8716827443
 21
123.1758966263
  0
LINE
  5
49A
100
AcDbEntity
  8
0
100
AcDbLine
 62
7
  6
CONTINUOUS
 10
205.0703107443
 20
123.1758966263
 11
205.0703107443
 21
162.9906587268
  0
LINE
  5
49B
100
AcDbEntity
  8
0
100
AcDbLine
 62
7
  6
CONTINUOUS
 10
205.0703107443
 20
182.0032401468
 11
205.0703107443
 21
192.3781966263
  0
LINE
  5
49C
100
AcDbEntity
  8
0
100
AcDbLine
 62
7
  6
CONTINUOUS
 10
205.1288831443
 20
194.9701142263
 11
205.1288831443
 21
217.5761142263
  0
LINE
  5
49D
100
AcDbEntity
  8
0
100
AcDbLine
 62
7
  6
CONTINUOUS
 10
206.3956827443
 20
123.2266966263
 11
206.3956827443
 21
121.1184966263
  0
LINE
  5
49E
100
AcDbEntity
  8
0
100
AcDbLine
 62
7
  6
CONTINUOUS
 10
206.9703941441
 20
116.5464966263
 11
206.9703941441
 21
116.7465859298
  0
LINE
  5
49F
100
AcDbEntity
  8
0
100
AcDbLine
 62
7
  6
CONTINUOUS
 10
209.8619445443
 20
162.9906587268
 11
209.8619445443
 21
182.0032401468
  0
LINE
  5
4A0
100
AcDbEntity
  8
0
100
AcDbLine
 62
7
  6
CONTINUOUS
 10
220.4323941441
 20
116.5464966263
 11
220.4323941441
 21
118.9848966263
  0
LINE
  5
4A1
100
AcDbEntity
  8
0
100
AcDbLine
 62
7
  6
CONTINUOUS
 10
221.9563941441
 20
118.9848966263
 11
221.9563941441
 21
116.5464966263
  0
LINE
  5
4A2
100
AcDbEntity
  8
0
100
AcDbLine
 62
7
  6
CONTINUOUS
 10
222.4135941441
 20
119.7722966263
 11
222.4135941441
 21
138.4158646032
  0
LINE
  5
4A3
100
AcDbEntity
  8
0
100
AcDbLine
 62
7
  6
CONTINUOUS
 10
224.8519941441
 20
119.7722966263
 11
224.8519941441
 21
138.4158646032
  0
ARC
  5
4A4
100
AcDbEntity
  8
0
100
AcDbCircle
 62
7
  6
CONTINUOUS
 10
103.5756445443
 20
157.5127912673
 40
37.3888
100
AcDbArc
 50
263.710684958
 51
280.3007206228
  0
ARC
  5
4A5
100
AcDbEntity
  8
0
100
AcDbCircle
 62
7
  6
CONTINUOUS
 10
49.3379941441
 20
163.8666966263
 40
5.1054
100
AcDbArc
 50
270.0
 51
360.0
  0
CIRCLE
  5
4A6
100
AcDbEntity
  8
0
100
AcDbCircle
 62
7
  6
CONTINUOUS
 10
93.2632445443
 20
147.5546642263
 40
4.37515
  0
CIRCLE
  5
4A7
100
AcDbEntity
  8
0
100
AcDbCircle
 62
7
  6
CONTINUOUS
 10
133.1666445443
 20
147.5546642263
 40
4.37515
  0
ARC
  5
4A8
100
AcDbEntity
  8
0
100
AcDbCircle
 62
7
  6
CONTINUOUS
 10
59.6503941441
 20
143.3980304263
 40
3.9624
100
AcDbArc
 50
9.5393165292
 51
44.9999999997
  0
ARC
  5
4A9
100
AcDbEntity
  8
0
100
AcDbCircle
 62
7
  6
CONTINUOUS
 10
61.8347941441
 20
148.9725717149
 40
3.9624
100
AcDbArc
 50
180.0
 51
225.0000000012
  0
ARC
  5
4AA
100
AcDbEntity
  8
0
100
AcDbCircle
 62
7
  6
CONTINUOUS
 10
65.1367941441
 20
122.9472966263
 40
3.9624
100
AcDbArc
 50
180.0
 51
248.5657780017
  0
ARC
  5
4AB
100
AcDbEntity
  8
0
100
AcDbCircle
 62
7
  6
CONTINUOUS
 10
66.8385941441
 20
119.7722966263
 40
3.2258
100
AcDbArc
 50
180.0
 51
264.1902347314
  0
ARC
  5
4AC
100
AcDbEntity
  8
0
100
AcDbCircle
 62
7
  6
CONTINUOUS
 10
80.4035657441
 20
119.7468966263
 40
3.2004
100
AcDbArc
 50
270.0
 51
330.0000000001
  0
ARC
  5
4AD
100
AcDbEntity
  8
0
100
AcDbCircle
 62
7
  6
CONTINUOUS
 10
85.3303172936
 20
120.3554806263
 40
3.2004
100
AcDbArc
 50
90.0
 51
150.0
  0
ARC
  5
4AE
100
AcDbEntity
  8
0
100
AcDbCircle
 62
7
  6
CONTINUOUS
 10
49.3379941441
 20
163.8666966263
 40
2.286
100
AcDbArc
 50
270.0
 51
360.0
  0
ARC
  5
4AF
100
AcDbEntity
  8
0
100
AcDbCircle
 62
7
  6
CONTINUOUS
 10
61.8347941441
 20
148.9725717149
 40
1.524
100
AcDbArc
 50
180.0
 51
225.0000000026
  0
ARC
  5
4B0
100
AcDbEntity
  8
0
100
AcDbCircle
 62
7
  6
CONTINUOUS
 10
59.6503941441
 20
143.3980304263
 40
1.524
100
AcDbArc
 50
0.0
 51
44.9999999978
  0
ARC
  5
4B1
100
AcDbEntity
  8
0
100
AcDbCircle
 62
7
  6
CONTINUOUS
 10
66.8385941441
 20
119.7722966263
 40
0.7874
100
AcDbArc
 50
180.0
 51
270.0
  0
ARC
  5
4B2
100
AcDbEntity
  8
0
100
AcDbCircle
 62
7
  6
CONTINUOUS
 10
80.4035657441
 20
119.7468966263
 40
0.762
100
AcDbArc
 50
270.0
 51
330.0000000004
  0
ARC
  5
4B3
100
AcDbEntity
  8
0
100
AcDbCircle
 62
7
  6
CONTINUOUS
 10
85.3303172936
 20
120.3554806263
 40
0.762
100
AcDbArc
 50
90.0
 51
150.0000000002
  0
ARC
  5
4B4
100
AcDbEntity
  8
0
100
AcDbCircle
 62
7
  6
CONTINUOUS
 10
62.1841273485
 20
208.3466933359
 40
19.9836319835
100
AcDbArc
 50
1.0026095383
 51
1.1617840058
  0
ARC
  5
4B5
100
AcDbEntity
  8
0
100
AcDbCircle
 62
7
  6
CONTINUOUS
 10
68.7842890831
 20
208.4539082655
 40
13.3826072658
100
AcDbArc
 50
0.0381496044
 51
1.0381052341
  0
ARC
  5
4B6
100
AcDbEntity
  8
0
100
AcDbCircle
 62
7
  6
CONTINUOUS
 10
107.7418311669
 20
216.5578219184
 40
13.0558075726
100
AcDbArc
 50
10.6220167347
 51
10.9572970761
  0
ARC
  5
4B7
100
AcDbEntity
  8
0
100
AcDbCircle
 62
7
  6
CONTINUOUS
 10
99.4079777402
 20
216.5580486852
 40
13.0543124201
100
AcDbArc
 50
169.1086718966
 51
169.3774479348
  0
ARC
  5
4B8
100
AcDbEntity
  8
0
100
AcDbCircle
 62
7
  6
CONTINUOUS
 10
107.7691532666
 20
216.5626370411
 40
13.0280660849
100
AcDbArc
 50
4.476434397
 51
10.6233521177
  0
ARC
  5
4B9
100
AcDbEntity
  8
0
100
AcDbCircle
 62
7
  6
CONTINUOUS
 10
99.3813157508
 20
216.5627445816
 40
13.0272417109
100
AcDbArc
 50
169.376131121
 51
175.5239080406
  0
ARC
  5
4BA
100
AcDbEntity
  8
0
100
AcDbCircle
 62
7
  6
CONTINUOUS
 10
70.8700549525
 20
207.2213512082
 40
11.2981683553
100
AcDbArc
 50
358.9631031886
 51
359.9930993308
  0
ARC
  5
4BB
100
AcDbEntity
  8
0
100
AcDbCircle
 62
7
  6
CONTINUOUS
 10
49.3379941441
 20
181.6466966263
 40
5.1054
100
AcDbArc
 50
0.0
 51
90.0
  0
ARC
  5
4BC
100
AcDbEntity
  8
0
100
AcDbCircle
 62
7
  6
CONTINUOUS
 10
61.8347941441
 20
196.4900248263
 40
3.9624
100
AcDbArc
 50
135.0000000002
 51
180.0
  0
ARC
  5
4BD
100
AcDbEntity
  8
0
100
AcDbCircle
 62
7
  6
CONTINUOUS
 10
59.6503941441
 20
202.0645661149
 40
3.9624
100
AcDbArc
 50
314.9999999988
 51
360.0
  0
ARC
  5
4BE
100
AcDbEntity
  8
0
100
AcDbCircle
 62
7
  6
CONTINUOUS
 10
110.5045875271
 20
175.5683010407
 40
3.2886201882
100
AcDbArc
 50
90.0145698107
 51
97.8166136177
  0
ARC
  5
4BF
100
AcDbEntity
  8
0
100
AcDbCircle
 62
7
  6
CONTINUOUS
 10
49.3379941441
 20
181.6466966263
 40
2.286
100
AcDbArc
 50
0.0
 51
90.0
  0
ARC
  5
4C0
100
AcDbEntity
  8
0
100
AcDbCircle
 62
7
  6
CONTINUOUS
 10
80.6014759298
 20
204.6871919765
 40
1.524
100
AcDbArc
 50
301.9360352606
 51
359.0
  0
ARC
  5
4C1
100
AcDbEntity
  8
0
100
AcDbCircle
 62
7
  6
CONTINUOUS
 10
80.6014759298
 20
210.9302012762
 40
1.524
100
AcDbArc
 50
1.0
 51
58.0639647394
  0
ARC
  5
4C2
100
AcDbEntity
  8
0
100
AcDbCircle
 62
7
  6
CONTINUOUS
 10
59.6503941441
 20
202.0645661149
 40
1.524
100
AcDbArc
 50
314.9999999969
 51
360.0
  0
ARC
  5
4C3
100
AcDbEntity
  8
0
100
AcDbCircle
 62
7
  6
CONTINUOUS
 10
61.8347941441
 20
196.4900248263
 40
1.524
100
AcDbArc
 50
135.0000000012
 51
180.0
  0
ARC
  5
4C4
100
AcDbEntity
  8
0
100
AcDbCircle
 62
7
  6
CONTINUOUS
 10
109.2314596272
 20
181.0507232741
 40
1.2746124863
100
AcDbArc
 50
13.971478365
 51
16.7718794076
  0
ARC
  5
4C5
100
AcDbEntity
  8
0
100
AcDbCircle
 62
7
  6
CONTINUOUS
 10
115.3584663477
 20
181.0537843451
 40
1.2625423272
100
AcDbArc
 50
164.6129732026
 51
166.0353896675
  0
ARC
  5
4C6
100
AcDbEntity
  8
0
100
AcDbCircle
 62
7
  6
CONTINUOUS
 10
183.3824445443
 20
157.5197155638
 40
37.3888
100
AcDbArc
 50
259.7381099638
 51
280.2618900362
  0
ARC
  5
4C7
100
AcDbEntity
  8
0
100
AcDbCircle
 62
7
  6
CONTINUOUS
 10
143.4790445443
 20
157.5197061778
 40
37.3888
100
AcDbArc
 50
259.7380573264
 51
280.2619426736
  0
CIRCLE
  5
4C8
100
AcDbEntity
  8
0
100
AcDbCircle
 62
7
  6
CONTINUOUS
 10
173.0700445443
 20
147.5546642263
 40
4.37515
  0
ARC
  5
4C9
100
AcDbEntity
  8
0
100
AcDbCircle
 62
7
  6
CONTINUOUS
 10
221.6261941441
 20
119.7722966263
 40
3.2258
100
AcDbArc
 50
275.8098960074
 51
360.0
  0
ARC
  5
4CA
100
AcDbEntity
  8
0
100
AcDbCircle
 62
7
  6
CONTINUOUS
 10
208.0612225441
 20
119.7468966263
 40
3.2004
100
AcDbArc
 50
210.0
 51
270.0
  0
ARC
  5
4CB
100
AcDbEntity
  8
0
100
AcDbCircle
 62
7
  6
CONTINUOUS
 10
203.1344709946
 20
120.3554806263
 40
3.2004
100
AcDbArc
 50
30.0
 51
90.0
  0
ARC
  5
4CC
100
AcDbEntity
  8
0
100
AcDbCircle
 62
7
  6
CONTINUOUS
 10
221.6261941441
 20
119.7722966263
 40
0.7874
100
AcDbArc
 50
270.0
 51
360.0
  0
ARC
  5
4CD
100
AcDbEntity
  8
0
100
AcDbCircle
 62
7
  6
CONTINUOUS
 10
208.0612225441
 20
119.7468966263
 40
0.762
100
AcDbArc
 50
210.0
 51
270.0
  0
ARC
  5
4CE
100
AcDbEntity
  8
0
100
AcDbCircle
 62
7
  6
CONTINUOUS
 10
203.1344709946
 20
120.3554806263
 40
0.762
100
AcDbArc
 50
30.0
 51
90.0
  0
ARC
  5
4CF
100
AcDbEntity
  8
0
100
AcDbCircle
 62
7
  6
CONTINUOUS
 10
147.6452311653
 20
216.5647368286
 40
13.0558075743
100
AcDbArc
 50
10.6220167347
 51
10.9572970761
  0
ARC
  5
4D0
100
AcDbEntity
  8
0
100
AcDbCircle
 62
7
  6
CONTINUOUS
 10
187.5486311706
 20
216.5647462156
 40
13.0558075689
100
AcDbArc
 50
10.6220167346
 51
10.9572970762
  0
ARC
  5
4D1
100
AcDbEntity
  8
0
100
AcDbCircle
 62
7
  6
CONTINUOUS
 10
139.311377746
 20
216.5649635946
 40
13.054312426
100
AcDbArc
 50
169.1086718967
 51
169.3774479348
  0
ARC
  5
4D2
100
AcDbEntity
  8
0
100
AcDbCircle
 62
7
  6
CONTINUOUS
 10
179.2147777361
 20
216.5649729826
 40
13.0543124159
100
AcDbArc
 50
169.1086718966
 51
169.3774479349
  0
ARC
  5
4D3
100
AcDbEntity
  8
0
100
AcDbCircle
 62
7
  6
CONTINUOUS
 10
147.6727313184
 20
216.5695816186
 40
13.0278856157
100
AcDbArc
 50
4.4457279779
 51
10.6233682391
  0
ARC
  5
4D4
100
AcDbEntity
  8
0
100
AcDbCircle
 62
7
  6
CONTINUOUS
 10
187.5761315604
 20
216.5695910449
 40
13.0278853704
100
AcDbArc
 50
4.4456862981
 51
10.6233682611
  0
ARC
  5
4D5
100
AcDbEntity
  8
0
100
AcDbCircle
 62
7
  6
CONTINUOUS
 10
139.2845400485
 20
216.5696887708
 40
13.0270636226
100
AcDbArc
 50
169.3761152176
 51
175.5546134207
  0
ARC
  5
4D6
100
AcDbEntity
  8
0
100
AcDbCircle
 62
7
  6
CONTINUOUS
 10
179.1879398097
 20
216.5696981966
 40
13.0270633805
100
AcDbArc
 50
169.376115196
 51
175.554655099
  0
ARC
  5
4D7
100
AcDbEntity
  8
0
100
AcDbCircle
 62
7
  6
CONTINUOUS
 10
139.1795306899
 20
216.5785136517
 40
12.9216861779
100
AcDbArc
 50
175.5575362854
 51
179.9959501177
  0
ARC
  5
4D8
100
AcDbEntity
  8
0
100
AcDbCircle
 62
7
  6
CONTINUOUS
 10
179.082930103
 20
216.5785230555
 40
12.921685591
100
AcDbArc
 50
175.5575780865
 51
179.995950196
  0
ARC
  5
4D9
100
AcDbEntity
  8
0
100
AcDbCircle
 62
7
  6
CONTINUOUS
 10
150.1278903828
 20
175.5900565532
 40
3.2668645723
100
AcDbArc
 50
90.0024399986
 51
92.7542821285
  0
ARC
  5
4DA
100
AcDbEntity
  8
0
100
AcDbCircle
 62
7
  6
CONTINUOUS
 10
153.8208859762
 20
177.9519853796
 40
3.0902340708
100
AcDbArc
 50
34.6666568704
 51
41.3808542828
  0
ARC
  5
4DB
100
AcDbEntity
  8
0
100
AcDbCircle
 62
7
  6
CONTINUOUS
 10
154.982466348
 20
181.053784345
 40
1.2625423276
100
AcDbArc
 50
164.6129732029
 51
166.0353896674
  0
ARC
  5
4DC
100
AcDbEntity
  8
0
100
AcDbCircle
 62
7
  6
CONTINUOUS
 10
194.6064663479
 20
181.053784345
 40
1.2625423274
100
AcDbArc
 50
164.6129732025
 51
166.035389667
  0
SPLINE
  5
4DD
100
AcDbEntity
  8
0
100
AcDbSpline
 62
7
  6
CONTINUOUS
 70
0
 71
3
 72
14
 73
10
 74
0
 42
0.0000001
 43
0.0000001
 44
0.0000000001
 40
0.0
 40
0.0
 40
0.0
 40
0.0
 40
0.094756156
 40
0.1940696122
 40
0.301118579
 40
0.4182483815
 40
0.546707475
 40
0.6868643582
 40
1.0
 40
1.0
 40
1.0
 40
1.0
 10
82.1252438172
 20
208.7511083114
 30
0.0
 10
82.1241435915
 20
208.7833996881
 30
0.0
 10
82.1136821855
 20
208.8494973644
 30
0.0
 10
82.0743893645
 20
208.9452059718
 30
0.0
 10
82.0122039953
 20
209.0371209515
 30
0.0
 10
81.9282905303
 20
209.1239291735
 30
0.0
 10
81.8239228943
 20
209.2046201883
 30
0.0
 10
81.6531549901
 20
209.3062407859
 30
0.0
 10
81.5084259655
 20
209.363749765
 30
0.0
 10
81.4065800763
 20
209.3958122008
 30
0.0
  0
SPLINE
  5
4DE
100
AcDbEntity
  8
0
100
AcDbSpline
 62
7
  6
CONTINUOUS
 70
0
 71
3
 72
11
 73
7
 74
0
 42
0.0000001
 43
0.0000001
 44
0.0000000001
 40
0.0
 40
0.0
 40
0.0
 40
0.0
 40
0.2500288962
 40
0.5000516074
 40
0.7500560737
 40
1.0
 40
1.0
 40
1.0
 40
1.0
 10
82.1252438172
 20
208.7511083114
 30
0.0
 10
82.1295909511
 20
208.6235209104
 30
0.0
 10
82.1382422075
 20
208.3683484124
 30
0.0
 10
82.1508712667
 20
207.9855851372
 30
0.0
 10
82.1627448643
 20
207.6028537384
 30
0.0
 10
82.1681564061
 20
207.3476084984
 30
0.0
 10
82.1682232258
 20
207.2199904636
 30
0.0
  0
SPLINE
  5
4DF
100
AcDbEntity
  8
0
100
AcDbSpline
 62
7
  6
CONTINUOUS
 70
0
 71
3
 72
9
 73
5
 74
0
 42
0.0000001
 43
0.0000001
 44
0.0000000001
 40
0.0
 40
0.0
 40
0.0
 40
0.0
 40
0.5000489282
 40
1.0
 40
1.0
 40
1.0
 40
1.0
 10
82.1552381711
 20
207.8423006915
 30
0.0
 10
82.1582156831
 20
207.9457083707
 30
0.0
 10
82.1638688153
 20
208.1525107331
 30
0.0
 10
82.1668933824
 20
208.3593885965
 30
0.0
 10
82.1668933824
 20
208.4628188893
 30
0.0
  0
SPLINE
  5
4E0
100
AcDbEntity
  8
0
100
AcDbSpline
 62
7
  6
CONTINUOUS
 70
0
 71
3
 72
14
 73
10
 74
0
 42
0.0000001
 43
0.0000001
 44
0.0000000001
 40
0.0
 40
0.0
 40
0.0
 40
0.0
 40
0.3107805896
 40
0.4502496257
 40
0.5784297413
 40
0.6957429778
 40
0.8034567332
 40
0.9038668215
 40
1.0
 40
1.0
 40
1.0
 40
1.0
 10
81.406638709
 20
210.6936725921
 30
0.0
 10
81.5088155782
 20
210.6605746804
 30
0.0
 10
81.6539560827
 20
210.6011449853
 30
0.0
 10
81.8246612793
 20
210.4964258801
 30
0.0
 10
81.9289877501
 20
210.413219148
 30
0.0
 10
82.012756543
 20
210.3237443475
 30
0.0
 10
82.074719765
 20
210.229082624
 30
0.0
 10
82.1137793806
 20
210.1306300561
 30
0.0
 10
82.1241474594
 20
210.0627751327
 30
0.0
 10
82.1252438172
 20
210.0295701992
 30
0.0
  0
SPLINE
  5
4E1
100
AcDbEntity
  8
0
100
AcDbSpline
 62
7
  6
CONTINUOUS
 70
0
 71
3
 72
10
 73
6
 74
0
 42
0.0000001
 43
0.0000001
 44
0.0000000001
 40
0.0
 40
0.0
 40
0.0
 40
0.0
 40
0.2499746422
 40
0.4999747885
 40
1.0
 40
1.0
 40
1.0
 40
1.0
 10
82.1636512881
 20
208.7518727978
 30
0.0
 10
82.161496583
 20
208.8583635245
 30
0.0
 10
82.1557847525
 20
209.0713260512
 30
0.0
 10
82.1427483353
 20
209.4972191035
 30
0.0
 10
82.1322746979
 20
209.8166288413
 30
0.0
 10
82.1252438172
 20
210.0295701992
 30
0.0
  0
SPLINE
  5
4E2
100
AcDbEntity
  8
0
100
AcDbSpline
 62
7
  6
CONTINUOUS
 70
0
 71
3
 72
21
 73
17
 74
0
 42
0.0000001
 43
0.0000001
 44
0.0000000001
 40
0.0
 40
0.0
 40
0.0
 40
0.0
 40
0.0580895243
 40
0.1168910301
 40
0.176995858
 40
0.2387583898
 40
0.3022677726
 40
0.3673483862
 40
0.5000011937
 40
0.6326530742
 40
0.697732725
 40
0.7612412006
 40
0.8230031626
 40
0.8831078879
 40
0.9419097151
 40
1.0
 40
1.0
 40
1.0
 40
1.0
 10
200.6036445443
 20
218.9924363915
 30
0.0
 10
200.6036445443
 20
219.9685765747
 30
0.0
 10
200.3783365433
 20
221.9399133422
 30
0.0
 10
199.381279563
 20
224.7666818385
 30
0.0
 10
197.767724414
 20
227.3654669105
 30
0.0
 10
195.6043188102
 20
229.6352932043
 30
0.0
 10
192.9762054037
 20
231.4928153434
 30
0.0
 10
188.9703310023
 20
233.3383011585
 30
0.0
 10
183.3823982849
 20
234.2875102528
 30
0.0
 10
177.7944888681
 20
233.3382757747
 30
0.0
 10
173.7886619843
 20
231.4928007998
 30
0.0
 10
171.1605838825
 20
229.6353010134
 30
0.0
 10
168.9971922464
 20
227.3654990661
 30
0.0
 10
167.3836305821
 20
224.7667252441
 30
0.0
 10
166.3865574167
 20
221.9399446293
 30
0.0
 10
166.1612445443
 20
219.9685893559
 30
0.0
 10
166.1612445443
 20
218.9924363914
 30
0.0
  0
SPLINE
  5
4E3
100
AcDbEntity
  8
0
100
AcDbSpline
 62
7
  6
CONTINUOUS
 70
0
 71
3
 72
17
 73
13
 74
0
 42
0.0000001
 43
0.0000001
 44
0.0000000001
 40
0.0
 40
0.0
 40
0.0
 40
0.0
 40
0.0590279704
 40
0.119193762
 40
0.242742265
 40
0.3702479401
 40
0.5000034145
 40
0.6297580208
 40
0.7572614377
 40
0.8808075361
 40
0.9409724813
 40
1.0
 40
1.0
 40
1.0
 40
1.0
 10
196.6391712872
 20
217.6660758868
 30
0.0
 10
196.3174171798
 20
218.1866609822
 30
0.0
 10
195.589441254
 20
219.1915985916
 30
0.0
 10
193.8392658734
 20
221.0091123601
 30
0.0
 10
191.1454340048
 20
222.8570738392
 30
0.0
 10
187.4041211904
 20
224.230755211
 30
0.0
 10
183.3820911396
 20
224.699551942
 30
0.0
 10
179.3601034218
 20
224.2305955698
 30
0.0
 10
175.6189006041
 20
222.856784092
 30
0.0
 10
172.9251880597
 20
221.0087510849
 30
0.0
 10
171.1751116819
 20
219.191195191
 30
0.0
 10
170.4471847177
 20
218.1862387477
 30
0.0
 10
170.1254543192
 20
217.6656445048
 30
0.0
  0
SPLINE
  5
4E4
100
AcDbEntity
  8
0
100
AcDbSpline
 62
7
  6
CONTINUOUS
 70
0
 71
3
 72
11
 73
7
 74
0
 42
0.0000001
 43
0.0000001
 44
0.0000000001
 40
0.0
 40
0.0
 40
0.0
 40
0.0
 40
0.2499977535
 40
0.499990044
 40
0.7499890381
 40
1.0
 40
1.0
 40
1.0
 40
1.0
 10
186.5156935703
 20
121.0251526784
 30
0.0
 10
186.0164669504
 20
120.8099797151
 30
0.0
 10
184.9693880697
 20
120.4843580408
 30
0.0
 10
183.3351225158
 20
120.3275938896
 30
0.0
 10
181.7027989114
 20
120.5038075728
 30
0.0
 10
180.6596845035
 20
120.8421825425
 30
0.0
 10
180.1631506459
 20
121.0635690348
 30
0.0
  0
SPLINE
  5
4E5
100
AcDbEntity
  8
0
100
AcDbSpline
 62
7
  6
CONTINUOUS
 70
0
 71
3
 72
21
 73
17
 74
0
 42
0.0000001
 43
0.0000001
 44
0.0000000001
 40
0.0
 40
0.0
 40
0.0
 40
0.0
 40
0.0580923087
 40
0.1172199939
 40
0.1777288305
 40
0.2397827418
 40
0.303348643
 40
0.3682182469
 40
0.499976853
 40
0.6317403615
 40
0.6966156129
 40
0.7601887578
 40
0.8222508451
 40
0.8827678697
 40
0.9419026465
 40
1.0
 40
1.0
 40
1.0
 40
1.0
 10
166.395608451
 20
219.0315437784
 30
0.0
 10
166.5620901543
 20
219.8967764681
 30
0.0
 10
167.0769219176
 20
221.6130727226
 30
0.0
 10
168.3473745644
 20
224.0084545984
 30
0.0
 10
170.0799406812
 20
226.1715700994
 30
0.0
 10
172.2186381216
 20
228.0358527811
 30
0.0
 10
174.6974952494
 20
229.5464613018
 30
0.0
 10
178.3677042878
 20
231.0356808748
 30
0.0
 10
183.3738002573
 20
231.7986533141
 30
0.0
 10
188.3806154216
 20
231.0399690836
 30
0.0
 10
192.0524148967
 20
229.5539739103
 30
0.0
 10
194.5329675972
 20
228.04554713
 30
0.0
 10
196.6737853558
 20
226.1831647652
 30
0.0
 10
198.4088416652
 20
224.0215991455
 30
0.0
 10
199.6820779278
 20
221.6273540564
 30
0.0
 10
200.1989275824
 20
219.9114748076
 30
0.0
 10
200.3664199046
 20
219.046359249
 30
0.0
  0
SPLINE
  5
4E6
100
AcDbEntity
  8
0
100
AcDbSpline
 62
7
  6
CONTINUOUS
 70
0
 71
3
 72
21
 73
17
 74
0
 42
0.0000001
 43
0.0000001
 44
0.0000000001
 40
0.0
 40
0.0
 40
0.0
 40
0.0
 40
0.0580895243
 40
0.1168910301
 40
0.176995858
 40
0.2387583898
 40
0.3022677726
 40
0.3673483862
 40
0.5000011937
 40
0.6326530742
 40
0.697732725
 40
0.7612412006
 40
0.8230031626
 40
0.8831078879
 40
0.9419097151
 40
1.0
 40
1.0
 40
1.0
 40
1.0
 10
120.7968445443
 20
218.985512095
 30
0.0
 10
120.7968445443
 20
219.9616522782
 30
0.0
 10
120.5715365433
 20
221.9329890457
 30
0.0
 10
119.574479563
 20
224.759757542
 30
0.0
 10
117.960924414
 20
227.3585426139
 30
0.0
 10
115.7975188102
 20
229.6283689078
 30
0.0
 10
113.1694054037
 20
231.4858910469
 30
0.0
 10
109.1635310023
 20
233.331376862
 30
0.0
 10
103.5755982849
 20
234.2805859562
 30
0.0
 10
97.9876888681
 20
233.3313514782
 30
0.0
 10
93.9818619843
 20
231.4858765033
 30
0.0
 10
91.3537838825
 20
229.6283767169
 30
0.0
 10
89.1903922464
 20
227.3585747696
 30
0.0
 10
87.5768305821
 20
224.7598009476
 30
0.0
 10
86.5797574166
 20
221.9330203328
 30
0.0
 10
86.3544445443
 20
219.9616650593
 30
0.0
 10
86.3544445443
 20
218.9855120949
 30
0.0
  0
SPLINE
  5
4E7
100
AcDbEntity
  8
0
100
AcDbSpline
 62
7
  6
CONTINUOUS
 70
0
 71
3
 72
17
 73
13
 74
0
 42
0.0000001
 43
0.0000001
 44
0.0000000001
 40
0.0
 40
0.0
 40
0.0
 40
0.0
 40
0.0590303534
 40
0.1191981654
 40
0.242748604
 40
0.3702523785
 40
0.5000034043
 40
0.6297535646
 40
0.7572550871
 40
0.880803128
 40
0.9409700963
 40
1.0
 40
1.0
 40
1.0
 40
1.0
 10
116.827950064
 20
217.6662995991
 30
0.0
 10
116.5060074382
 20
218.1864108565
 30
0.0
 10
115.7777819463
 20
219.1903922347
 30
0.0
 10
114.0275758863
 20
221.0060735168
 30
0.0
 10
111.3345411192
 20
222.852037425
 30
0.0
 10
107.5950422925
 20
224.2241846707
 30
0.0
 10
103.5752946147
 20
224.6924472851
 30
0.0
 10
99.5555889803
 20
224.2240267175
 30
0.0
 10
95.8161993637
 20
222.8517508792
 30
0.0
 10
93.1232828614
 20
221.0057165586
 30
0.0
 10
91.3731748488
 20
219.1899938211
 30
0.0
 10
90.6449976798
 20
218.1859939614
 30
0.0
 10
90.3230785103
 20
217.6658736647
 30
0.0
  0
SPLINE
  5
4E8
100
AcDbEntity
  8
0
100
AcDbSpline
 62
7
  6
CONTINUOUS
 70
0
 71
3
 72
11
 73
7
 74
0
 42
0.0000001
 43
0.0000001
 44
0.0000000001
 40
0.0
 40
0.0
 40
0.0
 40
0.0
 40
0.2499977478
 40
0.4999900092
 40
0.7499889867
 40
1.0
 40
1.0
 40
1.0
 40
1.0
 10
106.7304544585
 20
121.0275603188
 30
0.0
 10
106.2281223562
 20
120.8092338242
 30
0.0
 10
105.1737214698
 20
120.4787974631
 30
0.0
 10
103.5270525198
 20
120.3198335695
 30
0.0
 10
101.8824075405
 20
120.4989092547
 30
0.0
 10
100.8321391295
 20
120.8425294038
 30
0.0
 10
100.3326145168
 20
121.0672759263
 30
0.0
  0
SPLINE
  5
4E9
100
AcDbEntity
  8
0
100
AcDbSpline
 62
7
  6
CONTINUOUS
 70
0
 71
3
 72
21
 73
17
 74
0
 42
0.0000001
 43
0.0000001
 44
0.0000000001
 40
0.0
 40
0.0
 40
0.0
 40
0.0
 40
0.0580923087
 40
0.1172199939
 40
0.1777288305
 40
0.2397827418
 40
0.303348643
 40
0.3682182469
 40
0.499976853
 40
0.6317403615
 40
0.6966156129
 40
0.7601887578
 40
0.8222508451
 40
0.8827678697
 40
0.9419026465
 40
1.0
 40
1.0
 40
1.0
 40
1.0
 10
86.588808451
 20
219.0246194819
 30
0.0
 10
86.7552901543
 20
219.8898521716
 30
0.0
 10
87.2701219176
 20
221.6061484261
 30
0.0
 10
88.5405745644
 20
224.0015303019
 30
0.0
 10
90.2731406812
 20
226.1646458029
 30
0.0
 10
92.4118381216
 20
228.0289284845
 30
0.0
 10
94.8906952494
 20
229.5395370053
 30
0.0
 10
98.5609042878
 20
231.0287565782
 30
0.0
 10
103.5670002573
 20
231.7917290176
 30
0.0
 10
108.5738154216
 20
231.0330447871
 30
0.0
 10
112.2456148967
 20
229.5470496138
 30
0.0
 10
114.7261675972
 20
228.0386228335
 30
0.0
 10
116.8669853558
 20
226.1762404687
 30
0.0
 10
118.6020416652
 20
224.014674849
 30
0.0
 10
119.8752779278
 20
221.6204297599
 30
0.0
 10
120.3921275824
 20
219.9045505111
 30
0.0
 10
120.5596199046
 20
219.0394349524
 30
0.0
  0
SPLINE
  5
4EA
100
AcDbEntity
  8
0
100
AcDbSpline
 62
7
  6
CONTINUOUS
 70
0
 71
3
 72
21
 73
17
 74
0
 42
0.0000001
 43
0.0000001
 44
0.0000000001
 40
0.0
 40
0.0
 40
0.0
 40
0.0
 40
0.0580895243
 40
0.1168910301
 40
0.176995858
 40
0.2387583898
 40
0.3022677726
 40
0.3673483862
 40
0.5000011937
 40
0.6326530742
 40
0.697732725
 40
0.7612412006
 40
0.8230031626
 40
0.8831078879
 40
0.9419097151
 40
1.0
 40
1.0
 40
1.0
 40
1.0
 10
160.7002445443
 20
218.9924270055
 30
0.0
 10
160.7002445443
 20
219.9685671887
 30
0.0
 10
160.4749365433
 20
221.9399039562
 30
0.0
 10
159.477879563
 20
224.7666724525
 30
0.0
 10
157.864324414
 20
227.3654575245
 30
0.0
 10
155.7009188102
 20
229.6352838183
 30
0.0
 10
153.0728054037
 20
231.4928059574
 30
0.0
 10
149.0669310023
 20
233.3382917725
 30
0.0
 10
143.4789982849
 20
234.2875008667
 30
0.0
 10
137.8910888681
 20
233.3382663887
 30
0.0
 10
133.8852619843
 20
231.4927914138
 30
0.0
 10
131.2571838825
 20
229.6352916274
 30
0.0
 10
129.0937922464
 20
227.3654896801
 30
0.0
 10
127.4802305821
 20
224.7667158581
 30
0.0
 10
126.4831574166
 20
221.9399352433
 30
0.0
 10
126.2578445443
 20
219.9685799698
 30
0.0
 10
126.2578445443
 20
218.9924270054
 30
0.0
  0
SPLINE
  5
4EB
100
AcDbEntity
  8
0
100
AcDbSpline
 62
7
  6
CONTINUOUS
 70
0
 71
3
 72
17
 73
13
 74
0
 42
0.0000001
 43
0.0000001
 44
0.0000000001
 40
0.0
 40
0.0
 40
0.0
 40
0.0
 40
0.0590279737
 40
0.1191937679
 40
0.2427422736
 40
0.3702479461
 40
0.5000034145
 40
0.6297580148
 40
0.7572614291
 40
0.8808075301
 40
0.940972478
 40
1.0
 40
1.0
 40
1.0
 40
1.0
 10
156.7357652978
 20
217.6660761915
 30
0.0
 10
156.4140109345
 20
218.1866606446
 30
0.0
 10
155.6860346697
 20
219.1915969577
 30
0.0
 10
153.9358592463
 20
221.0091082421
 30
0.0
 10
151.2420284573
 20
222.8570670128
 30
0.0
 10
147.5007181014
 20
224.2307463047
 30
0.0
 10
143.4786911443
 20
224.6995423114
 30
0.0
 10
139.4567065198
 20
224.2305866657
 30
0.0
 10
135.7155061595
 20
222.85677727
 30
0.0
 10
133.0217946933
 20
221.0087469727
 30
0.0
 10
131.2717182715
 20
219.1911935639
 30
0.0
 10
130.5437909674
 20
218.1862384173
 30
0.0
 10
130.2220603126
 20
217.6656448169
 30
0.0
  0
SPLINE
  5
4EC
100
AcDbEntity
  8
0
100
AcDbSpline
 62
7
  6
CONTINUOUS
 70
0
 71
3
 72
11
 73
7
 74
0
 42
0.0000001
 43
0.0000001
 44
0.0000000001
 40
0.0
 40
0.0
 40
0.0
 40
0.0
 40
0.2499977535
 40
0.499990044
 40
0.749989038
 40
1.0
 40
1.0
 40
1.0
 40
1.0
 10
146.6123228251
 20
121.0251559016
 30
0.0
 10
146.1130919834
 20
120.8099786767
 30
0.0
 10
145.0660031642
 20
120.4843504974
 30
0.0
 10
143.4317207904
 20
120.3275833741
 30
0.0
 10
141.7993804764
 20
120.5038009235
 30
0.0
 10
140.7562563556
 20
120.8421829798
 30
0.0
 10
140.2597184303
 20
121.0635740127
 30
0.0
  0
SPLINE
  5
4ED
100
AcDbEntity
  8
0
100
AcDbSpline
 62
7
  6
CONTINUOUS
 70
0
 71
3
 72
21
 73
17
 74
0
 42
0.0000001
 43
0.0000001
 44
0.0000000001
 40
0.0
 40
0.0
 40
0.0
 40
0.0
 40
0.0580923087
 40
0.1172199939
 40
0.1777288305
 40
0.2397827418
 40
0.303348643
 40
0.3682182469
 40
0.499976853
 40
0.6317403615
 40
0.6966156129
 40
0.7601887578
 40
0.8222508451
 40
0.8827678697
 40
0.9419026465
 40
1.0
 40
1.0
 40
1.0
 40
1.0
 10
126.492208451
 20
219.0315343924
 30
0.0
 10
126.6586901543
 20
219.8967670821
 30
0.0
 10
127.1735219176
 20
221.6130633366
 30
0.0
 10
128.4439745644
 20
224.0084452124
 30
0.0
 10
130.1765406812
 20
226.1715607134
 30
0.0
 10
132.3152381216
 20
228.0358433951
 30
0.0
 10
134.7940952494
 20
229.5464519158
 30
0.0
 10
138.4643042878
 20
231.0356714888
 30
0.0
 10
143.4704002573
 20
231.7986439281
 30
0.0
 10
148.4772154216
 20
231.0399596976
 30
0.0
 10
152.1490148967
 20
229.5539645243
 30
0.0
 10
154.6295675972
 20
228.045537744
 30
0.0
 10
156.7703853558
 20
226.1831553792
 30
0.0
 10
158.5054416652
 20
224.0215897595
 30
0.0
 10
159.7786779278
 20
221.6273446704
 30
0.0
 10
160.2955275824
 20
219.9114654216
 30
0.0
 10
160.4630199046
 20
219.0463498629
 30
0.0
  0
SPLINE
  5
4EE
100
AcDbEntity
  8
0
100
AcDbSpline
 62
7
  6
CONTINUOUS
 70
0
 71
3
 72
11
 73
7
 74
0
 42
0.0000001
 43
0.0000001
 44
0.0000000001
 40
0.0
 40
0.0
 40
0.0
 40
0.0
 40
0.2472833167
 40
0.495967631
 40
0.7467687415
 40
1.0
 40
1.0
 40
1.0
 40
1.0
 10
153.675410753
 20
174.1048801673
 30
0.0
 10
153.675410753
 20
174.2668110073
 30
0.0
 10
153.6271520493
 20
174.5935419683
 30
0.0
 10
153.416405582
 20
175.0421815289
 30
0.0
 10
153.0848204822
 20
175.4156082892
 30
0.0
 10
152.8013738874
 20
175.594363013
 30
0.0
 10
152.6503318285
 20
175.662806331
 30
0.0
  0
SPLINE
  5
4EF
100
AcDbEntity
  8
0
100
AcDbSpline
 62
7
  6
CONTINUOUS
 70
0
 71
3
 72
11
 73
7
 74
0
 42
0.0000001
 43
0.0000001
 44
0.0000000001
 40
0.0
 40
0.0
 40
0.0
 40
0.0
 40
0.2532342694
 40
0.5040439622
 40
0.7527323533
 40
1.0
 40
1.0
 40
1.0
 40
1.0
 10
151.141820111
 20
175.6647619844
 30
0.0
 10
150.9902332511
 20
175.5965543823
 30
0.0
 10
150.7056704526
 20
175.4180084171
 30
0.0
 10
150.3726232071
 20
175.044227749
 30
0.0
 10
150.1608923465
 20
174.5947041254
 30
0.0
 10
150.1124013644
 20
174.2671889293
 30
0.0
 10
150.1124013644
 20
174.1048801672
 30
0.0
  0
SPLINE
  5
4F0
100
AcDbEntity
  8
0
100
AcDbSpline
 62
7
  6
CONTINUOUS
 70
0
 71
3
 72
11
 73
7
 74
0
 42
0.0000001
 43
0.0000001
 44
0.0000000001
 40
0.0
 40
0.0
 40
0.0
 40
0.0
 40
0.2472833167
 40
0.495967631
 40
0.7467687415
 40
1.0
 40
1.0
 40
1.0
 40
1.0
 10
114.051410753
 20
174.1048801673
 30
0.0
 10
114.051410753
 20
174.2668110073
 30
0.0
 10
114.0031520493
 20
174.5935419683
 30
0.0
 10
113.792405582
 20
175.0421815289
 30
0.0
 10
113.4608204822
 20
175.4156082892
 30
0.0
 10
113.1773738874
 20
175.594363013
 30
0.0
 10
113.0263318285
 20
175.662806331
 30
0.0
  0
SPLINE
  5
4F1
100
AcDbEntity
  8
0
100
AcDbSpline
 62
7
  6
CONTINUOUS
 70
0
 71
3
 72
11
 73
7
 74
0
 42
0.0000001
 43
0.0000001
 44
0.0000000001
 40
0.0
 40
0.0
 40
0.0
 40
0.0
 40
0.2532342694
 40
0.5040439622
 40
0.7527323533
 40
1.0
 40
1.0
 40
1.0
 40
1.0
 10
111.517820111
 20
175.6647619844
 30
0.0
 10
111.3662332511
 20
175.5965543823
 30
0.0
 10
111.0816704526
 20
175.4180084171
 30
0.0
 10
110.7486232071
 20
175.044227749
 30
0.0
 10
110.5368923465
 20
174.5947041254
 30
0.0
 10
110.4884013644
 20
174.2671889293
 30
0.0
 10
110.4884013644
 20
174.1048801672
 30
0.0
  0
SPLINE
  5
4F2
100
AcDbEntity
  8
0
100
AcDbSpline
 62
7
  6
CONTINUOUS
 70
0
 71
3
 72
11
 73
7
 74
0
 42
0.0000001
 43
0.0000001
 44
0.0000000001
 40
0.0
 40
0.0
 40
0.0
 40
0.0
 40
0.2472833167
 40
0.495967631
 40
0.7467687415
 40
1.0
 40
1.0
 40
1.0
 40
1.0
 10
193.299410753
 20
174.1048801673
 30
0.0
 10
193.299410753
 20
174.2668110073
 30
0.0
 10
193.2511520493
 20
174.5935419683
 30
0.0
 10
193.040405582
 20
175.0421815289
 30
0.0
 10
192.7088204822
 20
175.4156082892
 30
0.0
 10
192.4253738874
 20
175.594363013
 30
0.0
 10
192.2743318284
 20
175.662806331
 30
0.0
  0
SPLINE
  5
4F3
100
AcDbEntity
  8
0
100
AcDbSpline
 62
7
  6
CONTINUOUS
 70
0
 71
3
 72
9
 73
5
 74
0
 42
0.0000001
 43
0.0000001
 44
0.0000000001
 40
0.0
 40
0.0
 40
0.0
 40
0.0
 40
0.5035936299
 40
1.0
 40
1.0
 40
1.0
 40
1.0
 10
190.765820111
 20
175.6647619844
 30
0.0
 10
190.5319552745
 20
175.5595328127
 30
0.0
 10
190.1067548987
 20
175.2470358962
 30
0.0
 10
189.8584032157
 20
174.779837191
 30
0.0
 10
189.7931782348
 20
174.5356081542
 30
0.0
  0
SPLINE
  5
4F4
100
AcDbEntity
  8
0
100
AcDbSpline
 62
7
  6
CONTINUOUS
 70
0
 71
3
 72
11
 73
7
 74
0
 42
0.0000001
 43
0.0000001
 44
0.0000000001
 40
0.0
 40
0.0
 40
0.0
 40
0.0
 40
0.3262577854
 40
0.4691217908
 40
0.5987990045
 40
1.0
 40
1.0
 40
1.0
 40
1.0
 10
156.0801155877
 20
183.3198201334
 30
0.0
 10
155.7734266985
 20
183.1845647605
 30
0.0
 10
155.3403018438
 20
182.9710522307
 30
0.0
 10
154.8183253476
 20
182.6420679969
 30
0.0
 10
154.2680674275
 20
182.230135409
 30
0.0
 10
153.8745323653
 20
181.7861986858
 30
0.0
 10
153.7651792087
 20
181.3887845679
 30
0.0
  0
SPLINE
  5
4F5
100
AcDbEntity
  8
0
100
AcDbSpline
 62
7
  6
CONTINUOUS
 70
0
 71
3
 72
9
 73
5
 74
0
 42
0.0000001
 43
0.0000001
 44
0.0000000001
 40
0.0
 40
0.0
 40
0.0
 40
0.0
 40
0.7484856927
 40
1.0
 40
1.0
 40
1.0
 40
1.0
 10
196.3120094504
 20
179.1009409449
 30
0.0
 10
196.215544918
 20
179.344945478
 30
0.0
 10
196.0423678372
 20
179.6559483342
 30
0.0
 10
195.8218677052
 20
179.9286601137
 30
0.0
 10
195.7635875147
 20
179.9948191437
 30
0.0
  0
SPLINE
  5
4F6
100
AcDbEntity
  8
0
100
AcDbSpline
 62
7
  6
CONTINUOUS
 70
0
 71
3
 72
9
 73
5
 74
0
 42
0.0000001
 43
0.0000001
 44
0.0000000001
 40
0.0
 40
0.0
 40
0.0
 40
0.0
 40
0.2428966906
 40
1.0
 40
1.0
 40
1.0
 40
1.0
 10
110.4518516765
 20
181.4185278911
 30
0.0
 10
110.4448559265
 20
181.4417528132
 30
0.0
 10
110.4133834481
 20
181.5365571166
 30
0.0
 10
110.3715106493
 20
181.6278022007
 30
0.0
 10
110.3353243414
 20
181.6941842003
 30
0.0
  0
SPLINE
  5
4F7
100
AcDbEntity
  8
0
100
AcDbSpline
 62
7
  6
CONTINUOUS
 70
0
 71
3
 72
10
 73
6
 74
0
 42
0.0000001
 43
0.0000001
 44
0.0000000001
 40
0.0
 40
0.0
 40
0.0
 40
0.0
 40
0.3220013225
 40
0.5927692525
 40
1.0
 40
1.0
 40
1.0
 40
1.0
 10
116.1871556519
 20
183.19674609
 30
0.0
 10
115.916782699
 20
183.068287156
 30
0.0
 10
115.4273551562
 20
182.8077985943
 30
0.0
 10
114.6740861267
 20
182.2735987974
 30
0.0
 10
114.2416140434
 20
181.7537874856
 30
0.0
 10
114.1411792087
 20
181.3887845679
 30
0.0
  0
SPLINE
  5
4F8
100
AcDbEntity
  8
0
100
AcDbSpline
 62
7
  6
CONTINUOUS
 70
0
 71
3
 72
11
 73
7
 74
0
 42
0.0000001
 43
0.0000001
 44
0.0000000001
 40
0.0
 40
0.0
 40
0.0
 40
0.0
 40
0.2526920884
 40
0.5040532436
 40
0.7532465159
 40
1.0
 40
1.0
 40
1.0
 40
1.0
 10
193.3458512601
 20
178.8569211226
 30
0.0
 10
193.6469136892
 20
178.8569211226
 30
0.0
 10
194.2507463585
 20
178.7735318534
 30
0.0
 10
195.0824036285
 20
178.4072515037
 30
0.0
 10
195.7750876804
 20
177.8295826077
 30
0.0
 10
196.1083140587
 20
177.3297988295
 30
0.0
 10
196.2339619426
 20
177.0640150851
 30
0.0
  0
SPLINE
  5
4F9
100
AcDbEntity
  8
0
100
AcDbSpline
 62
7
  6
CONTINUOUS
 70
0
 71
3
 72
13
 73
9
 74
0
 42
0.0000001
 43
0.0000001
 44
0.0000000001
 40
0.0
 40
0.0
 40
0.0
 40
0.0
 40
0.3285404863
 40
0.4717649223
 40
0.601191537
 40
0.7174342608
 40
0.8215486306
 40
1.0
 40
1.0
 40
1.0
 40
1.0
 10
195.9884172607
 20
183.4407298813
 30
0.0
 10
195.6433698254
 20
183.2991341776
 30
0.0
 10
195.155466767
 20
183.0744646534
 30
0.0
 10
194.5676861824
 20
182.7264778489
 30
0.0
 10
194.2068305166
 20
182.4712598086
 30
0.0
 10
193.9063428296
 20
182.2099425144
 30
0.0
 10
193.6036022292
 20
181.8732579837
 30
0.0
 10
193.4429250948
 20
181.5841092806
 30
0.0
 10
193.3891792087
 20
181.3887845679
 30
0.0
  0
SPLINE
  5
4FA
100
AcDbEntity
  8
0
100
AcDbSpline
 62
7
  6
CONTINUOUS
 70
0
 71
3
 72
11
 73
7
 74
0
 42
0.0000001
 43
0.0000001
 44
0.0000000001
 40
0.0
 40
0.0
 40
0.0
 40
0.0
 40
0.2520964229
 40
0.5032536254
 40
0.7526542255
 40
1.0
 40
1.0
 40
1.0
 40
1.0
 10
153.7218512601
 20
178.8569211226
 30
0.0
 10
153.9808804901
 20
178.8569211226
 30
0.0
 10
154.5000567939
 20
178.7952768838
 30
0.0
 10
155.2315385465
 20
178.5230487037
 30
0.0
 10
155.8734140144
 20
178.0873812519
 30
0.0
 10
156.2176312491
 20
177.7022632895
 30
0.0
 10
156.3621957969
 20
177.4932363418
 30
0.0
  0
SPLINE
  5
4FB
100
AcDbEntity
  8
0
100
AcDbSpline
 62
7
  6
CONTINUOUS
 70
0
 71
3
 72
9
 73
5
 74
0
 42
0.0000001
 43
0.0000001
 44
0.0000000001
 40
0.0
 40
0.0
 40
0.0
 40
0.0
 40
0.5026903128
 40
1.0
 40
1.0
 40
1.0
 40
1.0
 10
114.0978512601
 20
178.8569211226
 30
0.0
 10
114.5465391723
 20
178.8569211226
 30
0.0
 10
115.449170448
 20
178.6707784478
 30
0.0
 10
116.1982244284
 20
178.1311804906
 30
0.0
 10
116.4949547215
 20
177.8010512712
 30
0.0
  0
ENDSEC
  0
SECTION
  2
OBJECTS
  0
DICTIONARY
  5
C
100
AcDbDictionary
280
0
281
1
  3
ACAD_GROUP
350
D
  3
ACAD_MLINESTYLE
350
17
  3
ACAD_LAYOUT
350
1A
  3
ACAD_PLOTSETTINGS
350
19
  3
ACAD_PLOTSTYLENAME
350
E
  0
DICTIONARY
  5
D
102
{ACAD_REACTORS
330
C
102
}
100
AcDbDictionary
280
0
281
1
  0
ACDBDICTIONARYWDFLT
  5
E
102
{ACAD_REACTORS
330
C
102
}
100
AcDbDictionary
281
1
  3
Normal
350
F
100
AcDbDictionaryWithDefault
340
F
  0
DICTIONARY
  5
17
102
{ACAD_REACTORS
330
C
102
}
100
AcDbDictionary
280
0
281
1
  3
Standard
350
18
  0
DICTIONARY
  5
19
102
{ACAD_REACTORS
330
C
102
}
100
AcDbDictionary
281
1
  0
DICTIONARY
  5
1A
102
{ACAD_REACTORS
330
C
102
}
100
AcDbDictionary
281
1
  3
Model
350
4FC
  3
Layout1
350
4FD
  0
ACDBPLACEHOLDER
  5
F
102
{ACAD_REACTORS
330
E
102
}
  0
MLINESTYLE
  5
18
102
{ACAD_REACTORS
330
17
102
}
100
AcDbMlineStyle
  2
STANDARD
 70
0
  3

 62
256
 51
90.0
 52
90.0
 71
2
 49
0.5
 62
256
  6
BYLAYER
 49
-0.5
 62
256
  6
BYLAYER
  0
LAYOUT
  5
4FC
102
{ACAD_REACTORS
330
1A
102
}
100
AcDbPlotSettings
  1

  2
none_device
  4

  6

 40
0.0
 41
0.0
 42
0.0
 43
0.0
 44
210.0
 45
297.0
 46
0.0
 47
0.0
 48
0.0
 49
0.0
140
0.0
141
0.0
142
1.0
143
1.0
 70
1024
 72
1
 73
0
 74
0
  7

 75
0
147
1.0
148
0.0
149
0.0
100
AcDbLayout
  1
Model
 70
0
 71
0
 10
0.0
 20
0.0
 11
210.0
 21
297.0
 12
0.0
 22
0.0
 32
0.0
 14
0.0
 24
0.0
 34
0.0
 15
0.0
 25
0.0
 35
0.0
146
0.0
 13
0.0
 23
0.0
 33
0.0
 16
1.0
 26
0.0
 36
0.0
 17
0.0
 27
1.0
 37
0.0
 76
0
330
210
345
0
346
0
  0
LAYOUT
  5
4FD
102
{ACAD_REACTORS
330
1A
102
}
100
AcDbPlotSettings
  1

  2
none_device
  4

  6

 40
0.0
 41
0.0
 42
0.0
 43
0.0
 44
210.0
 45
297.0
 46
0.0
 47
0.0
 48
0.0
 49
0.0
140
0.0
141
0.0
142
1.0
143
1.0
 70
0
 72
1
 73
0
 74
0
  7

 75
0
147
1.0
148
0.0
149
0.0
100
AcDbLayout
  1
Layout1
 70
0
 71
1
 10
0.0
 20
0.0
 11
210.0
 21
297.0
 12
0.0
 22
0.0
 32
0.0
 14
0.0
 24
0.0
 34
0.0
 15
0.0
 25
0.0
 35
0.0
146
0.0
 13
0.0
 23
0.0
 33
0.0
 16
1.0
 26
0.0
 36
0.0
 17
0.0
 27
1.0
 37
0.0
 76
0
330
211
345
0
346
0
  0
ENDSEC
  0
EOF
