999
DXF file: C:\Gen2D\CAD\LC2D09BD_3D-CAD\drw0001_1.dxf
999
Pro/ENGINEER 2019471 by Parametric Technology Corporation
  0
SECTION
  2
HEADER
  9
$ACADVER
  1
AC1024
  9
$DWGCODEPAGE
  3
ANSI_1252
  9
$EXTMAX
 10
166.1027125578
 20
234.9166934746
 30
0.0
  9
$EXTMIN
 10
-0.0
 20
0.0
 30
0.0
  9
$LIMMIN
 10
-0.0
 20
0.0
  9
$LIMMAX
 10
166.1027125578
 20
234.9166934746
  9
$VIEWCTR
 10
83.0513562789
 20
117.4583467373
  9
$VIEWSIZE
 40
234.9166934746
  9
$CLAYER
  8
0
  9
$LTSCALE
 40
15.3130881672
  9
$CELTYPE
  6
BYLAYER
  9
$DIMSCALE
 40
1.0
  9
$DIMASZ
 40
1.9774132447
  9
$DIMEXO
 40
1.0
  9
$DIMDLI
 40
10.5799518246
  9
$DIMEXE
 40
1.0
  9
$DIMCEN
 40
2.5057780637
  9
$DIMLFAC
 40
1.0
  9
$DIMBLK
  1
_FILLED
  9
$DIMALT
 70
0
  9
$DIMALTF
 40
0.0393700787
  9
$DIMTXT
 40
2.7683785426
  9
$DIMTOL
 70
1
  9
$DIMLIM
 70
0
  9
$DIMTFAC
 40
1.0
  9
$DIMTP
 40
0.01
  9
$DIMTM
 40
0.01
  9
$DIMGAP
 40
0.625
  9
$DIMDSEP
 70
46
  9
$AUNITS
 70
0
  9
$PDMODE
 70
3
  9
$PDSIZE
 40
0.3125
  9
$HANDSEED
  5
46F
  9
$TILEMODE
 70
1
  9
$MEASUREMENT
 70
1
  9
$INSUNITS
 70
4
  0
ENDSEC
  0
SECTION
  2
CLASSES
  0
CLASS
  1
ACDBDICTIONARYWDFLT
  2
AcDbDictionaryWithDefault
  3
AutoCAD 2000
 90
0
 91
1
280
0
281
0
  0
CLASS
  1
ACDBPLACEHOLDER
  2
AcDbPlaceHolder
  3
AutoCAD 2000
 90
0
 91
1
280
0
281
0
  0
CLASS
  1
LAYOUT
  2
AcDbLayout
  3
AutoCAD 2000
 90
0
 91
0
280
0
281
0
  0
ENDSEC
  0
SECTION
  2
TABLES
  0
TABLE
  2
VPORT
  5
8
100
AcDbSymbolTable
 70
2
  0
VPORT
  5
1F4
100
AcDbSymbolTableRecord
100
AcDbViewportTableRecord
  2
*ACTIVE
 70
0
 10
0.0
 20
0.0
 11
1.0
 21
1.0
 12
83.0513562789
 22
117.4583467373
 13
0.0
 23
0.0
 14
1.0
 24
1.0
 15
0.0
 25
0.0
 16
0.0
 26
0.0
 36
1.0
 17
0.0
 27
0.0
 37
0.0
 40
234.9166934746
 41
0.7070707071
 42
50.0
 43
0.0
 44
0.0
 50
0.0
 51
0.0
 71
0
 72
100
 73
1
 74
1
 75
0
 76
0
 77
0
 78
0
  0
ENDTAB
  0
TABLE
  2
LTYPE
  5
5
100
AcDbSymbolTable
 70
6
  0
LTYPE
  5
14
100
AcDbSymbolTableRecord
100
AcDbLinetypeTableRecord
  2
BYBLOCK
 70
0
  3

 72
65
 73
0
 40
0.0
  0
LTYPE
  5
15
100
AcDbSymbolTableRecord
100
AcDbLinetypeTableRecord
  2
BYLAYER
 70
0
  3

 72
65
 73
0
 40
0.0
  0
LTYPE
  5
16
100
AcDbSymbolTableRecord
100
AcDbLinetypeTableRecord
  2
CONTINUOUS
 70
64
  3
Solid line
 72
65
 73
0
 40
0.0
  0
LTYPE
  5
1F5
100
AcDbSymbolTableRecord
100
AcDbLinetypeTableRecord
  2
CENTER
 70
64
  3
____ _ ____ _ ____ _ ____ _ ____ _ ____ _ ____
 72
65
 73
4
 40
0.6
 49
0.375
 74
0
 49
-0.075
 74
0
 49
0.075
 74
0
 49
-0.075
 74
0
  0
LTYPE
  5
1F6
100
AcDbSymbolTableRecord
100
AcDbLinetypeTableRecord
  2
HIDDEN
 70
64
  3
- - - - - - - - - - - - - - - - - - - -
 72
65
 73
2
 40
0.2
 49
0.1
 74
0
 49
-0.1
 74
0
  0
LTYPE
  5
1F7
100
AcDbSymbolTableRecord
100
AcDbLinetypeTableRecord
  2
PHANTOM
 70
64
  3
_____ _ _ _____ _ _ _____ _ _ _____
 72
65
 73
6
 40
0.8
 49
0.45
 74
0
 49
-0.05
 74
0
 49
0.1
 74
0
 49
-0.05
 74
0
 49
0.1
 74
0
 49
-0.05
 74
0
  0
LTYPE
  5
1F8
100
AcDbSymbolTableRecord
100
AcDbLinetypeTableRecord
  2
DOT
 70
64
  3
. . . . . . . . . . . . . . . . . . . .
 72
65
 73
2
 40
0.2
 49
0.1
 74
0
 49
-0.1
 74
0
  0
LTYPE
  5
1F9
100
AcDbSymbolTableRecord
100
AcDbLinetypeTableRecord
  2
DASHED
 70
64
  3
- - - - - - - - - - - - - - - - - - - -
 72
65
 73
2
 40
0.2
 49
0.1
 74
0
 49
-0.1
 74
0
  0
ENDTAB
  0
TABLE
  2
LAYER
  5
2
100
AcDbSymbolTable
 70
36
  0
LAYER
  5
10
100
AcDbSymbolTableRecord
100
AcDbLayerTableRecord
  2
0
 70
0
 62
7
  6
CONTINUOUS
370
-3
390
F
  0
LAYER
  5
1FA
100
AcDbSymbolTableRecord
100
AcDbLayerTableRecord
  2
DEFAULT_1
 70
0
 62
7
  6
CENTER
370
-3
390
F
  0
LAYER
  5
1FB
100
AcDbSymbolTableRecord
100
AcDbLayerTableRecord
  2
DEFAULT_2
 70
0
 62
8
  6
HIDDEN
370
-3
390
F
  0
LAYER
  5
1FC
100
AcDbSymbolTableRecord
100
AcDbLayerTableRecord
  2
DEFAULT_3
 70
0
 62
7
  6
PHANTOM
370
-3
390
F
  0
LAYER
  5
1FD
100
AcDbSymbolTableRecord
100
AcDbLayerTableRecord
  2
00_COMPONENTS
 70
0
 62
7
  6
CONTINUOUS
370
-3
390
F
  0
LAYER
  5
1FE
100
AcDbSymbolTableRecord
100
AcDbLayerTableRecord
  2
01_1_DEFAULT_DATUMS
 70
0
 62
7
  6
CONTINUOUS
370
-3
390
F
  0
LAYER
  5
1FF
100
AcDbSymbolTableRecord
100
AcDbLayerTableRecord
  2
01_PLANES
 70
0
 62
7
  6
CONTINUOUS
370
-3
390
F
  0
LAYER
  5
200
100
AcDbSymbolTableRecord
100
AcDbLayerTableRecord
  2
02_COORD_SYS
 70
0
 62
7
  6
CONTINUOUS
370
-3
390
F
  0
LAYER
  5
201
100
AcDbSymbolTableRecord
100
AcDbLayerTableRecord
  2
03_AXES
 70
0
 62
7
  6
CONTINUOUS
370
-3
390
F
  0
LAYER
  5
202
100
AcDbSymbolTableRecord
100
AcDbLayerTableRecord
  2
04_POINTS
 70
0
 62
7
  6
CONTINUOUS
370
-3
390
F
  0
LAYER
  5
203
100
AcDbSymbolTableRecord
100
AcDbLayerTableRecord
  2
05_CURVES
 70
0
 62
7
  6
CONTINUOUS
370
-3
390
F
  0
LAYER
  5
204
100
AcDbSymbolTableRecord
100
AcDbLayerTableRecord
  2
06_SURFS
 70
0
 62
7
  6
CONTINUOUS
370
-3
390
F
  0
LAYER
  5
205
100
AcDbSymbolTableRecord
100
AcDbLayerTableRecord
  2
07_COSMETICS
 70
0
 62
7
  6
CONTINUOUS
370
-3
390
F
  0
LAYER
  5
206
100
AcDbSymbolTableRecord
100
AcDbLayerTableRecord
  2
10_NOTES
 70
0
 62
7
  6
CONTINUOUS
370
-3
390
F
  0
LAYER
  5
207
100
AcDbSymbolTableRecord
100
AcDbLayerTableRecord
  2
11_NOTES_PUB
 70
0
 62
7
  6
CONTINUOUS
370
-3
390
F
  0
LAYER
  5
208
100
AcDbSymbolTableRecord
100
AcDbLayerTableRecord
  2
13_REF_GTOL
 70
0
 62
7
  6
CONTINUOUS
370
-3
390
F
  0
LAYER
  5
209
100
AcDbSymbolTableRecord
100
AcDbLayerTableRecord
  2
16_MISC
 70
0
 62
7
  6
CONTINUOUS
370
-3
390
F
  0
LAYER
  5
20A
100
AcDbSymbolTableRecord
100
AcDbLayerTableRecord
  2
17_NO_PRINT
 70
0
 62
7
  6
CONTINUOUS
370
-3
390
F
  0
LAYER
  5
20B
100
AcDbSymbolTableRecord
100
AcDbLayerTableRecord
  2
18_DATUM_CAMS_JOINTS
 70
0
 62
7
  6
CONTINUOUS
370
-3
390
F
  0
LAYER
  5
20C
100
AcDbSymbolTableRecord
100
AcDbLayerTableRecord
  2
19_DATUM_FUNCTIONAL
 70
0
 62
7
  6
CONTINUOUS
370
-3
390
F
  0
LAYER
  5
20D
100
AcDbSymbolTableRecord
100
AcDbLayerTableRecord
  2
20_DATUM_KINEMATIC_SCHEME
 70
0
 62
7
  6
CONTINUOUS
370
-3
390
F
  0
LAYER
  5
20E
100
AcDbSymbolTableRecord
100
AcDbLayerTableRecord
  2
INTFCLR_65
 70
0
 62
7
  6
CONTINUOUS
370
-3
390
F
  0
LAYER
  5
20F
100
AcDbSymbolTableRecord
100
AcDbLayerTableRecord
  2
INTFCLR_75
 70
0
 62
7
  6
CONTINUOUS
370
-3
390
F
  0
ENDTAB
  0
TABLE
  2
STYLE
  5
3
100
AcDbSymbolTable
 70
1
  0
STYLE
  5
11
100
AcDbSymbolTableRecord
100
AcDbTextStyleTableRecord
  2
STANDARD
 70
0
 40
0.0
 41
0.8
 50
0.0
 71
0
 42
0.2
  3
txt
  4

  0
STYLE
  5
210
100
AcDbSymbolTableRecord
100
AcDbTextStyleTableRecord
  2
TEXTSTYLE_1
 70
0
 40
0.0
 41
0.8
 50
0.0
 71
0
 42
0.2
  3
gdt
  4

  0
ENDTAB
  0
TABLE
  2
VIEW
  5
6
100
AcDbSymbolTable
 70
0
  0
ENDTAB
  0
TABLE
  2
UCS
  5
7
100
AcDbSymbolTable
 70
0
  0
ENDTAB
  0
TABLE
  2
APPID
  5
9
100
AcDbSymbolTable
 70
1
  0
APPID
  5
211
100
AcDbSymbolTableRecord
100
AcDbRegAppTableRecord
  2
ACAD
 70
0
  0
ENDTAB
  0
TABLE
  2
BLOCK_RECORD
  5
1
100
AcDbSymbolTable
 70
0
  0
BLOCK_RECORD
  5
212
100
AcDbSymbolTableRecord
100
AcDbBlockTableRecord
  2
*Model_Space
  0
BLOCK_RECORD
  5
213
100
AcDbSymbolTableRecord
100
AcDbBlockTableRecord
  2
*Paper_Space
  0
BLOCK_RECORD
  5
214
100
AcDbSymbolTableRecord
100
AcDbBlockTableRecord
  2
_FILLED
  0
ENDTAB
  0
TABLE
  2
DIMSTYLE
  5
A
100
AcDbSymbolTable
 70
1
100
AcDbDimStyleTable
 71
0
  0
DIMSTYLE
105
215
100
AcDbSymbolTableRecord
100
AcDbDimStyleTableRecord
  2
STANDARD
 70
0
  3

  4

 40
1.0
 41
1.9774132447
 42
1.0
 43
0.38
 44
1.0
 45
0.0
 46
0.0
 47
0.01
 48
0.01
140
2.7683785426
141
0.09
142
0.0
143
25.4
144
1.0
145
0.0
146
1.0
147
0.625
 71
1
 72
0
 73
0
 74
0
 75
0
 76
0
 77
1
 78
8
 79
2
170
0
171
1
172
0
173
0
174
0
175
0
176
0
177
0
178
0
270
2
179
2
271
2
272
2
273
2
274
2
275
0
280
0
281
0
282
0
283
1
284
8
285
0
286
0
287
3
288
0
340
11
278
46
341
214
342
214
343
214
344
214
  0
ENDTAB
  0
ENDSEC
  0
SECTION
  2
BLOCKS
  0
BLOCK
  5
20
100
AcDbEntity
  8
0
100
AcDbBlockBegin
  2
*Model_Space
 70
0
 10
0.0
 20
0.0
 30
0.0
  3
*Model_Space
  1

  0
ENDBLK
  5
21
100
AcDbEntity
  8
0
100
AcDbBlockEnd
  0
BLOCK
  5
1C
100
AcDbEntity
  8
0
100
AcDbBlockBegin
  2
*Paper_Space
 70
0
 10
0.0
 20
0.0
 30
0.0
  3
*Paper_Space
  1

  0
ENDBLK
  5
1D
100
AcDbEntity
  8
0
100
AcDbBlockEnd
  0
BLOCK
  5
216
100
AcDbEntity
  8
0
100
AcDbBlockBegin
  2
_FILLED
 70
64
 10
0.0
 20
0.0
  3
_FILLED
  1

  0
SOLID
  5
217
100
AcDbEntity
  8
0
  6
BYBLOCK
 62
0
100
AcDbTrace
 10
0.0
 20
0.0
 11
-1.0
 21
0.25
 12
-1.0
 22
-0.25
 13
-1.0
 23
-0.25
  0
ENDBLK
  5
218
100
AcDbEntity
  8
0
  6
BYBLOCK
 62
0
100
AcDbBlockEnd
  0
ENDSEC
  0
SECTION
  2
ENTITIES
  0
LINE
  5
219
100
AcDbEntity
  8
0
100
AcDbLine
 62
7
  6
CONTINUOUS
 10
19.2698257138
 20
104.7726130428
 11
19.2698257138
 21
122.2732405149
  0
LINE
  5
21A
100
AcDbEntity
  8
0
100
AcDbLine
 62
7
  6
CONTINUOUS
 10
24.0074208343
 20
126.3613180358
 11
24.0074208343
 21
128.4377847469
  0
LINE
  5
21B
100
AcDbEntity
  8
0
100
AcDbLine
 62
7
  6
CONTINUOUS
 10
25.2812858828
 20
92.2673374312
 11
25.2812858828
 21
98.0359637438
  0
LINE
  5
21C
100
AcDbEntity
  8
0
100
AcDbLine
 62
7
  6
CONTINUOUS
 10
25.2812858828
 20
129.1732466855
 11
25.2812858828
 21
141.9106843927
  0
LINE
  5
21D
100
AcDbEntity
  8
0
100
AcDbLine
 62
7
  6
CONTINUOUS
 10
36.5585139449
 20
156.0966789064
 11
57.6302082939
 21
168.2623546918
  0
LINE
  5
21E
100
AcDbEntity
  8
0
100
AcDbLine
 62
7
  6
CONTINUOUS
 10
36.5585139449
 20
152.9531446004
 11
35.6746341484
 21
152.4428394081
  0
LINE
  5
21F
100
AcDbEntity
  8
0
100
AcDbLine
 62
7
  6
CONTINUOUS
 10
35.6746341484
 20
146.0290371737
 11
35.6746341484
 21
152.4428394081
  0
LINE
  5
220
100
AcDbEntity
  8
0
100
AcDbLine
 62
7
  6
CONTINUOUS
 10
36.5585139449
 20
152.9531446004
 11
36.5585139449
 21
156.0966789064
  0
LINE
  5
221
100
AcDbEntity
  8
0
100
AcDbLine
 62
7
  6
CONTINUOUS
 10
81.1060556894
 20
176.9170460975
 11
86.0557825499
 21
179.7747551746
  0
LINE
  5
222
100
AcDbEntity
  8
0
100
AcDbLine
 62
7
  6
CONTINUOUS
 10
50.3117330373
 20
157.1785544687
 11
53.1401483862
 21
158.8115310842
  0
LINE
  5
223
100
AcDbEntity
  8
0
100
AcDbLine
 62
7
  6
CONTINUOUS
 10
31.4590698067
 20
145.4774042477
 11
25.2812858828
 21
141.9106843927
  0
LINE
  5
224
100
AcDbEntity
  8
0
100
AcDbLine
 62
7
  6
CONTINUOUS
 10
81.1060556894
 20
174.0592876376
 11
64.3478667655
 21
164.3840005049
  0
LINE
  5
225
100
AcDbEntity
  8
0
100
AcDbLine
 62
7
  6
CONTINUOUS
 10
51.655300946
 20
154.7698997053
 11
53.1401483862
 21
155.6271716574
  0
LINE
  5
226
100
AcDbEntity
  8
0
100
AcDbLine
 62
7
  6
CONTINUOUS
 10
66.3630263529
 20
162.4857677172
 11
69.1914417017
 21
164.1187443327
  0
LINE
  5
227
100
AcDbEntity
  8
0
100
AcDbLine
 62
7
  6
CONTINUOUS
 10
94.7153803496
 20
59.1975429736
 11
99.0316655215
 21
57.0762937697
  0
LINE
  5
228
100
AcDbEntity
  8
0
100
AcDbLine
 62
7
  6
CONTINUOUS
 10
41.508314699
 20
140.3188277257
 11
41.508314699
 21
137.2684340433
  0
LINE
  5
229
100
AcDbEntity
  8
0
100
AcDbLine
 62
7
  6
CONTINUOUS
 10
69.8985514269
 20
163.7105035782
 11
67.7772399152
 21
162.4857711166
  0
LINE
  5
22A
100
AcDbEntity
  8
0
100
AcDbLine
 62
7
  6
CONTINUOUS
 10
58.3020493798
 20
155.8313735762
 11
55.4736340309
 21
154.1983969607
  0
LINE
  5
22B
100
AcDbEntity
  8
0
100
AcDbLine
 62
7
  6
CONTINUOUS
 10
47.4480143104
 20
149.4015515939
 11
50.2764296593
 21
151.0345282094
  0
LINE
  5
22C
100
AcDbEntity
  8
0
100
AcDbLine
 62
7
  6
CONTINUOUS
 10
69.8985514269
 20
162.1095576241
 11
85.8511746033
 21
171.3197539318
  0
LINE
  5
22D
100
AcDbEntity
  8
0
100
AcDbLine
 62
7
  6
CONTINUOUS
 10
69.1914593655
 20
161.6692896075
 11
71.3127708772
 21
162.8940220692
  0
LINE
  5
22E
100
AcDbEntity
  8
0
100
AcDbLine
 62
7
  6
CONTINUOUS
 10
50.2764355472
 20
150.218043301
 11
48.1551240356
 21
148.9933108394
  0
LINE
  5
22F
100
AcDbEntity
  8
0
100
AcDbLine
 62
7
  6
CONTINUOUS
 10
72.0198806023
 20
162.4857813146
 11
69.1914652535
 21
160.8528046992
  0
LINE
  5
230
100
AcDbEntity
  8
INTFCLR_75
100
AcDbLine
 62
7
420
3604575
  6
CONTINUOUS
 10
42.2398806804
 20
144.8839985554
 11
40.6359818323
 21
143.9579926512
  0
LINE
  5
231
100
AcDbEntity
  8
0
100
AcDbLine
 62
7
  6
CONTINUOUS
 10
58.7616798274
 20
154.3004654777
 11
62.155778246
 21
156.2600374163
  0
LINE
  5
232
100
AcDbEntity
  8
0
100
AcDbLine
 62
7
  6
CONTINUOUS
 10
63.7821170716
 20
157.1989989702
 11
66.469111653
 21
158.7503267549
  0
LINE
  5
233
100
AcDbEntity
  8
0
100
AcDbLine
 62
7
  6
CONTINUOUS
 10
70.7470936953
 20
160.6894886954
 11
69.1914652535
 21
159.7913515569
  0
LINE
  5
234
100
AcDbEntity
  8
0
100
AcDbLine
 62
7
  6
CONTINUOUS
 10
49.5693434859
 20
148.1768293304
 11
51.6906549975
 21
149.401561792
  0
LINE
  5
235
100
AcDbEntity
  8
0
100
AcDbLine
 62
7
  6
CONTINUOUS
 10
98.0059369048
 20
175.3337413276
 11
96.3088876955
 21
174.3539553583
  0
LINE
  5
236
100
AcDbEntity
  8
0
100
AcDbLine
 62
7
  6
CONTINUOUS
 10
53.1048685599
 20
149.4015651913
 11
50.276453211
 21
147.7685885759
  0
LINE
  5
237
100
AcDbEntity
  8
0
100
AcDbLine
 62
7
  6
CONTINUOUS
 10
68.3075969384
 20
157.6889007932
 11
65.620602357
 21
156.1375730085
  0
LINE
  5
238
100
AcDbEntity
  8
0
100
AcDbLine
 62
7
  6
CONTINUOUS
 10
63.9942635314
 20
155.1986114546
 11
60.6001651128
 21
153.239039516
  0
LINE
  5
239
100
AcDbEntity
  8
0
100
AcDbLine
 62
7
  6
CONTINUOUS
 10
53.1048685599
 20
148.3401120491
 11
51.549240118
 21
147.4419749106
  0
LINE
  5
23A
100
AcDbEntity
  8
0
100
AcDbLine
 62
7
  6
CONTINUOUS
 10
38.6549227591
 20
139.3849828912
 11
39.361369916
 21
139.7928479128
  0
LINE
  5
23B
100
AcDbEntity
  8
0
100
AcDbLine
 62
7
  6
CONTINUOUS
 10
48.1551240356
 20
144.7883233912
 11
49.5693434859
 21
145.6048184977
  0
LINE
  5
23C
100
AcDbEntity
  8
0
100
AcDbLine
 62
7
  6
CONTINUOUS
 10
60.2112691894
 20
151.4631839054
 11
63.0396845382
 21
153.0961605209
  0
LINE
  5
23D
100
AcDbEntity
  8
0
100
AcDbLine
 62
7
  6
CONTINUOUS
 10
73.5758526051
 20
74.631127346
 11
73.1341910065
 21
74.7429151121
  0
LINE
  5
23E
100
AcDbEntity
  8
0
100
AcDbLine
 62
7
  6
CONTINUOUS
 10
47.9077695823
 20
84.9728528162
 11
22.0982646144
 21
99.8736403562
  0
LINE
  5
23F
100
AcDbEntity
  8
0
100
AcDbLine
 62
7
  6
CONTINUOUS
 10
79.5155742963
 20
66.7315542743
 11
53.7060693285
 21
81.6323418143
  0
LINE
  5
240
100
AcDbEntity
  8
0
100
AcDbLine
 62
7
  6
CONTINUOUS
 10
87.3644522075
 20
67.6909415949
 11
85.4424096809
 21
68.800608261
  0
LINE
  5
241
100
AcDbEntity
  8
0
100
AcDbLine
 62
7
  6
CONTINUOUS
 10
102.8500071067
 20
58.8725040887
 11
102.496406422
 21
59.0766509208
  0
LINE
  5
242
100
AcDbEntity
  8
0
100
AcDbLine
 62
7
  6
CONTINUOUS
 10
47.4480143104
 20
149.4015515939
 11
47.4480143104
 21
145.1965641457
  0
LINE
  5
243
100
AcDbEntity
  8
0
100
AcDbLine
 62
7
  6
CONTINUOUS
 10
48.1551240356
 20
148.9933108394
 11
48.1551240356
 21
144.7883233912
  0
LINE
  5
244
100
AcDbEntity
  8
0
100
AcDbLine
 62
7
  6
CONTINUOUS
 10
25.2812858828
 20
129.1732466855
 11
24.0074208343
 21
128.4377847469
  0
LINE
  5
245
100
AcDbEntity
  8
0
100
AcDbLine
 62
7
  6
CONTINUOUS
 10
50.276453211
 20
143.5636011276
 11
51.549240118
 21
144.2984406046
  0
LINE
  5
246
100
AcDbEntity
  8
0
100
AcDbLine
 62
7
  6
CONTINUOUS
 10
61.5548370981
 20
149.054529142
 11
63.0396845382
 21
149.9118010941
  0
LINE
  5
247
100
AcDbEntity
  8
0
100
AcDbLine
 62
7
  6
CONTINUOUS
 10
20.0982735681
 20
124.1043842814
 11
24.8358692775
 21
126.8396201123
  0
LINE
  5
248
100
AcDbEntity
  8
0
100
AcDbLine
 62
7
  6
CONTINUOUS
 10
26.8358603237
 20
126.6415229963
 11
22.0982646144
 21
123.9062871654
  0
LINE
  5
249
100
AcDbEntity
  8
0
100
AcDbLine
 62
7
  6
CONTINUOUS
 10
68.2015855318
 20
150.1160030129
 11
65.373170183
 21
148.4830263974
  0
LINE
  5
24A
100
AcDbEntity
  8
0
100
AcDbLine
 62
7
  6
CONTINUOUS
 10
78.0656923041
 20
155.7293832299
 11
80.8941076529
 21
157.3623598454
  0
LINE
  5
24B
100
AcDbEntity
  8
0
100
AcDbLine
 62
7
  6
CONTINUOUS
 10
44.849632088
 20
135.8580303633
 11
45.2931270782
 21
136.1140807868
  0
LINE
  5
24C
100
AcDbEntity
  8
0
100
AcDbLine
 62
7
  6
CONTINUOUS
 10
81.6012173781
 20
156.9541190909
 11
79.4799058664
 21
155.7293866293
  0
LINE
  5
24D
100
AcDbEntity
  8
0
100
AcDbLine
 62
7
  6
CONTINUOUS
 10
104.0870946721
 20
169.8633070586
 11
105.7841438815
 21
170.8430930278
  0
LINE
  5
24E
100
AcDbEntity
  8
0
100
AcDbLine
 62
7
  6
CONTINUOUS
 10
107.2118872295
 20
58.0583811864
 11
108.4846847348
 21
57.3235478283
  0
LINE
  5
24F
100
AcDbEntity
  8
0
100
AcDbLine
 62
7
  6
CONTINUOUS
 10
106.9190578827
 20
58.474973753
 11
108.191855388
 21
57.7401403948
  0
LINE
  5
250
100
AcDbEntity
  8
0
100
AcDbLine
 62
7
  6
CONTINUOUS
 10
49.5693434859
 20
148.1768293304
 11
49.5693434859
 21
143.9718418822
  0
LINE
  5
251
100
AcDbEntity
  8
0
100
AcDbLine
 62
7
  6
CONTINUOUS
 10
50.2764355472
 20
148.5850666855
 11
50.2764355472
 21
150.218043301
  0
LINE
  5
252
100
AcDbEntity
  8
0
100
AcDbLine
 62
7
  6
CONTINUOUS
 10
50.276453211
 20
147.7685885759
 11
50.276453211
 21
143.5636011276
  0
LINE
  5
253
100
AcDbEntity
  8
0
100
AcDbLine
 62
7
  6
CONTINUOUS
 10
50.3117330373
 20
157.1785544687
 11
50.3117330373
 21
155.5455846519
  0
LINE
  5
254
100
AcDbEntity
  8
0
100
AcDbLine
 62
7
  6
CONTINUOUS
 10
50.7362084828
 20
104.1065269388
 11
50.7362084828
 21
86.6058994666
  0
LINE
  5
255
100
AcDbEntity
  8
0
100
AcDbLine
 62
7
  6
CONTINUOUS
 10
50.8776304279
 20
86.5313145009
 11
50.8776304279
 21
104.0248787879
  0
LINE
  5
256
100
AcDbEntity
  8
0
100
AcDbLine
 62
7
  6
CONTINUOUS
 10
51.4078508511
 20
131.8573506219
 11
51.4078508511
 21
134.5443865763
  0
LINE
  5
257
100
AcDbEntity
  8
0
100
AcDbLine
 62
7
  6
CONTINUOUS
 10
51.549240118
 20
144.2984406046
 11
51.549240118
 21
147.4419749106
  0
LINE
  5
258
100
AcDbEntity
  8
0
100
AcDbLine
 62
7
  6
CONTINUOUS
 10
53.1048685599
 20
149.4015651913
 11
53.1048685599
 21
148.3401120491
  0
LINE
  5
259
100
AcDbEntity
  8
0
100
AcDbLine
 62
7
  6
CONTINUOUS
 10
53.1401483862
 20
155.6271716574
 11
53.1401483862
 21
158.8115310842
  0
LINE
  5
25A
100
AcDbEntity
  8
0
100
AcDbLine
 62
7
  6
CONTINUOUS
 10
54.153391202
 20
116.7552652455
 11
54.153391202
 21
116.3847515131
  0
LINE
  5
25B
100
AcDbEntity
  8
0
100
AcDbLine
 62
7
  6
CONTINUOUS
 10
42.6218466231
 20
91.0122209348
 11
42.7458685887
 21
91.4506213425
  0
LINE
  5
25C
100
AcDbEntity
  8
INTFCLR_75
100
AcDbLine
 62
7
420
3604575
  6
CONTINUOUS
 10
51.7987295145
 20
138.9719332515
 11
50.2411050638
 21
138.0726437236
  0
LINE
  5
25D
100
AcDbEntity
  8
0
100
AcDbLine
 62
7
  6
CONTINUOUS
 10
80.8941253167
 20
154.9129051202
 11
83.0154368284
 21
156.1376375818
  0
LINE
  5
25E
100
AcDbEntity
  8
0
100
AcDbLine
 62
7
  6
CONTINUOUS
 10
83.7225465535
 20
155.7293968273
 11
80.8941312046
 21
154.0964202118
  0
LINE
  5
25F
100
AcDbEntity
  8
0
100
AcDbLine
 62
7
  6
CONTINUOUS
 10
82.4497596465
 20
153.9331042081
 11
80.8941312046
 21
153.0349670696
  0
LINE
  5
260
100
AcDbEntity
  8
0
100
AcDbLine
 62
7
  6
CONTINUOUS
 10
48.1368611183
 20
133.4285135689
 11
49.0871825487
 21
133.9771786274
  0
LINE
  5
261
100
AcDbEntity
  8
0
100
AcDbLine
 62
7
  6
CONTINUOUS
 10
70.1108053414
 20
145.7478133421
 11
72.9392206903
 21
147.3807899576
  0
LINE
  5
262
100
AcDbEntity
  8
INTFCLR_75
100
AcDbLine
 62
7
420
3604575
  6
CONTINUOUS
 10
37.7252243867
 20
126.1516761009
 11
36.1420700373
 21
125.2376469671
  0
LINE
  5
263
100
AcDbEntity
  8
0
100
AcDbLine
 62
7
  6
CONTINUOUS
 10
105.800232679
 20
164.4677598506
 11
107.094760397
 21
165.2151513157
  0
LINE
  5
264
100
AcDbEntity
  8
0
100
AcDbLine
 62
7
  6
CONTINUOUS
 10
109.1725902866
 20
166.414779801
 11
110.7499595395
 21
167.3254689277
  0
LINE
  5
265
100
AcDbEntity
  8
0
100
AcDbLine
 62
7
  6
CONTINUOUS
 10
107.0859115101
 20
165.1376196844
 11
112.0356383706
 21
167.9953287615
  0
LINE
  5
266
100
AcDbEntity
  8
0
100
AcDbLine
 62
7
  6
CONTINUOUS
 10
107.795128104
 20
165.1715575509
 11
112.7448549645
 21
168.029266628
  0
LINE
  5
267
100
AcDbEntity
  8
0
100
AcDbLine
 62
7
  6
CONTINUOUS
 10
41.8973369185
 20
92.9203131485
 11
41.4556753199
 21
93.0321009146
  0
LINE
  5
268
100
AcDbEntity
  8
0
100
AcDbLine
 62
7
  6
CONTINUOUS
 10
55.639245078
 20
80.5162475243
 11
55.639245078
 21
74.6013180814
  0
LINE
  5
269
100
AcDbEntity
  8
0
100
AcDbLine
 62
7
  6
CONTINUOUS
 10
55.639245078
 20
111.5072273357
 11
55.639245078
 21
124.2446650429
  0
LINE
  5
26A
100
AcDbEntity
  8
0
100
AcDbLine
 62
7
  6
CONTINUOUS
 10
55.9685755109
 20
158.8115378829
 11
55.9685755109
 21
155.6271784561
  0
LINE
  5
26B
100
AcDbEntity
  8
0
100
AcDbLine
 62
7
  6
CONTINUOUS
 10
57.7563400635
 20
79.2939698161
 11
57.7563400635
 21
73.3790403732
  0
LINE
  5
26C
100
AcDbEntity
  8
0
100
AcDbLine
 62
7
  6
CONTINUOUS
 10
57.7563400635
 20
110.2849496275
 11
57.7563400635
 21
123.0223873347
  0
LINE
  5
26D
100
AcDbEntity
  8
0
100
AcDbLine
 62
7
  6
CONTINUOUS
 10
58.3020376039
 20
155.8313735762
 11
58.3020376039
 21
157.464343393
  0
LINE
  5
26E
100
AcDbEntity
  8
0
100
AcDbLine
 62
7
  6
CONTINUOUS
 10
58.9739249103
 20
127.5047116088
 11
58.9739249103
 21
130.3494210261
  0
LINE
  5
26F
100
AcDbEntity
  8
0
100
AcDbLine
 62
7
  6
CONTINUOUS
 10
60.2112691894
 20
151.4631839054
 11
60.2112691894
 21
149.8302140886
  0
LINE
  5
270
100
AcDbEntity
  8
0
100
AcDbLine
 62
7
  6
CONTINUOUS
 10
71.4543732501
 20
143.3391585787
 11
72.9392206903
 21
144.1964305308
  0
LINE
  5
271
100
AcDbEntity
  8
0
100
AcDbLine
 62
7
  6
CONTINUOUS
 10
52.1607185096
 20
131.5875844797
 11
52.8671656666
 21
131.9954495013
  0
LINE
  5
272
100
AcDbEntity
  8
0
100
AcDbLine
 62
7
  6
CONTINUOUS
 10
78.1011216839
 20
144.4006324496
 11
75.272706335
 21
142.7676558341
  0
LINE
  5
273
100
AcDbEntity
  8
INTFCLR_75
100
AcDbLine
 62
7
420
3604575
  6
CONTINUOUS
 10
109.3197337227
 20
161.6080428927
 11
110.4248535666
 21
162.2460803235
  0
LINE
  5
274
100
AcDbEntity
  8
0
100
AcDbLine
 62
7
  6
CONTINUOUS
 10
111.9006842195
 20
162.3798784156
 11
116.85041108
 21
165.2375874927
  0
LINE
  5
275
100
AcDbEntity
  8
INTFCLR_75
100
AcDbLine
 62
7
420
3604575
  6
CONTINUOUS
 10
62.3488615253
 20
133.6321821403
 11
60.4350541364
 21
132.5272515246
  0
LINE
  5
276
100
AcDbEntity
  8
0
100
AcDbLine
 62
7
  6
CONTINUOUS
 10
55.699158561
 20
129.0581570778
 11
57.1643660078
 21
129.9040899421
  0
LINE
  5
277
100
AcDbEntity
  8
0
100
AcDbLine
 62
7
  6
CONTINUOUS
 10
107.9333860032
 20
158.570871654
 11
91.1751970794
 21
148.8955845213
  0
LINE
  5
278
100
AcDbEntity
  8
0
100
AcDbLine
 62
7
  6
CONTINUOUS
 10
145.6480167185
 20
98.1366043742
 11
145.9480051207
 21
98.1663098329
  0
LINE
  5
279
100
AcDbEntity
  8
0
100
AcDbLine
 62
7
  6
CONTINUOUS
 10
119.9811857041
 20
66.109548624
 11
119.7523804695
 21
66.2416463994
  0
LINE
  5
27A
100
AcDbEntity
  8
0
100
AcDbLine
 62
7
  6
CONTINUOUS
 10
22.0982646144
 20
123.9062871654
 11
47.9077695823
 21
109.0054996254
  0
LINE
  5
27B
100
AcDbEntity
  8
0
100
AcDbLine
 62
7
  6
CONTINUOUS
 10
53.7060693285
 20
105.6579254383
 11
79.5155742963
 21
90.7571378983
  0
LINE
  5
27C
100
AcDbEntity
  8
0
100
AcDbLine
 62
7
  6
CONTINUOUS
 10
119.1349913239
 20
68.6828850514
 11
119.9811857041
 21
68.1943455504
  0
LINE
  5
27D
100
AcDbEntity
  8
0
100
AcDbLine
 62
7
  6
CONTINUOUS
 10
62.155778246
 20
154.1371678161
 11
62.155778246
 21
156.2600374163
  0
LINE
  5
27E
100
AcDbEntity
  8
0
100
AcDbLine
 62
7
  6
CONTINUOUS
 10
63.0396845382
 20
149.9118010941
 11
63.0396845382
 21
153.0961605209
  0
LINE
  5
27F
100
AcDbEntity
  8
0
100
AcDbLine
 62
7
  6
CONTINUOUS
 10
65.868111663
 20
153.0961673196
 11
65.868111663
 21
149.9118078928
  0
LINE
  5
280
100
AcDbEntity
  8
0
100
AcDbLine
 62
7
  6
CONTINUOUS
 10
66.3630263529
 20
162.4857677172
 11
66.3630263529
 21
161.424314575
  0
LINE
  5
281
100
AcDbEntity
  8
0
100
AcDbLine
 62
7
  6
CONTINUOUS
 10
66.469111653
 20
156.6274571547
 11
66.469111653
 21
158.7503267549
  0
LINE
  5
282
100
AcDbEntity
  8
0
100
AcDbLine
 62
7
  6
CONTINUOUS
 10
106.8611570627
 20
164.9291624378
 11
107.085917916
 21
165.1376085937
  0
LINE
  5
283
100
AcDbEntity
  8
0
100
AcDbLine
 62
7
  6
CONTINUOUS
 10
106.4108763482
 20
164.3443368864
 11
106.5232941535
 21
164.4484954314
  0
LINE
  5
284
100
AcDbEntity
  8
INTFCLR_75
100
AcDbLine
 62
7
420
3604575
  6
CONTINUOUS
 10
45.355359436
 20
121.9021342675
 11
43.6436329283
 21
120.9138744066
  0
LINE
  5
285
100
AcDbEntity
  8
0
100
AcDbLine
 62
7
  6
CONTINUOUS
 10
117.7342982364
 20
163.2134505519
 11
112.7845713759
 21
160.3557414748
  0
LINE
  5
286
100
AcDbEntity
  8
0
100
AcDbLine
 62
7
  6
CONTINUOUS
 10
112.7845713759
 20
158.627860295
 11
117.7342982364
 21
161.4855693721
  0
LINE
  5
287
100
AcDbEntity
  8
0
100
AcDbLine
 62
7
  6
CONTINUOUS
 10
59.7479510248
 20
127.2316241735
 11
61.2126740437
 21
128.0772773549
  0
LINE
  5
288
100
AcDbEntity
  8
0
100
AcDbLine
 62
7
  6
CONTINUOUS
 10
26.8358603237
 20
126.6415229963
 11
52.6453652916
 21
111.7407354563
  0
LINE
  5
289
100
AcDbEntity
  8
0
100
AcDbLine
 62
7
  6
CONTINUOUS
 10
58.4436650378
 20
108.3931612692
 11
84.2531700057
 21
93.4923737292
  0
LINE
  5
28A
100
AcDbEntity
  8
0
100
AcDbLine
 62
7
  6
CONTINUOUS
 10
87.3644522075
 20
91.8594131419
 11
24.0074208343
 21
128.4377847469
  0
LINE
  5
28B
100
AcDbEntity
  8
0
100
AcDbLine
 62
7
  6
CONTINUOUS
 10
67.353149835
 20
127.7381035843
 11
67.353149835
 21
134.1536536056
  0
LINE
  5
28C
100
AcDbEntity
  8
0
100
AcDbLine
 62
7
  6
CONTINUOUS
 10
68.201573756
 20
150.1160030129
 11
68.201573756
 21
151.7489728297
  0
LINE
  5
28D
100
AcDbEntity
  8
0
100
AcDbLine
 62
7
  6
CONTINUOUS
 10
69.1914652535
 20
160.8528046992
 11
69.1914652535
 21
159.7913515569
  0
LINE
  5
28E
100
AcDbEntity
  8
0
100
AcDbLine
 62
7
  6
CONTINUOUS
 10
69.8985514269
 20
163.7105035782
 11
69.8985514269
 21
162.0775269627
  0
LINE
  5
28F
100
AcDbEntity
  8
0
100
AcDbLine
 62
7
  6
CONTINUOUS
 10
70.1108053414
 20
145.7478133421
 11
70.1108053414
 21
144.1148435253
  0
LINE
  5
290
100
AcDbEntity
  8
0
100
AcDbLine
 62
7
  6
CONTINUOUS
 10
72.0198806023
 20
162.4857813146
 11
72.0198806023
 21
159.954661456
  0
LINE
  5
291
100
AcDbEntity
  8
0
100
AcDbLine
 62
7
  6
CONTINUOUS
 10
72.9392206903
 20
144.1964305308
 11
72.9392206903
 21
147.3807899576
  0
LINE
  5
292
100
AcDbEntity
  8
0
100
AcDbLine
 62
7
  6
CONTINUOUS
 10
98.1829639845
 20
144.1149337638
 11
101.0113793333
 21
145.7479103793
  0
LINE
  5
293
100
AcDbEntity
  8
INTFCLR_75
100
AcDbLine
 62
7
420
3604575
  6
CONTINUOUS
 10
53.5552624965
 20
117.9815461851
 11
51.5485878933
 21
116.8229989784
  0
LINE
  5
294
100
AcDbEntity
  8
0
100
AcDbLine
 62
7
  6
CONTINUOUS
 10
101.7184890585
 20
145.3396696248
 11
99.5971775469
 21
144.1149371632
  0
LINE
  5
295
100
AcDbEntity
  8
0
100
AcDbLine
 62
7
  6
CONTINUOUS
 10
79.267951942
 20
131.0307176405
 11
82.0963672909
 21
132.663694256
  0
LINE
  5
296
100
AcDbEntity
  8
0
100
AcDbLine
 62
7
  6
CONTINUOUS
 10
101.7184890585
 20
143.9020213322
 11
117.5296902899
 21
153.0305681293
  0
LINE
  5
297
100
AcDbEntity
  8
0
100
AcDbLine
 62
7
  6
CONTINUOUS
 10
54.153391202
 20
116.3847515131
 11
54.2313753212
 21
116.4297753966
  0
LINE
  5
298
100
AcDbEntity
  8
0
100
AcDbLine
 62
7
  6
CONTINUOUS
 10
101.0113969971
 20
143.2984556541
 11
103.1327085088
 21
144.5231881157
  0
LINE
  5
299
100
AcDbEntity
  8
0
100
AcDbLine
 62
7
  6
CONTINUOUS
 10
82.0963731788
 20
131.8472093476
 11
79.9750616672
 21
130.622476886
  0
LINE
  5
29A
100
AcDbEntity
  8
0
100
AcDbLine
 62
7
  6
CONTINUOUS
 10
103.8398182339
 20
144.1149473612
 11
101.0114028851
 21
142.4819707457
  0
LINE
  5
29B
100
AcDbEntity
  8
INTFCLR_75
100
AcDbLine
 62
7
420
3604575
  6
CONTINUOUS
 10
73.918396367
 20
126.5948127529
 11
72.3144975189
 21
125.6688068487
  0
LINE
  5
29C
100
AcDbEntity
  8
0
100
AcDbLine
 62
7
  6
CONTINUOUS
 10
90.581617459
 20
135.9296315243
 11
93.9757158776
 21
137.8892034629
  0
LINE
  5
29D
100
AcDbEntity
  8
0
100
AcDbLine
 62
7
  6
CONTINUOUS
 10
95.6020547032
 20
138.8281650168
 11
98.2890492846
 21
140.3794928015
  0
LINE
  5
29E
100
AcDbEntity
  8
0
100
AcDbLine
 62
7
  6
CONTINUOUS
 10
102.5670313269
 20
142.318654742
 11
101.0114028851
 21
141.4205176035
  0
LINE
  5
29F
100
AcDbEntity
  8
0
100
AcDbLine
 62
7
  6
CONTINUOUS
 10
81.3892811175
 20
129.805995377
 11
83.5105926291
 21
131.0307278386
  0
LINE
  5
2A0
100
AcDbEntity
  8
0
100
AcDbLine
 62
7
  6
CONTINUOUS
 10
129.6844525914
 20
157.0445555251
 11
127.9874033821
 21
156.0647695558
  0
LINE
  5
2A1
100
AcDbEntity
  8
0
100
AcDbLine
 62
7
  6
CONTINUOUS
 10
84.9248061915
 20
131.0307312379
 11
82.0963908426
 21
129.3977546224
  0
LINE
  5
2A2
100
AcDbEntity
  8
0
100
AcDbLine
 62
7
  6
CONTINUOUS
 10
65.5388421528
 20
128.7352685743
 11
62.4537862684
 21
127.5432799577
  0
LINE
  5
2A3
100
AcDbEntity
  8
0
100
AcDbLine
 62
7
  6
CONTINUOUS
 10
127.4217831855
 20
78.1621269031
 11
131.3816660741
 21
75.8759391719
  0
LINE
  5
2A4
100
AcDbEntity
  8
0
100
AcDbLine
 62
7
  6
CONTINUOUS
 10
119.9811857041
 20
66.1095486241
 11
119.8548188293
 21
66.2225156269
  0
LINE
  5
2A5
100
AcDbEntity
  8
0
100
AcDbLine
 62
7
  6
CONTINUOUS
 10
106.9190578827
 20
58.474973753
 11
107.212025744
 21
58.0586206826
  0
LINE
  5
2A6
100
AcDbEntity
  8
0
100
AcDbLine
 62
7
  6
CONTINUOUS
 10
108.4848229725
 20
57.3237868446
 11
108.191855388
 21
57.7401403948
  0
LINE
  5
2A7
100
AcDbEntity
  8
0
100
AcDbLine
 62
7
  6
CONTINUOUS
 10
73.2575413585
 20
118.9373434075
 11
73.2575413585
 21
121.9904094363
  0
LINE
  5
2A8
100
AcDbEntity
  8
0
100
AcDbLine
 62
7
  6
CONTINUOUS
 10
75.767647815
 20
147.3807967563
 11
75.767647815
 21
144.1964373295
  0
LINE
  5
2A9
100
AcDbEntity
  8
0
100
AcDbLine
 62
7
  6
CONTINUOUS
 10
78.0656923041
 20
155.7293832299
 11
78.0656923041
 21
154.6679300877
  0
LINE
  5
2AA
100
AcDbEntity
  8
0
100
AcDbLine
 62
7
  6
CONTINUOUS
 10
78.101109908
 20
144.4006324496
 11
78.101109908
 21
146.0336022664
  0
LINE
  5
2AB
100
AcDbEntity
  8
0
100
AcDbLine
 62
7
  6
CONTINUOUS
 10
106.5232941535
 20
164.4484954314
 11
106.8611570627
 21
164.9291624378
  0
LINE
  5
2AC
100
AcDbEntity
  8
0
100
AcDbLine
 62
7
  6
CONTINUOUS
 10
100.12753457
 20
139.3180668398
 11
97.4405399886
 21
137.7667390551
  0
LINE
  5
2AD
100
AcDbEntity
  8
0
100
AcDbLine
 62
7
  6
CONTINUOUS
 10
95.814201163
 20
136.8277775011
 11
92.4201027444
 21
134.8682055626
  0
LINE
  5
2AE
100
AcDbEntity
  8
0
100
AcDbLine
 62
7
  6
CONTINUOUS
 10
47.9077695823
 20
109.0054996254
 11
52.6453652916
 21
111.7407354563
  0
LINE
  5
2AF
100
AcDbEntity
  8
0
100
AcDbLine
 62
7
  6
CONTINUOUS
 10
84.9248061915
 20
129.9692780957
 11
83.3691777496
 21
129.0711409571
  0
LINE
  5
2B0
100
AcDbEntity
  8
0
100
AcDbLine
 62
7
  6
CONTINUOUS
 10
70.4253078745
 20
121.0671887803
 11
71.1152721914
 21
121.4655374866
  0
LINE
  5
2B1
100
AcDbEntity
  8
0
100
AcDbLine
 62
7
  6
CONTINUOUS
 10
79.9750616672
 20
126.4174894378
 11
81.3892811175
 21
127.2339845443
  0
LINE
  5
2B2
100
AcDbEntity
  8
0
100
AcDbLine
 62
7
  6
CONTINUOUS
 10
82.0963908426
 20
125.1927671742
 11
83.3691777496
 21
125.9276066512
  0
LINE
  5
2B3
100
AcDbEntity
  8
0
100
AcDbLine
 62
7
  6
CONTINUOUS
 10
51.7060782822
 20
105.8560225544
 11
56.4436739915
 21
108.5912583853
  0
LINE
  5
2B4
100
AcDbEntity
  8
0
100
AcDbLine
 62
7
  6
CONTINUOUS
 10
144.4630870625
 20
85.1431110945
 11
141.4620239267
 21
86.2682152877
  0
LINE
  5
2B5
100
AcDbEntity
  8
0
100
AcDbLine
 62
7
  6
CONTINUOUS
 10
79.267951942
 20
131.0307176405
 11
79.267951942
 21
126.8257301923
  0
LINE
  5
2B6
100
AcDbEntity
  8
0
100
AcDbLine
 62
7
  6
CONTINUOUS
 10
79.9750616672
 20
130.622476886
 11
79.9750616672
 21
126.4174894378
  0
LINE
  5
2B7
100
AcDbEntity
  8
0
100
AcDbLine
 62
7
  6
CONTINUOUS
 10
80.8941312046
 20
154.0964202118
 11
80.8941312046
 21
153.0349670696
  0
LINE
  5
2B8
100
AcDbEntity
  8
0
100
AcDbLine
 62
7
  6
CONTINUOUS
 10
81.1060556894
 20
176.9170460975
 11
81.1060556894
 21
174.0592876376
  0
LINE
  5
2B9
100
AcDbEntity
  8
0
100
AcDbLine
 62
7
  6
CONTINUOUS
 10
81.3892811175
 20
129.805995377
 11
81.3892811175
 21
125.6010079287
  0
LINE
  5
2BA
100
AcDbEntity
  8
0
100
AcDbLine
 62
7
  6
CONTINUOUS
 10
81.6012173781
 20
156.9541190909
 11
81.6012173781
 21
155.3211424753
  0
LINE
  5
2BB
100
AcDbEntity
  8
0
100
AcDbLine
 62
7
  6
CONTINUOUS
 10
82.0963731788
 20
130.2142327321
 11
82.0963731788
 21
131.8472093476
  0
LINE
  5
2BC
100
AcDbEntity
  8
0
100
AcDbLine
 62
7
  6
CONTINUOUS
 10
82.0963908426
 20
129.3977546224
 11
82.0963908426
 21
125.1927671742
  0
LINE
  5
2BD
100
AcDbEntity
  8
0
100
AcDbLine
 62
7
  6
CONTINUOUS
 10
82.3440131969
 20
85.8581652117
 11
82.3440131969
 21
68.3646009247
  0
LINE
  5
2BE
100
AcDbEntity
  8
0
100
AcDbLine
 62
7
  6
CONTINUOUS
 10
83.2984994556
 20
113.4612296532
 11
83.2984994556
 21
116.1334737827
  0
LINE
  5
2BF
100
AcDbEntity
  8
0
100
AcDbLine
 62
7
  6
CONTINUOUS
 10
83.3691777496
 20
125.9276066512
 11
83.3691777496
 21
129.0711409571
  0
LINE
  5
2C0
100
AcDbEntity
  8
0
100
AcDbLine
 62
7
  6
CONTINUOUS
 10
83.7225465535
 20
155.7293968273
 11
83.7225465535
 21
153.1982769687
  0
LINE
  5
2C1
100
AcDbEntity
  8
0
100
AcDbLine
 62
7
  6
CONTINUOUS
 10
84.9248061915
 20
131.0307312379
 11
84.9248061915
 21
129.9692780957
  0
LINE
  5
2C2
100
AcDbEntity
  8
0
100
AcDbLine
 62
7
  6
CONTINUOUS
 10
50.9127952688
 20
104.2084787586
 11
50.7362084828
 21
104.1065269388
  0
LINE
  5
2C3
100
AcDbEntity
  8
0
100
AcDbLine
 62
7
  6
CONTINUOUS
 10
58.4436650378
 20
108.3931612692
 11
53.7060693285
 21
105.6579254383
  0
LINE
  5
2C4
100
AcDbEntity
  8
0
100
AcDbLine
 62
7
  6
CONTINUOUS
 10
109.9563409082
 20
137.3177252011
 11
112.784756257
 21
138.9507018165
  0
LINE
  5
2C5
100
AcDbEntity
  8
0
100
AcDbLine
 62
7
  6
CONTINUOUS
 10
76.5771624833
 20
117.5154942159
 11
77.0427911299
 21
117.7843234356
  0
LINE
  5
2C6
100
AcDbEntity
  8
0
100
AcDbLine
 62
7
  6
CONTINUOUS
 10
135.7656103587
 20
151.574121256
 11
137.462659568
 21
152.5539072253
  0
LINE
  5
2C7
100
AcDbEntity
  8
0
100
AcDbLine
 62
7
  6
CONTINUOUS
 10
113.4918659822
 20
138.542461062
 11
111.3705544705
 21
137.3177286004
  0
LINE
  5
2C8
100
AcDbEntity
  8
INTFCLR_75
100
AcDbLine
 62
7
420
3604575
  6
CONTINUOUS
 10
83.4772452011
 20
120.682747449
 11
81.9196207504
 21
119.7834579211
  0
LINE
  5
2C9
100
AcDbEntity
  8
0
100
AcDbLine
 62
7
  6
CONTINUOUS
 10
112.7847739208
 20
136.5012470914
 11
114.9060854325
 21
137.725979553
  0
LINE
  5
2CA
100
AcDbEntity
  8
0
100
AcDbLine
 62
7
  6
CONTINUOUS
 10
115.6131951576
 20
137.3177387985
 11
112.7847798088
 21
135.684762183
  0
LINE
  5
2CB
100
AcDbEntity
  8
0
100
AcDbLine
 62
7
  6
CONTINUOUS
 10
114.3404082506
 20
135.5214461792
 11
112.7847798088
 21
134.6233090407
  0
LINE
  5
2CC
100
AcDbEntity
  8
0
100
AcDbLine
 62
7
  6
CONTINUOUS
 10
80.0237331063
 20
115.0146751222
 11
80.9800191191
 21
115.5667838135
  0
LINE
  5
2CD
100
AcDbEntity
  8
0
100
AcDbLine
 62
7
  6
CONTINUOUS
 10
146.9379504928
 20
100.6974574494
 11
149.412813923
 21
100.1252879719
  0
LINE
  5
2CE
100
AcDbEntity
  8
0
100
AcDbLine
 62
7
  6
CONTINUOUS
 10
85.8319068886
 20
98.3737040105
 11
85.8319068886
 21
98.0955657106
  0
LINE
  5
2CF
100
AcDbEntity
  8
0
100
AcDbLine
 62
7
  6
CONTINUOUS
 10
85.8319068886
 20
66.8680362108
 11
85.8319068886
 21
66.5785724094
  0
LINE
  5
2D0
100
AcDbEntity
  8
0
100
AcDbLine
 62
7
  6
CONTINUOUS
 10
87.0816089062
 20
88.5934010426
 11
87.0816089062
 21
71.0998367556
  0
LINE
  5
2D1
100
AcDbEntity
  8
0
100
AcDbLine
 62
7
  6
CONTINUOUS
 10
87.3644522075
 20
91.8594131419
 11
87.3644522075
 21
67.6909415949
  0
LINE
  5
2D2
100
AcDbEntity
  8
0
100
AcDbLine
 62
7
  6
CONTINUOUS
 10
88.683852455
 20
105.3586023901
 11
88.683852455
 21
92.6211646829
  0
LINE
  5
2D3
100
AcDbEntity
  8
0
100
AcDbLine
 62
7
  6
CONTINUOUS
 10
88.683852455
 20
68.4526931359
 11
88.683852455
 21
55.7152554286
  0
LINE
  5
2D4
100
AcDbEntity
  8
0
100
AcDbLine
 62
7
  6
CONTINUOUS
 10
90.7938625424
 20
109.1338776552
 11
90.7938625424
 21
111.9785870724
  0
LINE
  5
2D5
100
AcDbEntity
  8
0
100
AcDbLine
 62
7
  6
CONTINUOUS
 10
74.3003623097
 20
72.7230351323
 11
74.4243842753
 21
73.16143554
  0
LINE
  5
2D6
100
AcDbEntity
  8
INTFCLR_75
100
AcDbLine
 62
7
420
3604575
  6
CONTINUOUS
 10
69.4066431432
 20
107.8641663766
 11
67.822450665
 21
106.9495378824
  0
LINE
  5
2D7
100
AcDbEntity
  8
INTFCLR_75
100
AcDbLine
 62
7
420
3604575
  6
CONTINUOUS
 10
42.476989099
 20
92.2751705927
 11
41.8973369185
 21
91.940510248
  0
LINE
  5
2D8
100
AcDbEntity
  8
0
100
AcDbLine
 62
7
  6
CONTINUOUS
 10
137.4787483655
 20
146.1785740481
 11
138.7732760835
 21
146.9259655132
  0
LINE
  5
2D9
100
AcDbEntity
  8
0
100
AcDbLine
 62
7
  6
CONTINUOUS
 10
140.8511059732
 20
148.1255939985
 11
142.428475226
 21
149.0362831252
  0
LINE
  5
2DA
100
AcDbEntity
  8
0
100
AcDbLine
 62
7
  6
CONTINUOUS
 10
138.7644271967
 20
146.8484338819
 11
143.7141540572
 21
149.706142959
  0
LINE
  5
2DB
100
AcDbEntity
  8
0
100
AcDbLine
 62
7
  6
CONTINUOUS
 10
139.4736437906
 20
146.8823717484
 11
144.4233706511
 21
149.7400808255
  0
LINE
  5
2DC
100
AcDbEntity
  8
0
100
AcDbLine
 62
7
  6
CONTINUOUS
 10
84.0725255701
 20
113.1881422179
 11
84.7624898871
 21
113.5864909242
  0
LINE
  5
2DD
100
AcDbEntity
  8
INTFCLR_75
100
AcDbLine
 62
7
420
3604575
  6
CONTINUOUS
 10
140.9982494093
 20
143.3188570902
 11
142.1033692531
 21
143.9568945209
  0
LINE
  5
2DE
100
AcDbEntity
  8
0
100
AcDbLine
 62
7
  6
CONTINUOUS
 10
99.9155453181
 20
119.5183073014
 11
120.987239667
 21
131.6839830867
  0
LINE
  5
2DF
100
AcDbEntity
  8
0
100
AcDbLine
 62
7
  6
CONTINUOUS
 10
79.4093959673
 20
118.3623989208
 11
77.0427911299
 21
117.7843234356
  0
LWPOLYLINE
  5
2E0
100
AcDbEntity
  8
0
100
AcDbPolyline
 62
7
  6
CONTINUOUS
 90
3
 70
0
 10
99.0316655215
 20
115.8644678031
 10
81.9196245208
 20
124.2742233921
 10
67.353149835
 20
134.1536536056
  0
LINE
  5
2E1
100
AcDbEntity
  8
0
100
AcDbLine
 62
7
  6
CONTINUOUS
 10
47.4480143104
 20
145.1965641457
 11
48.1551240356
 21
144.7883233912
  0
LINE
  5
2E2
100
AcDbEntity
  8
0
100
AcDbLine
 62
7
  6
CONTINUOUS
 10
49.5693434859
 20
143.9718418822
 11
50.276453211
 21
143.5636011276
  0
LINE
  5
2E3
100
AcDbEntity
  8
0
100
AcDbLine
 62
7
  6
CONTINUOUS
 10
79.267951942
 20
126.8257301923
 11
79.9750616672
 21
126.4174894378
  0
LINE
  5
2E4
100
AcDbEntity
  8
0
100
AcDbLine
 62
7
  6
CONTINUOUS
 10
81.3892811175
 20
125.6010079287
 11
82.0963908426
 21
125.1927671742
  0
LINE
  5
2E5
100
AcDbEntity
  8
0
100
AcDbLine
 62
7
  6
CONTINUOUS
 10
36.5585139449
 20
152.9531446004
 11
47.4480143104
 21
146.666230862
  0
LINE
  5
2E6
100
AcDbEntity
  8
0
100
AcDbLine
 62
7
  6
CONTINUOUS
 10
51.549240118
 20
144.2984406046
 11
79.267951942
 21
128.2953969086
  0
LINE
  5
2E7
100
AcDbEntity
  8
0
100
AcDbLine
 62
7
  6
CONTINUOUS
 10
83.3691777496
 20
125.9276066512
 11
99.9155453181
 21
116.3747729954
  0
LINE
  5
2E8
100
AcDbEntity
  8
INTFCLR_75
100
AcDbLine
 62
7
420
3604575
  6
CONTINUOUS
 10
91.8541040814
 20
174.2104701109
 11
91.8541040814
 21
175.6915729838
  0
LINE
  5
2E9
100
AcDbEntity
  8
0
100
AcDbLine
 62
7
  6
CONTINUOUS
 10
93.9757158776
 20
135.7663338627
 11
93.9757158776
 21
137.8892034629
  0
LINE
  5
2EA
100
AcDbEntity
  8
INTFCLR_75
100
AcDbLine
 62
7
420
3604575
  6
CONTINUOUS
 10
94.0273772119
 20
115.3429963377
 11
92.113569823
 21
114.2380657221
  0
LINE
  5
2EB
100
AcDbEntity
  8
0
100
AcDbLine
 62
7
  6
CONTINUOUS
 10
87.519096193
 20
110.6873231242
 11
88.9843036399
 21
111.5332559885
  0
LINE
  5
2EC
100
AcDbEntity
  8
0
100
AcDbLine
 62
7
  6
CONTINUOUS
 10
139.6119016898
 20
140.2816858515
 11
121.686921722
 21
129.9327556166
  0
LINE
  5
2ED
100
AcDbEntity
  8
0
100
AcDbLine
 62
7
  6
CONTINUOUS
 10
149.412813923
 20
145.9400391137
 11
144.4630870625
 21
143.0823300366
  0
LINE
  5
2EE
100
AcDbEntity
  8
INTFCLR_75
100
AcDbLine
 62
7
420
3604575
  6
CONTINUOUS
 10
77.0260811609
 20
103.608448646
 11
75.3198803488
 21
102.6233790279
  0
LINE
  5
2EF
100
AcDbEntity
  8
0
100
AcDbLine
 62
7
  6
CONTINUOUS
 10
122.5428681089
 20
129.4385859193
 11
120.987239667
 21
128.5404487808
  0
LINE
  5
2F0
100
AcDbEntity
  8
0
100
AcDbLine
 62
7
  6
CONTINUOUS
 10
99.9155453181
 20
116.3747729954
 11
99.0316655215
 21
115.8644678031
  0
LINE
  5
2F1
100
AcDbEntity
  8
0
100
AcDbLine
 62
7
  6
CONTINUOUS
 10
50.7362084828
 20
86.6058994666
 11
50.8776304279
 21
86.6875489772
  0
LINE
  5
2F2
100
AcDbEntity
  8
0
100
AcDbLine
 62
7
  6
CONTINUOUS
 10
91.5678886568
 20
108.8607902199
 11
93.0326116758
 21
109.7064434013
  0
LINE
  5
2F3
100
AcDbEntity
  8
0
100
AcDbLine
 62
7
  6
CONTINUOUS
 10
49.9077606285
 20
84.7747557001
 11
51.0497217352
 21
85.4340633169
  0
LINE
  5
2F4
100
AcDbEntity
  8
0
100
AcDbLine
 62
7
  6
CONTINUOUS
 10
67.6557937844
 20
127.5130518633
 11
63.4697022403
 21
126.9567603271
  0
LWPOLYLINE
  5
2F5
100
AcDbEntity
  8
0
100
AcDbPolyline
 62
7
  6
CONTINUOUS
 90
3
 70
0
 10
67.353149835
 20
134.1536536056
 10
50.2411088342
 20
142.5634091946
 10
35.6746341484
 20
152.4428394081
  0
LINE
  5
2F6
100
AcDbEntity
  8
0
100
AcDbLine
 62
7
  6
CONTINUOUS
 10
82.0963908426
 20
129.3977546224
 11
81.3892811175
 21
129.805995377
  0
LINE
  5
2F7
100
AcDbEntity
  8
0
100
AcDbLine
 62
7
  6
CONTINUOUS
 10
79.9750616672
 20
130.622476886
 11
79.267951942
 21
131.0307176405
  0
LINE
  5
2F8
100
AcDbEntity
  8
0
100
AcDbLine
 62
7
  6
CONTINUOUS
 10
50.276453211
 20
147.7685885759
 11
49.5693434859
 21
148.1768293304
  0
LINE
  5
2F9
100
AcDbEntity
  8
0
100
AcDbLine
 62
7
  6
CONTINUOUS
 10
48.1551240356
 20
148.9933108394
 11
47.4480143104
 21
149.4015515939
  0
LINE
  5
2FA
100
AcDbEntity
  8
0
100
AcDbLine
 62
7
  6
CONTINUOUS
 10
47.8015426897
 20
149.6056600805
 11
36.5585139449
 21
156.0966789064
  0
LINE
  5
2FB
100
AcDbEntity
  8
0
100
AcDbLine
 62
7
  6
CONTINUOUS
 10
51.549240118
 20
147.4419749106
 11
79.6214803213
 21
131.2348261271
  0
LINE
  5
2FC
100
AcDbEntity
  8
0
100
AcDbLine
 62
7
  6
CONTINUOUS
 10
83.3691777496
 20
129.0711409571
 11
99.9155453181
 21
119.5183073014
  0
LINE
  5
2FD
100
AcDbEntity
  8
0
100
AcDbLine
 62
7
  6
CONTINUOUS
 10
83.5105926291
 20
131.0307278386
 11
82.0963731788
 21
131.8472093476
  0
LINE
  5
2FE
100
AcDbEntity
  8
0
100
AcDbLine
 62
7
  6
CONTINUOUS
 10
51.6906549975
 20
149.401561792
 11
50.2764355472
 21
150.218043301
  0
LINE
  5
2FF
100
AcDbEntity
  8
0
100
AcDbLine
 62
7
  6
CONTINUOUS
 10
50.2764296593
 20
151.0345282094
 11
53.1048685599
 21
149.4015651913
  0
LINE
  5
300
100
AcDbEntity
  8
0
100
AcDbLine
 62
7
  6
CONTINUOUS
 10
82.0963672909
 20
132.663694256
 11
84.9248061915
 21
131.0307312379
  0
LINE
  5
301
100
AcDbEntity
  8
0
100
AcDbLine
 62
7
  6
CONTINUOUS
 10
98.0059369048
 20
173.4641341939
 11
98.0059369048
 21
175.3337413276
  0
LINE
  5
302
100
AcDbEntity
  8
0
100
AcDbLine
 62
7
  6
CONTINUOUS
 10
98.1829639845
 20
144.1149337638
 11
98.1829639845
 21
143.0534806216
  0
LINE
  5
303
100
AcDbEntity
  8
0
100
AcDbLine
 62
7
  6
CONTINUOUS
 10
98.2890492846
 20
138.2566232013
 11
98.2890492846
 21
140.3794928015
  0
LINE
  5
304
100
AcDbEntity
  8
0
100
AcDbLine
 62
7
  6
CONTINUOUS
 10
98.583306176
 20
62.6554272085
 11
98.583306176
 21
64.6966832514
  0
LINE
  5
305
100
AcDbEntity
  8
0
100
AcDbLine
 62
7
  6
CONTINUOUS
 10
98.583306176
 20
107.8080108758
 11
98.583306176
 21
109.8492669186
  0
LINE
  5
306
100
AcDbEntity
  8
0
100
AcDbLine
 62
7
  6
CONTINUOUS
 10
99.0316655215
 20
115.8644678031
 11
99.0316655215
 21
108.0668697195
  0
LINE
  5
307
100
AcDbEntity
  8
0
100
AcDbLine
 62
7
  6
CONTINUOUS
 10
99.0316655215
 20
64.955542095
 11
99.0316655215
 21
57.0762937697
  0
LINE
  5
308
100
AcDbEntity
  8
0
100
AcDbLine
 62
7
  6
CONTINUOUS
 10
99.9155453181
 20
116.3747729954
 11
99.9155453181
 21
119.5183073014
  0
LINE
  5
309
100
AcDbEntity
  8
0
100
AcDbLine
 62
7
  6
CONTINUOUS
 10
101.0114028851
 20
142.4819707457
 11
101.0114028851
 21
141.4205176035
  0
LINE
  5
30A
100
AcDbEntity
  8
0
100
AcDbLine
 62
7
  6
CONTINUOUS
 10
101.7184890585
 20
145.3396696248
 11
101.7184890585
 21
143.7066930092
  0
LINE
  5
30B
100
AcDbEntity
  8
0
100
AcDbLine
 62
7
  6
CONTINUOUS
 10
102.8500071067
 20
59.2808011527
 11
102.8500071067
 21
58.8725040887
  0
LINE
  5
30C
100
AcDbEntity
  8
0
100
AcDbLine
 62
7
  6
CONTINUOUS
 10
138.5396727493
 20
146.6399766353
 11
138.7644336026
 21
146.8484227912
  0
LINE
  5
30D
100
AcDbEntity
  8
0
100
AcDbLine
 62
7
  6
CONTINUOUS
 10
138.0893920348
 20
146.0551510839
 11
138.2018098401
 21
146.1593096289
  0
LINE
  5
30E
100
AcDbEntity
  8
0
100
AcDbLine
 62
7
  6
CONTINUOUS
 10
94.8599067061
 20
108.9243276479
 11
88.683852455
 21
105.3586023901
  0
LINE
  5
30F
100
AcDbEntity
  8
0
100
AcDbLine
 62
7
  6
CONTINUOUS
 10
144.4630870625
 20
137.4809160325
 11
122.5428681089
 21
124.8253472625
  0
LINE
  5
310
100
AcDbEntity
  8
0
100
AcDbLine
 62
7
  6
CONTINUOUS
 10
99.0316655215
 20
108.0668697195
 11
98.583306176
 21
107.8080108758
  0
LINE
  5
311
100
AcDbEntity
  8
INTFCLR_75
100
AcDbLine
 62
7
420
3604575
  6
CONTINUOUS
 10
85.2151516918
 20
99.681606437
 11
83.2140962544
 21
98.5263034378
  0
LINE
  5
312
100
AcDbEntity
  8
0
100
AcDbLine
 62
7
  6
CONTINUOUS
 10
85.8319068886
 20
98.0955657106
 11
85.8903779651
 21
98.1293238009
  0
LINE
  5
313
100
AcDbEntity
  8
0
100
AcDbLine
 62
7
  6
CONTINUOUS
 10
145.5237373863
 20
98.4112553821
 11
145.9480051207
 21
98.1663098329
  0
LINE
  5
314
100
AcDbEntity
  8
0
100
AcDbLine
 62
7
  6
CONTINUOUS
 10
146.0187155044
 20
98.2071342483
 11
145.5237428183
 21
98.4929003969
  0
LINE
  5
315
100
AcDbEntity
  8
0
100
AcDbLine
 62
7
  6
CONTINUOUS
 10
145.5237428183
 20
99.4726907526
 11
146.4429778067
 21
98.9419821909
  0
LINE
  5
316
100
AcDbEntity
  8
0
100
AcDbLine
 62
7
  6
CONTINUOUS
 10
72.4442792103
 20
142.7676490354
 11
70.1108171173
 21
144.1148435253
  0
LINE
  5
317
100
AcDbEntity
  8
0
100
AcDbLine
 62
7
  6
CONTINUOUS
 10
62.5447430582
 20
148.4830195987
 11
60.2112809653
 21
149.8302140886
  0
LINE
  5
318
100
AcDbEntity
  8
0
100
AcDbLine
 62
7
  6
CONTINUOUS
 10
52.6452069062
 20
154.198390162
 11
50.3117448132
 21
155.5455846519
  0
LINE
  5
319
100
AcDbEntity
  8
0
100
AcDbLine
 62
7
  6
CONTINUOUS
 10
145.5237428183
 20
100.6157941366
 11
146.4429778067
 21
100.0850855749
  0
LINE
  5
31A
100
AcDbEntity
  8
0
100
AcDbLine
 62
7
  6
CONTINUOUS
 10
72.7321958292
 20
142.682990668
 11
71.5250130159
 21
143.3799422231
  0
LINE
  5
31B
100
AcDbEntity
  8
0
100
AcDbLine
 62
7
  6
CONTINUOUS
 10
62.8326596772
 20
148.3983612312
 11
61.6254768638
 21
149.0953127863
  0
LINE
  5
31C
100
AcDbEntity
  8
0
100
AcDbLine
 62
7
  6
CONTINUOUS
 10
52.9331235251
 20
154.1137317945
 11
51.7259407118
 21
154.8106833496
  0
LINE
  5
31D
100
AcDbEntity
  8
0
100
AcDbLine
 62
7
  6
CONTINUOUS
 10
145.5237428183
 20
101.2689877071
 11
146.7258193416
 21
100.5749842033
  0
LINE
  5
31E
100
AcDbEntity
  8
0
100
AcDbLine
 62
7
  6
CONTINUOUS
 10
145.5237428183
 20
101.5139321598
 11
146.9379504928
 21
100.6974574494
  0
LINE
  5
31F
100
AcDbEntity
  8
0
100
AcDbLine
 62
7
  6
CONTINUOUS
 10
149.412813923
 20
100.1252879719
 11
145.5237428183
 21
102.3705934255
  0
LINE
  5
320
100
AcDbEntity
  8
0
100
AcDbLine
 62
7
  6
CONTINUOUS
 10
55.9685755109
 20
155.6271784561
 11
56.9584814711
 21
155.0556689128
  0
LINE
  5
321
100
AcDbEntity
  8
0
100
AcDbLine
 62
7
  6
CONTINUOUS
 10
65.868111663
 20
149.9118078928
 11
66.8580176231
 21
149.3402983495
  0
LINE
  5
322
100
AcDbEntity
  8
0
100
AcDbLine
 62
7
  6
CONTINUOUS
 10
75.767647815
 20
144.1964373295
 11
76.7575537752
 21
143.6249277862
  0
LINE
  5
323
100
AcDbEntity
  8
0
100
AcDbLine
 62
7
  6
CONTINUOUS
 10
103.8398182339
 20
144.1149473612
 11
103.8398182339
 21
141.5838275026
  0
LINE
  5
324
100
AcDbEntity
  8
INTFCLR_75
100
AcDbLine
 62
7
420
3604575
  6
CONTINUOUS
 10
106.7034083095
 20
165.2822217594
 11
106.7034083095
 21
167.1185171389
  0
LINE
  5
325
100
AcDbEntity
  8
0
100
AcDbLine
 62
7
  6
CONTINUOUS
 10
109.1725902866
 20
166.414779801
 11
109.2029056808
 21
166.6733975919
  0
LINE
  5
326
100
AcDbEntity
  8
0
100
AcDbLine
 62
7
  6
CONTINUOUS
 10
149.412813923
 20
131.6836994881
 11
145.0287701323
 21
129.1525857341
  0
LINE
  5
327
100
AcDbEntity
  8
0
100
AcDbLine
 62
7
  6
CONTINUOUS
 10
145.0287701323
 20
128.8667597998
 11
146.0540497941
 21
129.4587017552
  0
LINE
  5
328
100
AcDbEntity
  8
0
100
AcDbLine
 62
7
  6
CONTINUOUS
 10
79.5155742963
 20
90.7571378983
 11
84.2531700057
 21
93.4923737292
  0
LINE
  5
329
100
AcDbEntity
  8
0
100
AcDbLine
 62
7
  6
CONTINUOUS
 10
145.4095183523
 20
126.9229022578
 11
145.0287701323
 21
126.7030784827
  0
LINE
  5
32A
100
AcDbEntity
  8
0
100
AcDbLine
 62
7
  6
CONTINUOUS
 10
88.683852455
 20
92.6211646829
 11
87.3644522075
 21
91.8594131419
  0
LINE
  5
32B
100
AcDbEntity
  8
0
100
AcDbLine
 62
7
  6
CONTINUOUS
 10
92.4201027444
 20
134.8682055626
 11
90.581617459
 21
135.9296315243
  0
LINE
  5
32C
100
AcDbEntity
  8
0
100
AcDbLine
 62
7
  6
CONTINUOUS
 10
60.6001651128
 20
153.239039516
 11
58.7616798274
 21
154.3004654777
  0
LINE
  5
32D
100
AcDbEntity
  8
0
100
AcDbLine
 62
7
  6
CONTINUOUS
 10
55.9685755109
 20
158.8115378829
 11
58.3020376039
 21
157.464343393
  0
LINE
  5
32E
100
AcDbEntity
  8
0
100
AcDbLine
 62
7
  6
CONTINUOUS
 10
65.868111663
 20
153.0961673196
 11
68.201573756
 21
151.7489728297
  0
LINE
  5
32F
100
AcDbEntity
  8
0
100
AcDbLine
 62
7
  6
CONTINUOUS
 10
75.767647815
 20
147.3807967563
 11
78.101109908
 21
146.0336022664
  0
LINE
  5
330
100
AcDbEntity
  8
0
100
AcDbLine
 62
7
  6
CONTINUOUS
 10
62.155778246
 20
156.2600374163
 11
63.9942635314
 21
155.1986114546
  0
LINE
  5
331
100
AcDbEntity
  8
0
100
AcDbLine
 62
7
  6
CONTINUOUS
 10
93.9757158776
 20
137.8892034629
 11
95.814201163
 21
136.8277775011
  0
LINE
  5
332
100
AcDbEntity
  8
0
100
AcDbLine
 62
7
  6
CONTINUOUS
 10
97.4405399886
 20
137.7667390551
 11
95.6020547032
 21
138.8281650168
  0
LINE
  5
333
100
AcDbEntity
  8
0
100
AcDbLine
 62
7
  6
CONTINUOUS
 10
65.620602357
 20
156.1375730085
 11
63.7821170716
 21
157.1989989702
  0
LINE
  5
334
100
AcDbEntity
  8
0
100
AcDbLine
 62
7
  6
CONTINUOUS
 10
109.9563409082
 20
137.3177252011
 11
109.9563409082
 21
136.2562720588
  0
LINE
  5
335
100
AcDbEntity
  8
0
100
AcDbLine
 62
7
  6
CONTINUOUS
 10
112.7845713759
 20
160.3557414748
 11
112.7845713759
 21
158.627860295
  0
LINE
  5
336
100
AcDbEntity
  8
0
100
AcDbLine
 62
7
  6
CONTINUOUS
 10
112.7847798088
 20
135.684762183
 11
112.7847798088
 21
134.6233090407
  0
LINE
  5
337
100
AcDbEntity
  8
0
100
AcDbLine
 62
7
  6
CONTINUOUS
 10
113.4918659822
 20
138.542461062
 11
113.4918659822
 21
136.9094844465
  0
LINE
  5
338
100
AcDbEntity
  8
0
100
AcDbLine
 62
7
  6
CONTINUOUS
 10
138.2018098401
 20
146.1593096289
 11
138.5396727493
 21
146.6399766353
  0
LINE
  5
339
100
AcDbEntity
  8
0
100
AcDbLine
 62
7
  6
CONTINUOUS
 10
87.0816089062
 20
88.5934010426
 11
82.3440131969
 21
85.8581652117
  0
LINE
  5
33A
100
AcDbEntity
  8
0
100
AcDbLine
 62
7
  6
CONTINUOUS
 10
47.6601693078
 20
136.6922596802
 11
45.2931270782
 21
136.1140807868
  0
LINE
  5
33B
100
AcDbEntity
  8
0
100
AcDbLine
 62
7
  6
CONTINUOUS
 10
66.469111653
 20
158.7503267549
 11
68.3075969384
 21
157.6889007932
  0
LINE
  5
33C
100
AcDbEntity
  8
0
100
AcDbLine
 62
7
  6
CONTINUOUS
 10
98.2890492846
 20
140.3794928015
 11
100.12753457
 21
139.3180668398
  0
LINE
  5
33D
100
AcDbEntity
  8
0
100
AcDbLine
 62
7
  6
CONTINUOUS
 10
112.7847798088
 20
134.6233090407
 11
109.9563409082
 21
136.2562720588
  0
LINE
  5
33E
100
AcDbEntity
  8
0
100
AcDbLine
 62
7
  6
CONTINUOUS
 10
101.0114028851
 20
141.4205176035
 11
98.1829639845
 21
143.0534806216
  0
LINE
  5
33F
100
AcDbEntity
  8
0
100
AcDbLine
 62
7
  6
CONTINUOUS
 10
80.8941312046
 20
153.0349670696
 11
78.0656923041
 21
154.6679300877
  0
LINE
  5
340
100
AcDbEntity
  8
0
100
AcDbLine
 62
7
  6
CONTINUOUS
 10
69.1914652535
 20
159.7913515569
 11
66.3630263529
 21
161.424314575
  0
LINE
  5
341
100
AcDbEntity
  8
0
100
AcDbLine
 62
7
  6
CONTINUOUS
 10
122.5428681089
 20
129.4385859193
 11
120.987239667
 21
130.3367081007
  0
LINE
  5
342
100
AcDbEntity
  8
0
100
AcDbLine
 62
7
  6
CONTINUOUS
 10
112.7847798088
 20
135.684762183
 11
109.9563409082
 21
137.3177252011
  0
LINE
  5
343
100
AcDbEntity
  8
0
100
AcDbLine
 62
7
  6
CONTINUOUS
 10
101.0114028851
 20
142.4819707457
 11
98.1829639845
 21
144.1149337638
  0
LINE
  5
344
100
AcDbEntity
  8
0
100
AcDbLine
 62
7
  6
CONTINUOUS
 10
80.8941312046
 20
154.0964202118
 11
78.0656923041
 21
155.7293832299
  0
LINE
  5
345
100
AcDbEntity
  8
0
100
AcDbLine
 62
7
  6
CONTINUOUS
 10
69.1914652535
 20
160.8528046992
 11
66.3630263529
 21
162.4857677172
  0
LINE
  5
346
100
AcDbEntity
  8
0
100
AcDbLine
 62
7
  6
CONTINUOUS
 10
110.5927108224
 20
137.6851313492
 11
102.5670313269
 21
142.318654742
  0
LINE
  5
347
100
AcDbEntity
  8
0
100
AcDbLine
 62
7
  6
CONTINUOUS
 10
98.8193338987
 20
144.482339912
 11
82.4497596465
 21
153.9331042081
  0
LINE
  5
348
100
AcDbEntity
  8
0
100
AcDbLine
 62
7
  6
CONTINUOUS
 10
78.7020622182
 20
156.0967893781
 11
70.7470936953
 21
160.6894886954
  0
LINE
  5
349
100
AcDbEntity
  8
0
100
AcDbLine
 62
7
  6
CONTINUOUS
 10
66.999396267
 20
162.8531738654
 11
57.6302082939
 21
168.2623546918
  0
LINE
  5
34A
100
AcDbEntity
  8
0
100
AcDbLine
 62
7
  6
CONTINUOUS
 10
114.3404082506
 20
135.5214461792
 11
120.987239667
 21
131.6839830867
  0
LINE
  5
34B
100
AcDbEntity
  8
0
100
AcDbLine
 62
7
  6
CONTINUOUS
 10
67.7772399152
 20
162.4857711166
 11
69.1914593655
 21
161.6692896075
  0
LINE
  5
34C
100
AcDbEntity
  8
0
100
AcDbLine
 62
7
  6
CONTINUOUS
 10
79.4799058664
 20
155.7293866293
 11
80.8941253167
 21
154.9129051202
  0
LINE
  5
34D
100
AcDbEntity
  8
0
100
AcDbLine
 62
7
  6
CONTINUOUS
 10
99.5971775469
 20
144.1149371632
 11
101.0113969971
 21
143.2984556541
  0
LINE
  5
34E
100
AcDbEntity
  8
0
100
AcDbLine
 62
7
  6
CONTINUOUS
 10
111.3705544705
 20
137.3177286004
 11
112.7847739208
 21
136.5012470914
  0
LINE
  5
34F
100
AcDbEntity
  8
0
100
AcDbLine
 62
7
  6
CONTINUOUS
 10
115.6131951576
 20
134.7866189399
 11
115.6131951576
 21
137.3177387985
  0
LINE
  5
350
100
AcDbEntity
  8
0
100
AcDbLine
 62
7
  6
CONTINUOUS
 10
117.7342982364
 20
163.2134505519
 11
117.7342982364
 21
161.4855693721
  0
LINE
  5
351
100
AcDbEntity
  8
0
100
AcDbLine
 62
7
  6
CONTINUOUS
 10
119.9811857041
 20
69.1714326883
 11
119.9811857041
 21
68.1943455504
  0
LINE
  5
352
100
AcDbEntity
  8
0
100
AcDbLine
 62
7
  6
CONTINUOUS
 10
120.987239667
 20
128.5404487808
 11
120.987239667
 21
131.6839830867
  0
LINE
  5
353
100
AcDbEntity
  8
INTFCLR_75
100
AcDbLine
 62
7
420
3604575
  6
CONTINUOUS
 10
74.1555047855
 20
73.9859847902
 11
73.5758526051
 21
73.6513244455
  0
LINE
  5
354
100
AcDbEntity
  8
0
100
AcDbLine
 62
7
  6
CONTINUOUS
 10
69.1914417017
 20
164.1187443327
 11
69.8985514269
 21
163.7105035782
  0
LINE
  5
355
100
AcDbEntity
  8
0
100
AcDbLine
 62
7
  6
CONTINUOUS
 10
71.3127708772
 20
162.8940220692
 11
72.0198806023
 21
162.4857813146
  0
LINE
  5
356
100
AcDbEntity
  8
0
100
AcDbLine
 62
7
  6
CONTINUOUS
 10
80.8941076529
 20
157.3623598454
 11
81.6012173781
 21
156.9541190909
  0
LINE
  5
357
100
AcDbEntity
  8
0
100
AcDbLine
 62
7
  6
CONTINUOUS
 10
83.0154368284
 20
156.1376375818
 11
83.7225465535
 21
155.7293968273
  0
LINE
  5
358
100
AcDbEntity
  8
0
100
AcDbLine
 62
7
  6
CONTINUOUS
 10
101.0113793333
 20
145.7479103793
 11
101.7184890585
 21
145.3396696248
  0
LINE
  5
359
100
AcDbEntity
  8
0
100
AcDbLine
 62
7
  6
CONTINUOUS
 10
103.1327085088
 20
144.5231881157
 11
103.8398182339
 21
144.1149473612
  0
LINE
  5
35A
100
AcDbEntity
  8
0
100
AcDbLine
 62
7
  6
CONTINUOUS
 10
112.784756257
 20
138.9507018165
 11
113.4918659822
 21
138.542461062
  0
LINE
  5
35B
100
AcDbEntity
  8
0
100
AcDbLine
 62
7
  6
CONTINUOUS
 10
114.9060854325
 20
137.725979553
 11
115.6131951576
 21
137.3177387985
  0
LINE
  5
35C
100
AcDbEntity
  8
0
100
AcDbLine
 62
7
  6
CONTINUOUS
 10
122.5428681089
 20
129.4385859193
 11
122.5428681089
 21
124.8253472625
  0
LINE
  5
35D
100
AcDbEntity
  8
0
100
AcDbLine
 62
7
  6
CONTINUOUS
 10
122.5428681089
 20
75.3453007845
 11
122.5428681089
 21
70.7728872485
  0
LINE
  5
35E
100
AcDbEntity
  8
INTFCLR_75
100
AcDbLine
 62
7
420
3604575
  6
CONTINUOUS
 10
123.532619768
 20
155.9212843084
 11
123.532619768
 21
157.4023871813
  0
LINE
  5
35F
100
AcDbEntity
  8
0
100
AcDbLine
 62
7
  6
CONTINUOUS
 10
82.3440131969
 20
68.3646009247
 11
87.0816089062
 21
71.0998367556
  0
LINE
  5
360
100
AcDbEntity
  8
0
100
AcDbLine
 62
7
  6
CONTINUOUS
 10
145.0287701323
 20
127.1427223722
 11
145.4095183523
 21
126.9229022578
  0
LINE
  5
361
100
AcDbEntity
  8
0
100
AcDbLine
 62
7
  6
CONTINUOUS
 10
129.6844525914
 20
155.1749483914
 11
129.6844525914
 21
157.0445555251
  0
LINE
  5
362
100
AcDbEntity
  8
0
100
AcDbLine
 62
7
  6
CONTINUOUS
 10
131.3816660741
 20
75.8759391719
 11
131.3816660741
 21
72.6915797451
  0
LINE
  5
363
100
AcDbEntity
  8
0
100
AcDbLine
 62
7
  6
CONTINUOUS
 10
146.3015795143
 20
129.8874381869
 11
146.0540497941
 21
129.4587017552
  0
LINE
  5
364
100
AcDbEntity
  8
0
100
AcDbLine
 62
7
  6
CONTINUOUS
 10
81.5155653426
 20
66.5334571582
 11
86.2531610519
 21
69.2686929891
  0
LINE
  5
365
100
AcDbEntity
  8
INTFCLR_75
100
AcDbLine
 62
7
420
3604575
  6
CONTINUOUS
 10
85.2158459423
 20
68.1650139592
 11
83.2140962544
 21
67.0093101366
  0
LINE
  5
366
100
AcDbEntity
  8
0
100
AcDbLine
 62
7
  6
CONTINUOUS
 10
88.683852455
 20
68.4526931359
 11
87.3644522075
 21
67.6909415949
  0
LINE
  5
367
100
AcDbEntity
  8
0
100
AcDbLine
 62
7
  6
CONTINUOUS
 10
85.8319068886
 20
66.5785724094
 11
85.8920703067
 21
66.6133075677
  0
LINE
  5
368
100
AcDbEntity
  8
0
100
AcDbLine
 62
7
  6
CONTINUOUS
 10
146.9379504928
 20
100.6974574494
 11
146.7258193416
 21
100.5749842033
  0
LINE
  5
369
100
AcDbEntity
  8
0
100
AcDbLine
 62
7
  6
CONTINUOUS
 10
146.0187155044
 20
98.2071342483
 11
145.9480051207
 21
98.1663098329
  0
LINE
  5
36A
100
AcDbEntity
  8
0
100
AcDbLine
 62
7
  6
CONTINUOUS
 10
81.1060556894
 20
174.0592876376
 11
85.8511746033
 21
171.3197539318
  0
LINE
  5
36B
100
AcDbEntity
  8
0
100
AcDbLine
 62
7
  6
CONTINUOUS
 10
107.9333860032
 20
158.570871654
 11
117.5296902899
 21
153.0305681293
  0
LINE
  5
36C
100
AcDbEntity
  8
0
100
AcDbLine
 62
7
  6
CONTINUOUS
 10
139.6119016898
 20
140.2816858515
 11
144.4630870625
 21
137.4809160325
  0
LWPOLYLINE
  5
36D
100
AcDbEntity
  8
0
100
AcDbPolyline
 62
7
  6
CONTINUOUS
 90
4
 70
0
 10
106.9249883428
 20
159.3957295368
 10
99.1425616735
 20
165.7616665449
 10
94.641998933
 20
168.3600088723
 10
85.8511746033
 20
171.3197539318
  0
LINE
  5
36E
100
AcDbEntity
  8
0
100
AcDbLine
 62
7
  6
CONTINUOUS
 10
145.5237428183
 20
98.4112647908
 11
145.6480167185
 21
98.1366043742
  0
LINE
  5
36F
100
AcDbEntity
  8
INTFCLR_75
100
AcDbLine
 62
7
420
3604575
  6
CONTINUOUS
 10
138.3819239961
 20
146.9930359569
 11
138.3819239961
 21
148.8293313364
  0
LINE
  5
370
100
AcDbEntity
  8
0
100
AcDbLine
 62
7
  6
CONTINUOUS
 10
140.8511059732
 20
148.1255939985
 11
140.8814213674
 21
148.3842117894
  0
LINE
  5
371
100
AcDbEntity
  8
0
100
AcDbLine
 62
7
  6
CONTINUOUS
 10
99.0316655215
 20
64.955542095
 11
98.583306176
 21
64.6966832514
  0
LWPOLYLINE
  5
372
100
AcDbEntity
  8
0
100
AcDbPolyline
 62
7
  6
CONTINUOUS
 90
4
 70
0
 10
138.6035040294
 20
141.1065437343
 10
130.8210773601
 20
147.4724807424
 10
126.3205146196
 20
150.0708230698
 10
117.5296902899
 20
153.0305681293
  0
LINE
  5
373
100
AcDbEntity
  8
0
100
AcDbLine
 62
7
  6
CONTINUOUS
 10
144.4630870625
 20
85.1431110945
 11
144.4630870625
 21
88.0008695545
  0
LINE
  5
374
100
AcDbEntity
  8
0
100
AcDbLine
 62
7
  6
CONTINUOUS
 10
144.4630870625
 20
137.4809160325
 11
144.4630870625
 21
143.0823300366
  0
LINE
  5
375
100
AcDbEntity
  8
0
100
AcDbLine
 62
7
  6
CONTINUOUS
 10
145.0287701323
 20
126.7030784827
 11
145.0287701323
 21
129.1525857341
  0
LINE
  5
376
100
AcDbEntity
  8
0
100
AcDbLine
 62
7
  6
CONTINUOUS
 10
117.11632443
 20
67.5174141337
 11
106.9190578827
 21
58.474973753
  0
LINE
  5
377
100
AcDbEntity
  8
0
100
AcDbLine
 62
7
  6
CONTINUOUS
 10
108.191855388
 20
57.7401403948
 11
119.9811857041
 21
68.1943455504
  0
LINE
  5
378
100
AcDbEntity
  8
0
100
AcDbLine
 62
7
  6
CONTINUOUS
 10
144.4630870625
 20
88.0008695545
 11
122.5428681089
 21
75.3453007845
  0
LINE
  5
379
100
AcDbEntity
  8
0
100
AcDbLine
 62
7
  6
CONTINUOUS
 10
94.8599707929
 20
59.2810219044
 11
88.683852455
 21
55.7152554286
  0
LINE
  5
37A
100
AcDbEntity
  8
0
100
AcDbLine
 62
7
  6
CONTINUOUS
 10
144.4630870625
 20
85.1431110945
 11
149.412813923
 21
88.0008201716
  0
LINE
  5
37B
100
AcDbEntity
  8
0
100
AcDbLine
 62
7
  6
CONTINUOUS
 10
131.3816660741
 20
75.8759391719
 11
122.5428681089
 21
70.7728872485
  0
LINE
  5
37C
100
AcDbEntity
  8
0
100
AcDbLine
 62
7
  6
CONTINUOUS
 10
119.9811857041
 20
69.1714326883
 11
99.0316655215
 21
57.0762937697
  0
LINE
  5
37D
100
AcDbEntity
  8
0
100
AcDbLine
 62
7
  6
CONTINUOUS
 10
115.7967025013
 20
66.3472375417
 11
102.8500071067
 21
58.8725040887
  0
LINE
  5
37E
100
AcDbEntity
  8
0
100
AcDbLine
 62
7
  6
CONTINUOUS
 10
145.5237428183
 20
98.4112647908
 11
145.5237428183
 21
126.253997215
  0
LINE
  5
37F
100
AcDbEntity
  8
0
100
AcDbLine
 62
7
  6
CONTINUOUS
 10
146.4429778067
 20
100.0850855749
 11
146.4429778067
 21
98.9419821909
  0
LINE
  5
380
100
AcDbEntity
  8
0
100
AcDbLine
 62
7
  6
CONTINUOUS
 10
149.412813923
 20
145.9400391137
 11
149.412813923
 21
131.6836994881
  0
LINE
  5
381
100
AcDbEntity
  8
0
100
AcDbLine
 62
7
  6
CONTINUOUS
 10
149.412813923
 20
100.1252879719
 11
149.412813923
 21
88.0008201716
  0
LINE
  5
382
100
AcDbEntity
  8
0
100
AcDbLine
 62
7
  6
CONTINUOUS
 10
146.4429778067
 20
100.0850855749
 11
146.7258193416
 21
100.5749842033
  0
LINE
  5
383
100
AcDbEntity
  8
0
100
AcDbLine
 62
7
  6
CONTINUOUS
 10
119.0353496272
 20
66.0031352798
 11
109.577490265
 21
57.6163652552
  0
LINE
  5
384
100
AcDbEntity
  8
0
100
AcDbLine
 62
7
  6
CONTINUOUS
 10
119.9811857041
 20
66.109548624
 11
131.3816660741
 21
72.6915797451
  0
LINE
  5
385
100
AcDbEntity
  8
0
100
AcDbLine
 62
7
  6
CONTINUOUS
 10
145.4095183523
 20
126.9229022578
 11
145.5237428183
 21
126.253997215
  0
ARC
  5
386
100
AcDbEntity
  8
0
100
AcDbCircle
 62
7
  6
CONTINUOUS
 10
316.0634466589
 20
526.6758975539
 40
471.9375508917
100
AcDbArc
 50
239.0368043371
 51
239.9038867922
  0
ARC
  5
387
100
AcDbEntity
  8
0
100
AcDbCircle
 62
7
  6
CONTINUOUS
 10
284.1547215909
 20
544.8956577616
 40
471.7623199764
100
AcDbArc
 50
239.0466253172
 51
239.9139411422
  0
ARC
  5
388
100
AcDbEntity
  8
0
100
AcDbCircle
 62
7
  6
CONTINUOUS
 10
276.3983965272
 20
531.4017981267
 40
456.1979293532
100
AcDbArc
 50
240.4497794858
 51
240.9691014165
  0
ARC
  5
389
100
AcDbEntity
  8
0
100
AcDbCircle
 62
7
  6
CONTINUOUS
 10
308.1764321607
 20
512.9560990935
 40
456.1121359668
100
AcDbArc
 50
240.4599304805
 51
240.9792983692
  0
ARC
  5
38A
100
AcDbEntity
  8
0
100
AcDbCircle
 62
7
  6
CONTINUOUS
 10
305.7637642078
 20
508.5725758101
 40
451.1084686913
100
AcDbArc
 50
241.5405251408
 51
242.0602495115
  0
ARC
  5
38B
100
AcDbEntity
  8
0
100
AcDbCircle
 62
7
  6
CONTINUOUS
 10
273.9438261233
 20
526.9434089165
 40
451.1084677307
100
AcDbArc
 50
241.54052514
 51
242.0602495119
  0
ARC
  5
38C
100
AcDbEntity
  8
0
100
AcDbCircle
 62
7
  6
CONTINUOUS
 10
159.9989428551
 20
263.6374792654
 40
167.8667725127
100
AcDbArc
 50
246.488978389
 51
247.1673975797
  0
ARC
  5
38D
100
AcDbEntity
  8
0
100
AcDbCircle
 62
7
  6
CONTINUOUS
 10
128.005203332
 20
281.6066185814
 40
167.4290912183
100
AcDbArc
 50
246.4886797151
 51
246.9509898277
  0
ARC
  5
38E
100
AcDbEntity
  8
0
100
AcDbCircle
 62
7
  6
CONTINUOUS
 10
162.1564182792
 20
259.6039340327
 40
164.1591187579
100
AcDbArc
 50
247.2053280349
 51
247.385190248
  0
ARC
  5
38F
100
AcDbEntity
  8
0
100
AcDbCircle
 62
7
  6
CONTINUOUS
 10
160.0804947787
 20
257.7731749322
 40
160.1979611856
100
AcDbArc
 50
245.6843993853
 51
247.4256200229
  0
ARC
  5
390
100
AcDbEntity
  8
0
100
AcDbCircle
 62
7
  6
CONTINUOUS
 10
127.946759936
 20
275.4420748244
 40
159.4290914419
100
AcDbArc
 50
245.7413775019
 51
246.9554304532
  0
ARC
  5
391
100
AcDbEntity
  8
0
100
AcDbCircle
 62
7
  6
CONTINUOUS
 10
154.3701806902
 20
251.3451852107
 40
154.3460024441
100
AcDbArc
 50
243.1931189912
 51
244.9359075927
  0
ARC
  5
392
100
AcDbEntity
  8
0
100
AcDbCircle
 62
7
  6
CONTINUOUS
 10
122.5131642405
 20
269.6393805916
 40
154.2608728205
100
AcDbArc
 50
243.1611963107
 51
244.9363238571
  0
ARC
  5
393
100
AcDbEntity
  8
0
100
AcDbCircle
 62
7
  6
CONTINUOUS
 10
147.6376040563
 20
238.5265835981
 40
139.865456753
100
AcDbArc
 50
240.0035365685
 51
241.5374908134
  0
ARC
  5
394
100
AcDbEntity
  8
0
100
AcDbCircle
 62
7
  6
CONTINUOUS
 10
115.788386202
 20
256.8460699548
 40
139.8063482994
100
AcDbArc
 50
240.0034084035
 51
241.5040198068
  0
ARC
  5
395
100
AcDbEntity
  8
0
100
AcDbCircle
 62
7
  6
CONTINUOUS
 10
114.1804311078
 20
254.0480662887
 40
136.5792282627
100
AcDbArc
 50
239.7100520639
 51
240.0007739494
  0
ARC
  5
396
100
AcDbEntity
  8
0
100
AcDbCircle
 62
7
  6
CONTINUOUS
 10
145.9649316221
 20
235.6161047343
 40
136.5085716504
100
AcDbArc
 50
239.6757900396
 51
240.0008270854
  0
ARC
  5
397
100
AcDbEntity
  8
0
100
AcDbCircle
 62
7
  6
CONTINUOUS
 10
116.6452632881
 20
252.8533795752
 40
134.16075417
100
AcDbArc
 50
240.0022035379
 51
241.1284501608
  0
ARC
  5
398
100
AcDbEntity
  8
0
100
AcDbCircle
 62
7
  6
CONTINUOUS
 10
148.4028701477
 20
234.3736734403
 40
134.0353026923
100
AcDbArc
 50
240.0020106499
 51
241.0586024919
  0
ARC
  5
399
100
AcDbEntity
  8
0
100
AcDbCircle
 62
7
  6
CONTINUOUS
 10
61.9965018622
 20
112.124174498
 40
65.3260514748
100
AcDbArc
 50
45.3161799659
 51
46.5009709541
  0
ARC
  5
39A
100
AcDbEntity
  8
0
100
AcDbCircle
 62
7
  6
CONTINUOUS
 10
93.6750175493
 20
93.8349886961
 40
65.326051474
100
AcDbArc
 50
45.3161799659
 51
46.5009709541
  0
ARC
  5
39B
100
AcDbEntity
  8
0
100
AcDbCircle
 62
7
  6
CONTINUOUS
 10
138.7443931194
 20
148.7811019024
 40
1.8553612177
100
AcDbArc
 50
270.8919766
 51
275.9942180806
  0
ARC
  5
39C
100
AcDbEntity
  8
0
100
AcDbCircle
 62
7
  6
CONTINUOUS
 10
107.0658774329
 20
167.0702877049
 40
1.8553612177
100
AcDbArc
 50
270.8919766
 51
275.9942180806
  0
ARC
  5
39D
100
AcDbEntity
  8
0
100
AcDbCircle
 62
7
  6
CONTINUOUS
 10
111.4102524383
 20
168.1924841452
 40
1.0898174616
100
AcDbArc
 50
232.7081843663
 51
237.3522832721
  0
ARC
  5
39E
100
AcDbEntity
  8
0
100
AcDbCircle
 62
7
  6
CONTINUOUS
 10
143.0887681249
 20
149.9032983428
 40
1.0898174617
100
AcDbArc
 50
232.7081843664
 51
237.352283272
  0
ARC
  5
39F
100
AcDbEntity
  8
0
100
AcDbCircle
 62
7
  6
CONTINUOUS
 10
73.5132266651
 20
123.7152815952
 40
0.9084939559
100
AcDbArc
 50
300.0199472257
 51
301.8512881889
  0
ARC
  5
3A0
100
AcDbEntity
  8
0
100
AcDbCircle
 62
7
  6
CONTINUOUS
 10
41.8351463263
 20
142.0037306949
 40
0.9076382757
100
AcDbArc
 50
300.0194186705
 51
301.3685686807
  0
SPLINE
  5
3A1
100
AcDbEntity
  8
0
100
AcDbSpline
 62
7
  6
CONTINUOUS
 70
0
 71
3
 72
15
 73
11
 74
0
 42
0.0000001
 43
0.0000001
 44
0.0000000001
 40
0.0
 40
0.0
 40
0.0
 40
0.0
 40
0.1141546703
 40
0.2373261017
 40
0.3669753162
 40
0.4999989361
 40
0.6330227034
 40
0.7626723508
 40
0.8858444607
 40
1.0
 40
1.0
 40
1.0
 40
1.0
 10
22.0982646144
 20
99.8736403562
 30
0.0
 10
21.9046353309
 20
99.9854297461
 30
0.0
 10
21.5221827313
 20
100.2535221795
 30
0.0
 10
20.9959484663
 20
100.7458503347
 30
0.0
 10
20.5109951593
 20
101.3278196269
 30
0.0
 10
20.0855888308
 20
101.9775985223
 30
0.0
 10
19.7355633145
 20
102.6708997595
 30
0.0
 10
19.4740352211
 20
103.3818672194
 30
0.0
 10
19.3107783458
 20
104.0837662552
 30
0.0
 10
19.2698257138
 20
104.5490287672
 30
0.0
 10
19.2698257138
 20
104.7726130428
 30
0.0
  0
SPLINE
  5
3A2
100
AcDbEntity
  8
0
100
AcDbSpline
 62
7
  6
CONTINUOUS
 70
0
 71
3
 72
12
 73
8
 74
0
 42
0.0000001
 43
0.0000001
 44
0.0000000001
 40
0.0
 40
0.0
 40
0.0
 40
0.0
 40
0.289581202
 40
0.5486347013
 40
0.7816368512
 40
0.8918382666
 40
1.0
 40
1.0
 40
1.0
 40
1.0
 10
19.2698257138
 20
122.2732405149
 30
0.0
 10
19.2698257138
 20
122.4759842335
 30
0.0
 10
19.3005439278
 20
122.8614756185
 30
0.0
 10
19.4564184666
 20
123.3908052979
 30
0.0
 10
19.6803943297
 20
123.7560426432
 30
0.0
 10
19.9066211916
 20
123.9784902761
 30
0.0
 10
20.0326953898
 20
124.0665150432
 30
0.0
 10
20.0982769825
 20
124.1043783675
 30
0.0
  0
SPLINE
  5
3A3
100
AcDbEntity
  8
0
100
AcDbSpline
 62
7
  6
CONTINUOUS
 70
0
 71
3
 72
13
 73
9
 74
0
 42
0.0000001
 43
0.0000001
 44
0.0000000001
 40
0.0
 40
0.0
 40
0.0
 40
0.0
 40
0.114225901
 40
0.2375600112
 40
0.5000010165
 40
0.7624414735
 40
0.8857749257
 40
1.0
 40
1.0
 40
1.0
 40
1.0
 10
42.7458685887
 20
91.4506213425
 30
0.0
 10
42.745868728
 20
91.5176778966
 30
0.0
 10
42.7335661385
 20
91.6572768408
 30
0.0
 10
42.6668800036
 20
91.9438499639
 30
0.0
 10
42.5118956638
 20
92.295335325
 30
0.0
 10
42.2849914483
 20
92.6052971327
 30
0.0
 10
42.0701544474
 20
92.806333386
 30
0.0
 10
41.955409506
 20
92.886785683
 30
0.0
 10
41.8973369185
 20
92.9203131485
 30
0.0
  0
SPLINE
  5
3A4
100
AcDbEntity
  8
0
100
AcDbSpline
 62
7
  6
CONTINUOUS
 70
0
 71
3
 72
13
 73
9
 74
0
 42
0.0000001
 43
0.0000001
 44
0.0000000001
 40
0.0
 40
0.0
 40
0.0
 40
0.0
 40
0.2535551309
 40
0.5156655264
 40
0.6447329429
 40
0.7696176094
 40
0.8885507266
 40
1.0
 40
1.0
 40
1.0
 40
1.0
 10
55.3366549972
 20
107.9256116337
 30
0.0
 10
55.2419911313
 20
108.3183771978
 30
0.0
 10
54.9632209782
 20
109.0976235252
 30
0.0
 10
54.4472297993
 20
109.9924284379
 30
0.0
 10
53.9426160637
 20
110.6430042668
 30
0.0
 10
53.5343158947
 20
111.0760698118
 30
0.0
 10
53.1043988291
 20
111.4459294258
 30
0.0
 10
52.7991569013
 20
111.6519458377
 30
0.0
 10
52.6453652916
 20
111.7407354563
 30
0.0
  0
SPLINE
  5
3A5
100
AcDbEntity
  8
0
100
AcDbSpline
 62
7
  6
CONTINUOUS
 70
0
 71
3
 72
12
 73
8
 74
0
 42
0.0000001
 43
0.0000001
 44
0.0000000001
 40
0.0
 40
0.0
 40
0.0
 40
0.0
 40
0.2895802184
 40
0.5486333627
 40
0.7816359182
 40
0.8918377609
 40
1.0
 40
1.0
 40
1.0
 40
1.0
 10
26.8358603237
 20
126.6415229963
 30
0.0
 10
26.6602834151
 20
126.7428900785
 30
0.0
 10
26.3110876181
 20
126.9090248363
 30
0.0
 10
25.7747513907
 20
127.0386903046
 30
0.0
 10
25.3464700392
 20
127.027338293
 30
0.0
 10
25.0407186642
 20
126.9426458291
 30
0.0
 10
24.9014528396
 20
126.8774766804
 30
0.0
 10
24.8358726919
 20
126.8396141984
 30
0.0
  0
SPLINE
  5
3A6
100
AcDbEntity
  8
0
100
AcDbSpline
 62
7
  6
CONTINUOUS
 70
0
 71
3
 72
12
 73
8
 74
0
 42
0.0000001
 43
0.0000001
 44
0.0000000001
 40
0.0
 40
0.0
 40
0.0
 40
0.0
 40
0.108162245
 40
0.2183640921
 40
0.4513666551
 40
0.7104197903
 40
1.0
 40
1.0
 40
1.0
 40
1.0
 10
49.9077572141
 20
84.774761614
 30
0.0
 10
49.8421770662
 20
84.736899124
 30
0.0
 10
49.7029112298
 20
84.6717299811
 30
0.0
 10
49.3971598448
 20
84.5870375089
 30
0.0
 10
48.9688784889
 20
84.5756855144
 30
0.0
 10
48.4325422694
 20
84.705350978
 30
0.0
 10
48.0833464858
 20
84.8714857369
 30
0.0
 10
47.9077695823
 20
84.9728528162
 30
0.0
  0
SPLINE
  5
3A7
100
AcDbEntity
  8
0
100
AcDbSpline
 62
7
  6
CONTINUOUS
 70
0
 71
3
 72
12
 73
8
 74
0
 42
0.0000001
 43
0.0000001
 44
0.0000000001
 40
0.0
 40
0.0
 40
0.0
 40
0.0
 40
0.108162245
 40
0.2183640921
 40
0.4513666551
 40
0.7104197903
 40
1.0
 40
1.0
 40
1.0
 40
1.0
 10
20.0982769825
 20
124.1043783675
 30
0.0
 10
20.1638571305
 20
124.1422408575
 30
0.0
 10
20.3031229668
 20
124.2074100004
 30
0.0
 10
20.6088743519
 20
124.2921024726
 30
0.0
 10
21.0371557077
 20
124.3034544672
 30
0.0
 10
21.5734919272
 20
124.1737890035
 30
0.0
 10
21.9226877109
 20
124.0076542446
 30
0.0
 10
22.0982646144
 20
123.9062871654
 30
0.0
  0
SPLINE
  5
3A8
100
AcDbEntity
  8
0
100
AcDbSpline
 62
7
  6
CONTINUOUS
 70
0
 71
3
 72
12
 73
8
 74
0
 42
0.0000001
 43
0.0000001
 44
0.0000000001
 40
0.0
 40
0.0
 40
0.0
 40
0.0
 40
0.289581202
 40
0.5486347013
 40
0.7816368512
 40
0.8918382666
 40
1.0
 40
1.0
 40
1.0
 40
1.0
 10
50.7362084828
 20
86.6058994666
 30
0.0
 10
50.7362084828
 20
86.403155748
 30
0.0
 10
50.7054902688
 20
86.017664363
 30
0.0
 10
50.5496157301
 20
85.4883346836
 30
0.0
 10
50.325639867
 20
85.1230973383
 30
0.0
 10
50.0994130051
 20
84.9006497054
 30
0.0
 10
49.9733388068
 20
84.8126249383
 30
0.0
 10
49.9077572141
 20
84.774761614
 30
0.0
  0
SPLINE
  5
3A9
100
AcDbEntity
  8
0
100
AcDbSpline
 62
7
  6
CONTINUOUS
 70
0
 71
3
 72
13
 73
9
 74
0
 42
0.0000001
 43
0.0000001
 44
0.0000000001
 40
0.0
 40
0.0
 40
0.0
 40
0.0
 40
0.114225901
 40
0.2375600112
 40
0.5000010165
 40
0.7624414735
 40
0.8857749257
 40
1.0
 40
1.0
 40
1.0
 40
1.0
 10
41.0488052483
 20
92.4303991534
 30
0.0
 10
41.048805109
 20
92.3633425993
 30
0.0
 10
41.0611076985
 20
92.2237436552
 30
0.0
 10
41.1277938334
 20
91.937170532
 30
0.0
 10
41.2827781732
 20
91.5856851709
 30
0.0
 10
41.5096823887
 20
91.2757233633
 30
0.0
 10
41.7245193897
 20
91.0746871099
 30
0.0
 10
41.8392643311
 20
90.9942348129
 30
0.0
 10
41.8973369185
 20
90.9607073474
 30
0.0
  0
SPLINE
  5
3AA
100
AcDbEntity
  8
0
100
AcDbSpline
 62
7
  6
CONTINUOUS
 70
0
 71
3
 72
11
 73
7
 74
0
 42
0.0000001
 43
0.0000001
 44
0.0000000001
 40
0.0
 40
0.0
 40
0.0
 40
0.0
 40
0.2938910879
 40
0.547976054
 40
0.7749739415
 40
1.0
 40
1.0
 40
1.0
 40
1.0
 10
41.8973369185
 20
90.9607073474
 30
0.0
 10
41.964780182
 20
90.921769842
 30
0.0
 10
42.0986817824
 20
90.8614320168
 30
0.0
 10
42.305992084
 20
90.8330577223
 30
0.0
 10
42.4926145472
 20
90.8822584885
 30
0.0
 10
42.5857742579
 20
90.964739994
 30
0.0
 10
42.6218492466
 20
91.0122175727
 30
0.0
  0
SPLINE
  5
3AB
100
AcDbEntity
  8
0
100
AcDbSpline
 62
7
  6
CONTINUOUS
 70
0
 71
3
 72
15
 73
11
 74
0
 42
0.0000001
 43
0.0000001
 44
0.0000000001
 40
0.0
 40
0.0
 40
0.0
 40
0.0
 40
0.1141546703
 40
0.2373261017
 40
0.3669753162
 40
0.4999989361
 40
0.6330227034
 40
0.7626723508
 40
0.8858444607
 40
1.0
 40
1.0
 40
1.0
 40
1.0
 10
47.9077695823
 20
109.0054996254
 30
0.0
 10
48.1013988658
 20
108.8937102354
 30
0.0
 10
48.4838514653
 20
108.6256178021
 30
0.0
 10
49.0100857304
 20
108.1332896468
 30
0.0
 10
49.4950390373
 20
107.5513203546
 30
0.0
 10
49.9204453659
 20
106.9015414592
 30
0.0
 10
50.2704708821
 20
106.208240222
 30
0.0
 10
50.5319989755
 20
105.4972727621
 30
0.0
 10
50.6952558508
 20
104.7953737263
 30
0.0
 10
50.7362084828
 20
104.3301112143
 30
0.0
 10
50.7362084828
 20
104.1065269388
 30
0.0
  0
SPLINE
  5
3AC
100
AcDbEntity
  8
0
100
AcDbSpline
 62
7
  6
CONTINUOUS
 70
0
 71
3
 72
11
 73
7
 74
0
 42
0.0000001
 43
0.0000001
 44
0.0000000001
 40
0.0
 40
0.0
 40
0.0
 40
0.0
 40
0.22502494
 40
0.4520222331
 40
0.7061076585
 40
1.0
 40
1.0
 40
1.0
 40
1.0
 10
41.4556736849
 20
93.0321049545
 30
0.0
 10
41.3965184094
 20
93.0246020809
 30
0.0
 10
41.2785052138
 20
92.9851635906
 30
0.0
 10
41.1425830433
 20
92.8481405424
 30
0.0
 10
41.0635008207
 20
92.654412228
 30
0.0
 10
41.0488054102
 20
92.5082774582
 30
0.0
 10
41.0488052483
 20
92.4303991534
 30
0.0
  0
SPLINE
  5
3AD
100
AcDbEntity
  8
0
100
AcDbSpline
 62
7
  6
CONTINUOUS
 70
0
 71
3
 72
15
 73
11
 74
0
 42
0.0000001
 43
0.0000001
 44
0.0000000001
 40
0.0
 40
0.0
 40
0.0
 40
0.0
 40
0.1141546703
 40
0.2373261017
 40
0.3669753162
 40
0.4999989361
 40
0.6330227034
 40
0.7626723508
 40
0.8858444607
 40
1.0
 40
1.0
 40
1.0
 40
1.0
 10
53.7060693285
 20
81.6323418143
 30
0.0
 10
53.5124400449
 20
81.7441312042
 30
0.0
 10
53.1299874454
 20
82.0122236376
 30
0.0
 10
52.6037531803
 20
82.5045517929
 30
0.0
 10
52.1187998734
 20
83.086521085
 30
0.0
 10
51.6933935448
 20
83.7362999804
 30
0.0
 10
51.3433680286
 20
84.4296012176
 30
0.0
 10
51.0818399352
 20
85.1405686775
 30
0.0
 10
50.9185830599
 20
85.8424677133
 30
0.0
 10
50.8776304279
 20
86.3077302253
 30
0.0
 10
50.8776304279
 20
86.5313145009
 30
0.0
  0
SPLINE
  5
3AE
100
AcDbEntity
  8
0
100
AcDbSpline
 62
7
  6
CONTINUOUS
 70
0
 71
3
 72
12
 73
8
 74
0
 42
0.0000001
 43
0.0000001
 44
0.0000000001
 40
0.0
 40
0.0
 40
0.0
 40
0.0
 40
0.289581202
 40
0.5486347013
 40
0.7816368512
 40
0.8918382666
 40
1.0
 40
1.0
 40
1.0
 40
1.0
 10
50.8776304279
 20
104.0248787879
 30
0.0
 10
50.8776304279
 20
104.2276225064
 30
0.0
 10
50.9083486419
 20
104.6131138915
 30
0.0
 10
51.0642231806
 20
105.1424435708
 30
0.0
 10
51.2881990438
 20
105.5076809162
 30
0.0
 10
51.5144259056
 20
105.730128549
 30
0.0
 10
51.6405001039
 20
105.8181533162
 30
0.0
 10
51.7060816966
 20
105.8560166404
 30
0.0
  0
SPLINE
  5
3AF
100
AcDbEntity
  8
0
100
AcDbSpline
 62
7
  6
CONTINUOUS
 70
0
 71
3
 72
13
 73
9
 74
0
 42
0.0000001
 43
0.0000001
 44
0.0000000001
 40
0.0
 40
0.0
 40
0.0
 40
0.0
 40
0.114225901
 40
0.2375600112
 40
0.5000010165
 40
0.7624414735
 40
0.8857749257
 40
1.0
 40
1.0
 40
1.0
 40
1.0
 10
74.4243842753
 20
73.16143554
 30
0.0
 10
74.4243844146
 20
73.2284920941
 30
0.0
 10
74.4120818251
 20
73.3680910383
 30
0.0
 10
74.3453956902
 20
73.6546641614
 30
0.0
 10
74.1904113504
 20
74.0061495225
 30
0.0
 10
73.9635071349
 20
74.3161113302
 30
0.0
 10
73.7486701339
 20
74.5171475835
 30
0.0
 10
73.6339251925
 20
74.5975998805
 30
0.0
 10
73.5758526051
 20
74.631127346
 30
0.0
  0
SPLINE
  5
3B0
100
AcDbEntity
  8
0
100
AcDbSpline
 62
7
  6
CONTINUOUS
 70
0
 71
3
 72
15
 73
11
 74
0
 42
0.0000001
 43
0.0000001
 44
0.0000000001
 40
0.0
 40
0.0
 40
0.0
 40
0.0
 40
0.1141555516
 40
0.2373276756
 40
0.3669773296
 40
0.5000011
 40
0.6330247168
 40
0.7626739247
 40
0.885845342
 40
1.0
 40
1.0
 40
1.0
 40
1.0
 10
87.0816089062
 20
88.5934010426
 30
0.0
 10
87.0816089062
 20
88.8169853423
 30
0.0
 10
87.0406562608
 20
89.2822479055
 30
0.0
 10
86.8773993617
 20
89.9841470024
 30
0.0
 10
86.6158712285
 20
90.6951144976
 30
0.0
 10
86.2658456888
 20
91.3884157372
 30
0.0
 10
85.8404393505
 20
92.0381946111
 30
0.0
 10
85.3554860542
 20
92.6201638511
 30
0.0
 10
84.8292518302
 20
93.1124919552
 30
0.0
 10
84.4467992683
 20
93.3805843513
 30
0.0
 10
84.2531700057
 20
93.4923737292
 30
0.0
  0
SPLINE
  5
3B1
100
AcDbEntity
  8
0
100
AcDbSpline
 62
7
  6
CONTINUOUS
 70
0
 71
3
 72
12
 73
8
 74
0
 42
0.0000001
 43
0.0000001
 44
0.0000000001
 40
0.0
 40
0.0
 40
0.0
 40
0.0
 40
0.2895802184
 40
0.5486333627
 40
0.7816359182
 40
0.8918377609
 40
1.0
 40
1.0
 40
1.0
 40
1.0
 10
58.4436650378
 20
108.3931612692
 30
0.0
 10
58.2680881291
 20
108.4945283515
 30
0.0
 10
57.9188923321
 20
108.6606631092
 30
0.0
 10
57.3825561047
 20
108.7903285776
 30
0.0
 10
56.9542747533
 20
108.7789765659
 30
0.0
 10
56.6485233782
 20
108.6942841021
 30
0.0
 10
56.5092575537
 20
108.6291149533
 30
0.0
 10
56.4436774059
 20
108.5912524713
 30
0.0
  0
SPLINE
  5
3B2
100
AcDbEntity
  8
0
100
AcDbSpline
 62
7
  6
CONTINUOUS
 70
0
 71
3
 72
12
 73
8
 74
0
 42
0.0000001
 43
0.0000001
 44
0.0000000001
 40
0.0
 40
0.0
 40
0.0
 40
0.0
 40
0.1081617394
 40
0.2183631591
 40
0.4513653165
 40
0.7104188067
 40
1.0
 40
1.0
 40
1.0
 40
1.0
 10
86.2531576375
 20
69.2686989031
 30
0.0
 10
86.3187392373
 20
69.3065622235
 30
0.0
 10
86.4448134364
 20
69.3945870037
 30
0.0
 10
86.6710403105
 20
69.6170346411
 30
0.0
 10
86.895016161
 20
69.9822719988
 30
0.0
 10
87.0508906999
 20
70.511601669
 30
0.0
 10
87.0816089062
 20
70.897093043
 30
0.0
 10
87.0816089062
 20
71.0998367556
 30
0.0
  0
SPLINE
  5
3B3
100
AcDbEntity
  8
0
100
AcDbSpline
 62
7
  6
CONTINUOUS
 70
0
 71
3
 72
12
 73
8
 74
0
 42
0.0000001
 43
0.0000001
 44
0.0000000001
 40
0.0
 40
0.0
 40
0.0
 40
0.0
 40
0.108162245
 40
0.2183640921
 40
0.4513666551
 40
0.7104197903
 40
1.0
 40
1.0
 40
1.0
 40
1.0
 10
81.5155619282
 20
66.5334630722
 30
0.0
 10
81.4499817802
 20
66.4956005821
 30
0.0
 10
81.3107159439
 20
66.4304314392
 30
0.0
 10
81.0049645588
 20
66.345738967
 30
0.0
 10
80.576683203
 20
66.3343869725
 30
0.0
 10
80.0403469835
 20
66.4640524361
 30
0.0
 10
79.6911511998
 20
66.630187195
 30
0.0
 10
79.5155742963
 20
66.7315542743
 30
0.0
  0
SPLINE
  5
3B4
100
AcDbEntity
  8
0
100
AcDbSpline
 62
7
  6
CONTINUOUS
 70
0
 71
3
 72
12
 73
8
 74
0
 42
0.0000001
 43
0.0000001
 44
0.0000000001
 40
0.0
 40
0.0
 40
0.0
 40
0.0
 40
0.108162245
 40
0.2183640921
 40
0.4513666551
 40
0.7104197903
 40
1.0
 40
1.0
 40
1.0
 40
1.0
 10
51.7060816966
 20
105.8560166404
 30
0.0
 10
51.7716618446
 20
105.8938791305
 30
0.0
 10
51.9109276809
 20
105.9590482733
 30
0.0
 10
52.2166790659
 20
106.0437407455
 30
0.0
 10
52.6449604218
 20
106.0550927401
 30
0.0
 10
53.1812966413
 20
105.9254272764
 30
0.0
 10
53.5304924249
 20
105.7592925176
 30
0.0
 10
53.7060693285
 20
105.6579254383
 30
0.0
  0
SPLINE
  5
3B5
100
AcDbEntity
  8
0
100
AcDbSpline
 62
7
  6
CONTINUOUS
 70
0
 71
3
 72
15
 73
11
 74
0
 42
0.0000001
 43
0.0000001
 44
0.0000000001
 40
0.0
 40
0.0
 40
0.0
 40
0.0
 40
0.1141546703
 40
0.2373261017
 40
0.3669753162
 40
0.4999989361
 40
0.6330227034
 40
0.7626723508
 40
0.8858444607
 40
1.0
 40
1.0
 40
1.0
 40
1.0
 10
79.5155742963
 20
90.7571378983
 30
0.0
 10
79.7092035798
 20
90.6453485084
 30
0.0
 10
80.0916561794
 20
90.377256075
 30
0.0
 10
80.6178904444
 20
89.8849279197
 30
0.0
 10
81.1028437514
 20
89.3029586276
 30
0.0
 10
81.5282500799
 20
88.6531797321
 30
0.0
 10
81.8782755962
 20
87.959878495
 30
0.0
 10
82.1398036896
 20
87.248911035
 30
0.0
 10
82.3030605649
 20
86.5470119992
 30
0.0
 10
82.3440131969
 20
86.0817494873
 30
0.0
 10
82.3440131969
 20
85.8581652117
 30
0.0
  0
SPLINE
  5
3B6
100
AcDbEntity
  8
0
100
AcDbSpline
 62
7
  6
CONTINUOUS
 70
0
 71
3
 72
12
 73
8
 74
0
 42
0.0000001
 43
0.0000001
 44
0.0000000001
 40
0.0
 40
0.0
 40
0.0
 40
0.0
 40
0.289581202
 40
0.5486347013
 40
0.7816368512
 40
0.8918382666
 40
1.0
 40
1.0
 40
1.0
 40
1.0
 10
82.3440131969
 20
68.3646009247
 30
0.0
 10
82.3440131969
 20
68.1618572061
 30
0.0
 10
82.3132949829
 20
67.7763658211
 30
0.0
 10
82.1574204441
 20
67.2470361417
 30
0.0
 10
81.933444581
 20
66.8817987964
 30
0.0
 10
81.7072177192
 20
66.6593511635
 30
0.0
 10
81.5811435209
 20
66.5713263964
 30
0.0
 10
81.5155619282
 20
66.5334630722
 30
0.0
  0
SPLINE
  5
3B7
100
AcDbEntity
  8
0
100
AcDbSpline
 62
7
  6
CONTINUOUS
 70
0
 71
3
 72
13
 73
9
 74
0
 42
0.0000001
 43
0.0000001
 44
0.0000000001
 40
0.0
 40
0.0
 40
0.0
 40
0.0
 40
0.114225901
 40
0.2375600112
 40
0.5000010165
 40
0.7624414735
 40
0.8857749257
 40
1.0
 40
1.0
 40
1.0
 40
1.0
 10
72.7273209349
 20
74.1412133509
 30
0.0
 10
72.7273207956
 20
74.0741567968
 30
0.0
 10
72.7396233851
 20
73.9345578527
 30
0.0
 10
72.80630952
 20
73.6479847295
 30
0.0
 10
72.9612938598
 20
73.2964993684
 30
0.0
 10
73.1881980753
 20
72.9865375607
 30
0.0
 10
73.4030350762
 20
72.7855013074
 30
0.0
 10
73.5177800176
 20
72.7050490104
 30
0.0
 10
73.5758526051
 20
72.6715215449
 30
0.0
  0
SPLINE
  5
3B8
100
AcDbEntity
  8
0
100
AcDbSpline
 62
7
  6
CONTINUOUS
 70
0
 71
3
 72
11
 73
7
 74
0
 42
0.0000001
 43
0.0000001
 44
0.0000000001
 40
0.0
 40
0.0
 40
0.0
 40
0.0
 40
0.2938910879
 40
0.547976054
 40
0.7749739415
 40
1.0
 40
1.0
 40
1.0
 40
1.0
 10
73.5758526051
 20
72.6715215449
 30
0.0
 10
73.6432958686
 20
72.6325840395
 30
0.0
 10
73.777197469
 20
72.5722462143
 30
0.0
 10
73.9845077706
 20
72.5438719198
 30
0.0
 10
74.1711302337
 20
72.593072686
 30
0.0
 10
74.2642899445
 20
72.6755541915
 30
0.0
 10
74.3003649332
 20
72.7230317702
 30
0.0
  0
SPLINE
  5
3B9
100
AcDbEntity
  8
0
100
AcDbSpline
 62
7
  6
CONTINUOUS
 70
0
 71
3
 72
11
 73
7
 74
0
 42
0.0000001
 43
0.0000001
 44
0.0000000001
 40
0.0
 40
0.0
 40
0.0
 40
0.0
 40
0.22502494
 40
0.4520222331
 40
0.7061076585
 40
1.0
 40
1.0
 40
1.0
 40
1.0
 10
73.1341893715
 20
74.742919152
 30
0.0
 10
73.075034096
 20
74.7354162784
 30
0.0
 10
72.9570209004
 20
74.6959777881
 30
0.0
 10
72.8210987299
 20
74.5589547399
 30
0.0
 10
72.7420165072
 20
74.3652264255
 30
0.0
 10
72.7273210968
 20
74.2190916557
 30
0.0
 10
72.7273209349
 20
74.1412133509
 30
0.0
  0
SPLINE
  5
3BA
100
AcDbEntity
  8
0
100
AcDbSpline
 62
7
  6
CONTINUOUS
 70
0
 71
3
 72
11
 73
7
 74
0
 42
0.0000001
 43
0.0000001
 44
0.0000000001
 40
0.0
 40
0.0
 40
0.0
 40
0.0
 40
0.2372521915
 40
0.5000004287
 40
0.7627484331
 40
1.0
 40
1.0
 40
1.0
 40
1.0
 10
52.6452069062
 20
154.198390162
 30
0.0
 10
52.8459958969
 20
154.0824672067
 30
0.0
 10
53.3128994231
 20
153.9132828263
 30
0.0
 10
54.0594224546
 20
153.8323798777
 30
0.0
 10
54.8059445126
 20
153.9132861304
 30
0.0
 10
55.2728464047
 20
154.0824728626
 30
0.0
 10
55.4736340309
 20
154.1983969607
 30
0.0
  0
SPLINE
  5
3BB
100
AcDbEntity
  8
0
100
AcDbSpline
 62
7
  6
CONTINUOUS
 70
0
 71
3
 72
11
 73
7
 74
0
 42
0.0000001
 43
0.0000001
 44
0.0000000001
 40
0.0
 40
0.0
 40
0.0
 40
0.0
 40
0.2895387672
 40
0.5491150867
 40
0.7822549883
 40
1.0
 40
1.0
 40
1.0
 40
1.0
 10
58.3020493798
 20
155.8313735762
 30
0.0
 10
58.3897551549
 20
155.8820102268
 30
0.0
 10
58.5489122385
 20
155.9917556738
 30
0.0
 10
58.7392964459
 20
156.1916272376
 30
0.0
 10
58.8597627921
 20
156.4129016945
 30
0.0
 10
58.8877344844
 20
156.5716930743
 30
0.0
 10
58.8877344918
 20
156.6478550857
 30
0.0
  0
SPLINE
  5
3BC
100
AcDbEntity
  8
0
100
AcDbSpline
 62
7
  6
CONTINUOUS
 70
0
 71
3
 72
11
 73
7
 74
0
 42
0.0000001
 43
0.0000001
 44
0.0000000001
 40
0.0
 40
0.0
 40
0.0
 40
0.0
 40
0.2372521915
 40
0.5000004287
 40
0.7627484331
 40
1.0
 40
1.0
 40
1.0
 40
1.0
 10
62.5447430582
 20
148.4830195987
 30
0.0
 10
62.745532049
 20
148.3670966434
 30
0.0
 10
63.2124355751
 20
148.197912263
 30
0.0
 10
63.9589586066
 20
148.1170093144
 30
0.0
 10
64.7054806647
 20
148.1979155671
 30
0.0
 10
65.1723825567
 20
148.3671022993
 30
0.0
 10
65.373170183
 20
148.4830263974
 30
0.0
  0
SPLINE
  5
3BD
100
AcDbEntity
  8
0
100
AcDbSpline
 62
7
  6
CONTINUOUS
 70
0
 71
3
 72
11
 73
7
 74
0
 42
0.0000001
 43
0.0000001
 44
0.0000000001
 40
0.0
 40
0.0
 40
0.0
 40
0.0
 40
0.2895387672
 40
0.5491150867
 40
0.7822549883
 40
1.0
 40
1.0
 40
1.0
 40
1.0
 10
68.2015855318
 20
150.1160030129
 30
0.0
 10
68.289291307
 20
150.1666396635
 30
0.0
 10
68.4484483905
 20
150.2763851105
 30
0.0
 10
68.6388325979
 20
150.4762566744
 30
0.0
 10
68.7592989442
 20
150.6975311312
 30
0.0
 10
68.7872706365
 20
150.856322511
 30
0.0
 10
68.7872706439
 20
150.9324845224
 30
0.0
  0
SPLINE
  5
3BE
100
AcDbEntity
  8
0
100
AcDbSpline
 62
7
  6
CONTINUOUS
 70
0
 71
3
 72
11
 73
7
 74
0
 42
0.0000001
 43
0.0000001
 44
0.0000000001
 40
0.0
 40
0.0
 40
0.0
 40
0.0
 40
0.2372521915
 40
0.5000004287
 40
0.7627484331
 40
1.0
 40
1.0
 40
1.0
 40
1.0
 10
72.4442792103
 20
142.7676490354
 30
0.0
 10
72.6450682011
 20
142.6517260801
 30
0.0
 10
73.1119717272
 20
142.4825416997
 30
0.0
 10
73.8584947587
 20
142.4016387511
 30
0.0
 10
74.6050168168
 20
142.4825450039
 30
0.0
 10
75.0719187088
 20
142.651731736
 30
0.0
 10
75.272706335
 20
142.7676558341
 30
0.0
  0
SPLINE
  5
3BF
100
AcDbEntity
  8
0
100
AcDbSpline
 62
7
  6
CONTINUOUS
 70
0
 71
3
 72
11
 73
7
 74
0
 42
0.0000001
 43
0.0000001
 44
0.0000000001
 40
0.0
 40
0.0
 40
0.0
 40
0.0
 40
0.2895387672
 40
0.5491150867
 40
0.7822549883
 40
1.0
 40
1.0
 40
1.0
 40
1.0
 10
78.1011216839
 20
144.4006324496
 30
0.0
 10
78.188827459
 20
144.4512691002
 30
0.0
 10
78.3479845426
 20
144.5610145472
 30
0.0
 10
78.53836875
 20
144.7608861111
 30
0.0
 10
78.6588350962
 20
144.9821605679
 30
0.0
 10
78.6868067885
 20
145.1409519477
 30
0.0
 10
78.6868067959
 20
145.2171139591
 30
0.0
  0
SPLINE
  5
3C0
100
AcDbEntity
  8
0
100
AcDbSpline
 62
7
  6
CONTINUOUS
 70
0
 71
3
 72
11
 73
7
 74
0
 42
0.0000001
 43
0.0000001
 44
0.0000000001
 40
0.0
 40
0.0
 40
0.0
 40
0.0
 40
0.2896428702
 40
0.5491125874
 40
0.7822368
 40
1.0
 40
1.0
 40
1.0
 40
1.0
 10
86.091484541
 20
136.6032207808
 30
0.0
 10
86.2011574109
 20
136.6665400638
 30
0.0
 10
86.4001564276
 20
136.8036580815
 30
0.0
 10
86.6380487945
 20
137.0535863282
 30
0.0
 10
86.7885806911
 20
137.3301395339
 30
0.0
 10
86.8236272598
 20
137.5286112179
 30
0.0
 10
86.823665509
 20
137.6238227472
 30
0.0
  0
SPLINE
  5
3C1
100
AcDbEntity
  8
0
100
AcDbSpline
 62
7
  6
CONTINUOUS
 70
0
 71
3
 72
11
 73
7
 74
0
 42
0.0000001
 43
0.0000001
 44
0.0000000001
 40
0.0
 40
0.0
 40
0.0
 40
0.0
 40
0.2896428702
 40
0.5491125874
 40
0.7822368
 40
1.0
 40
1.0
 40
1.0
 40
1.0
 10
95.991020693
 20
130.8878502175
 30
0.0
 10
96.100693563
 20
130.9511695005
 30
0.0
 10
96.2996925797
 20
131.0882875183
 30
0.0
 10
96.5375849465
 20
131.3382157649
 30
0.0
 10
96.6881168432
 20
131.6147689707
 30
0.0
 10
96.7231634118
 20
131.8132406546
 30
0.0
 10
96.723201661
 20
131.9084521839
 30
0.0
  0
SPLINE
  5
3C2
100
AcDbEntity
  8
0
100
AcDbSpline
 62
7
  6
CONTINUOUS
 70
0
 71
3
 72
11
 73
7
 74
0
 42
0.0000001
 43
0.0000001
 44
0.0000000001
 40
0.0
 40
0.0
 40
0.0
 40
0.0
 40
0.2896428702
 40
0.5491125874
 40
0.7822368
 40
1.0
 40
1.0
 40
1.0
 40
1.0
 10
105.8905568451
 20
125.1724796542
 30
0.0
 10
106.000229715
 20
125.2357989373
 30
0.0
 10
106.1992287318
 20
125.372916955
 30
0.0
 10
106.4371210986
 20
125.6228452016
 30
0.0
 10
106.5876529952
 20
125.8993984074
 30
0.0
 10
106.6226995639
 20
126.0978700913
 30
0.0
 10
106.6227378131
 20
126.1930816206
 30
0.0
  0
SPLINE
  5
3C3
100
AcDbEntity
  8
0
100
AcDbSpline
 62
7
  6
CONTINUOUS
 70
0
 71
3
 72
11
 73
7
 74
0
 42
0.0000001
 43
0.0000001
 44
0.0000000001
 40
0.0
 40
0.0
 40
0.0
 40
0.0
 40
0.3019488479
 40
0.5672347789
 40
0.7956693057
 40
1.0
 40
1.0
 40
1.0
 40
1.0
 10
109.577490265
 20
57.6163652552
 30
0.0
 10
109.4871224971
 20
57.5362315105
 30
0.0
 10
109.3039459252
 20
57.3995137972
 30
0.0
 10
109.0104889421
 20
57.2680805938
 30
0.0
 10
108.7280504203
 20
57.2323367602
 30
0.0
 10
108.5554700448
 20
57.28268631
 30
0.0
 10
108.4846888706
 20
57.3235545749
 30
0.0
  0
SPLINE
  5
3C4
100
AcDbEntity
  8
0
100
AcDbSpline
 62
7
  6
CONTINUOUS
 70
0
 71
3
 72
17
 73
13
 74
0
 42
0.0000001
 43
0.0000001
 44
0.0000000001
 40
0.0
 40
0.0
 40
0.0
 40
0.0
 40
0.037233157
 40
0.0761444323
 40
0.1189302071
 40
0.166953116
 40
0.279968308
 40
0.414020547
 40
0.5624825266
 40
0.7161355979
 40
0.8649779666
 40
1.0
 40
1.0
 40
1.0
 40
1.0
 10
121.0328249001
 20
156.9572452572
 30
0.0
 10
121.0329250098
 20
156.8976761718
 30
0.0
 10
121.0518865511
 20
156.7751146188
 30
0.0
 10
121.1359828379
 20
156.601786486
 30
0.0
 10
121.2722802099
 20
156.4428289778
 30
0.0
 10
121.5311657776
 20
156.2418827937
 30
0.0
 10
121.9677091923
 20
156.046999058
 30
0.0
 10
122.5881941631
 20
155.9097436307
 30
0.0
 10
123.2875808284
 20
155.8694544725
 30
0.0
 10
124.0090295278
 20
155.9309033167
 30
0.0
 10
124.6922498838
 20
156.0942396889
 30
0.0
 10
125.1133139745
 20
156.27377519
 30
0.0
 10
125.3003940809
 20
156.381785295
 30
0.0
  0
SPLINE
  5
3C5
100
AcDbEntity
  8
0
100
AcDbSpline
 62
7
  6
CONTINUOUS
 70
0
 71
3
 72
11
 73
7
 74
0
 42
0.0000001
 43
0.0000001
 44
0.0000000001
 40
0.0
 40
0.0
 40
0.0
 40
0.0
 40
0.2177660095
 40
0.4508968553
 40
0.7103699668
 40
1.0
 40
1.0
 40
1.0
 40
1.0
 10
110.4447049761
 20
159.6595235901
 30
0.0
 10
110.5189016278
 20
159.7024000988
 30
0.0
 10
110.6578387631
 20
159.8190268561
 30
0.0
 10
110.8056541599
 20
160.0608213275
 30
0.0
 10
110.8934057662
 20
160.3587157161
 30
0.0
 10
110.9107306043
 20
160.5755270933
 30
0.0
 10
110.9107306043
 20
160.689501195
 30
0.0
  0
SPLINE
  5
3C6
100
AcDbEntity
  8
0
100
AcDbSpline
 62
7
  6
CONTINUOUS
 70
0
 71
3
 72
11
 73
7
 74
0
 42
0.0000001
 43
0.0000001
 44
0.0000000001
 40
0.0
 40
0.0
 40
0.0
 40
0.0
 40
0.2177660095
 40
0.4508968553
 40
0.7103699668
 40
1.0
 40
1.0
 40
1.0
 40
1.0
 10
142.1232206627
 20
141.3703377876
 30
0.0
 10
142.1974173144
 20
141.4132142963
 30
0.0
 10
142.3363544496
 20
141.5298410536
 30
0.0
 10
142.4841698465
 20
141.771635525
 30
0.0
 10
142.5719214528
 20
142.0695299135
 30
0.0
 10
142.5892462909
 20
142.2863412908
 30
0.0
 10
142.5892462909
 20
142.4003153925
 30
0.0
  0
SPLINE
  5
3C7
100
AcDbEntity
  8
0
100
AcDbSpline
 62
7
  6
CONTINUOUS
 70
0
 71
3
 72
17
 73
13
 74
0
 42
0.0000001
 43
0.0000001
 44
0.0000000001
 40
0.0
 40
0.0
 40
0.0
 40
0.0
 40
0.037233157
 40
0.0761444323
 40
0.1189302071
 40
0.166953116
 40
0.279968308
 40
0.414020547
 40
0.5624825266
 40
0.7161355979
 40
0.8649779666
 40
1.0
 40
1.0
 40
1.0
 40
1.0
 10
89.3543092135
 20
175.2464310597
 30
0.0
 10
89.3544093232
 20
175.1868619743
 30
0.0
 10
89.3733708645
 20
175.0643004213
 30
0.0
 10
89.4574671513
 20
174.8909722886
 30
0.0
 10
89.5937645234
 20
174.7320147803
 30
0.0
 10
89.852650091
 20
174.5310685962
 30
0.0
 10
90.2891935057
 20
174.3361848605
 30
0.0
 10
90.9096784765
 20
174.1989294332
 30
0.0
 10
91.6090651418
 20
174.158640275
 30
0.0
 10
92.3305138412
 20
174.2200891192
 30
0.0
 10
93.0137341972
 20
174.3834254914
 30
0.0
 10
93.4347982879
 20
174.5629609925
 30
0.0
 10
93.6218783943
 20
174.6709710975
 30
0.0
  0
SPLINE
  5
3C8
100
AcDbEntity
  8
0
100
AcDbSpline
 62
7
  6
CONTINUOUS
 70
0
 71
3
 72
14
 73
10
 74
0
 42
0.0000001
 43
0.0000001
 44
0.0000000001
 40
0.0
 40
0.0
 40
0.0
 40
0.0
 40
0.094715016
 40
0.1971459533
 40
0.3105158563
 40
0.4351816141
 40
0.56966935
 40
0.7111596694
 40
1.0
 40
1.0
 40
1.0
 40
1.0
 10
104.2036876523
 20
167.055631763
 30
0.0
 10
104.2038244439
 20
166.9376750401
 30
0.0
 10
104.2470839181
 20
166.6908026714
 30
0.0
 10
104.4280095771
 20
166.3437318172
 30
0.0
 10
104.7121576099
 20
166.0243933482
 30
0.0
 10
105.0841916532
 20
165.7431853396
 30
0.0
 10
105.5285324307
 20
165.5114763766
 30
0.0
 10
106.1944514261
 20
165.2802782544
 30
0.0
 10
106.7350803825
 20
165.2099342649
 30
0.0
 10
107.094760397
 20
165.2151513157
 30
0.0
  0
SPLINE
  5
3C9
100
AcDbEntity
  8
0
100
AcDbSpline
 62
7
  6
CONTINUOUS
 70
0
 71
3
 72
14
 73
10
 74
0
 42
0.0000001
 43
0.0000001
 44
0.0000000001
 40
0.0
 40
0.0
 40
0.0
 40
0.0
 40
0.094715016
 40
0.1971459533
 40
0.3105158563
 40
0.4351816141
 40
0.56966935
 40
0.7111596694
 40
1.0
 40
1.0
 40
1.0
 40
1.0
 10
135.8822033389
 20
148.7664459605
 30
0.0
 10
135.8823401305
 20
148.6484892376
 30
0.0
 10
135.9255996047
 20
148.4016168689
 30
0.0
 10
136.1065252637
 20
148.0545460147
 30
0.0
 10
136.3906732964
 20
147.7352075457
 30
0.0
 10
136.7627073398
 20
147.4539995371
 30
0.0
 10
137.2070481172
 20
147.2222905741
 30
0.0
 10
137.8729671127
 20
146.9910924519
 30
0.0
 10
138.4135960691
 20
146.9207484624
 30
0.0
 10
138.7732760835
 20
146.9259655132
 30
0.0
  0
SPLINE
  5
3CA
100
AcDbEntity
  8
0
100
AcDbSpline
 62
7
  6
CONTINUOUS
 70
0
 71
3
 72
8
 73
4
 74
0
 42
0.0000001
 43
0.0000001
 44
0.0000000001
 40
0.0
 40
0.0
 40
0.0
 40
0.0
 40
1.0
 40
1.0
 40
1.0
 40
1.0
 10
31.4590698067
 20
145.4774042477
 30
0.0
 10
32.6996669263
 20
145.7852225419
 30
0.0
 10
33.9402276692
 20
146.0931875098
 30
0.0
 10
35.1807396038
 20
146.4013489212
 30
0.0
  0
SPLINE
  5
3CB
100
AcDbEntity
  8
0
100
AcDbSpline
 62
7
  6
CONTINUOUS
 70
0
 71
3
 72
9
 73
5
 74
0
 42
0.0000001
 43
0.0000001
 44
0.0000000001
 40
0.0
 40
0.0
 40
0.0
 40
0.0
 40
0.2458062361
 40
1.0
 40
1.0
 40
1.0
 40
1.0
 10
35.1807396038
 20
146.4013489212
 30
0.0
 10
35.7434099969
 20
145.9531960077
 30
0.0
 10
38.0516235725
 20
144.154105465
 30
0.0
 10
40.4339494088
 20
142.4504804698
 30
0.0
 10
42.2646642546
 20
141.2177112385
 30
0.0
  0
SPLINE
  5
3CC
100
AcDbEntity
  8
0
100
AcDbSpline
 62
7
  6
CONTINUOUS
 70
0
 71
3
 72
9
 73
5
 74
0
 42
0.0000001
 43
0.0000001
 44
0.0000000001
 40
0.0
 40
0.0
 40
0.0
 40
0.0
 40
0.2462855958
 40
1.0
 40
1.0
 40
1.0
 40
1.0
 10
42.2646642546
 20
141.2177112385
 30
0.0
 10
42.8508791922
 20
140.8229650334
 30
0.0
 10
45.2455423403
 20
139.241680187
 30
0.0
 10
47.6962731063
 20
137.7455781976
 30
0.0
 10
49.569354673
 20
136.6641785154
 30
0.0
  0
SPLINE
  5
3CD
100
AcDbEntity
  8
0
100
AcDbSpline
 62
7
  6
CONTINUOUS
 70
0
 71
3
 72
9
 73
5
 74
0
 42
0.0000001
 43
0.0000001
 44
0.0000000001
 40
0.0
 40
0.0
 40
0.0
 40
0.0
 40
0.2456922423
 40
1.0
 40
1.0
 40
1.0
 40
1.0
 10
51.8660634222
 20
135.368217856
 30
0.0
 10
52.7139866641
 20
134.9005949285
 30
0.0
 10
56.1852811352
 20
133.0339632947
 30
0.0
 10
59.734020446
 20
131.3120433386
 30
0.0
 10
62.4443515885
 20
130.0905364814
 30
0.0
  0
LINE
  5
3CE
100
AcDbEntity
  8
0
100
AcDbLine
 62
7
  6
CONTINUOUS
 10
61.2126740437
 20
128.0772773549
 11
62.5801845088
 21
128.4157929828
  0
LINE
  5
3CF
100
AcDbEntity
  8
0
100
AcDbLine
 62
7
  6
CONTINUOUS
 10
52.8671656666
 20
131.9954495013
 11
55.0141104495
 21
132.5214293142
  0
SPLINE
  5
3D0
100
AcDbEntity
  8
0
100
AcDbSpline
 62
7
  6
CONTINUOUS
 70
0
 71
3
 72
11
 73
7
 74
0
 42
0.0000001
 43
0.0000001
 44
0.0000000001
 40
0.0
 40
0.0
 40
0.0
 40
0.0
 40
0.2225682513
 40
0.4641034589
 40
0.7239078587
 40
1.0
 40
1.0
 40
1.0
 40
1.0
 10
38.6549227591
 20
139.3849828912
 30
0.0
 10
39.0212704013
 20
138.9960975259
 30
0.0
 10
39.8597047703
 20
138.2537764309
 30
0.0
 10
41.3193408206
 20
137.3019179697
 30
0.0
 10
43.001423456
 20
136.4839502297
 30
0.0
 10
44.2154736507
 20
136.0505955595
 30
0.0
 10
44.849632088
 20
135.8580303633
 30
0.0
  0
SPLINE
  5
3D1
100
AcDbEntity
  8
0
100
AcDbSpline
 62
7
  6
CONTINUOUS
 70
0
 71
3
 72
9
 73
5
 74
0
 42
0.0000001
 43
0.0000001
 44
0.0000000001
 40
0.0
 40
0.0
 40
0.0
 40
0.0
 40
0.4812545141
 40
1.0
 40
1.0
 40
1.0
 40
1.0
 10
48.1368611183
 20
133.4285135689
 30
0.0
 10
48.7342313805
 20
133.0421239745
 30
0.0
 10
50.042025085
 20
132.3400627806
 30
0.0
 10
51.4290753002
 20
131.817320376
 30
0.0
 10
52.1607185096
 20
131.5875844797
 30
0.0
  0
SPLINE
  5
3D2
100
AcDbEntity
  8
0
100
AcDbSpline
 62
7
  6
CONTINUOUS
 70
0
 71
3
 72
9
 73
5
 74
0
 42
0.0000001
 43
0.0000001
 44
0.0000000001
 40
0.0
 40
0.0
 40
0.0
 40
0.0
 40
0.4814105273
 40
1.0
 40
1.0
 40
1.0
 40
1.0
 10
55.699158561
 20
129.0581570778
 30
0.0
 10
56.3013285515
 20
128.6738584294
 30
0.0
 10
57.6178962542
 20
127.9765329768
 30
0.0
 10
59.0126946063
 20
127.4586812755
 30
0.0
 10
59.7479510248
 20
127.2316241735
 30
0.0
  0
SPLINE
  5
3D3
100
AcDbEntity
  8
0
100
AcDbSpline
 62
7
  6
CONTINUOUS
 70
0
 71
3
 72
11
 73
7
 74
0
 42
0.0000001
 43
0.0000001
 44
0.0000000001
 40
0.0
 40
0.0
 40
0.0
 40
0.0
 40
0.2224192154
 40
0.4638630738
 40
0.7237015854
 40
1.0
 40
1.0
 40
1.0
 40
1.0
 10
70.4253078745
 20
121.0671887803
 30
0.0
 10
70.7869539877
 20
120.676846883
 30
0.0
 10
71.6165951116
 20
119.9310304832
 30
0.0
 10
73.0648787444
 20
118.9732838051
 30
0.0
 10
74.737152051
 20
118.1485881625
 30
0.0
 10
75.9455678969
 20
117.7105391455
 30
0.0
 10
76.5771624833
 20
117.5154942159
 30
0.0
  0
SPLINE
  5
3D4
100
AcDbEntity
  8
0
100
AcDbSpline
 62
7
  6
CONTINUOUS
 70
0
 71
3
 72
9
 73
5
 74
0
 42
0.0000001
 43
0.0000001
 44
0.0000000001
 40
0.0
 40
0.0
 40
0.0
 40
0.0
 40
0.4814105273
 40
1.0
 40
1.0
 40
1.0
 40
1.0
 10
80.0237331063
 20
115.0146751222
 30
0.0
 10
80.6259030968
 20
114.6303764738
 30
0.0
 10
81.9424707995
 20
113.9330510212
 30
0.0
 10
83.3372691516
 20
113.4151993198
 30
0.0
 10
84.0725255701
 20
113.1881422179
 30
0.0
  0
SPLINE
  5
3D5
100
AcDbEntity
  8
0
100
AcDbSpline
 62
7
  6
CONTINUOUS
 70
0
 71
3
 72
9
 73
5
 74
0
 42
0.0000001
 43
0.0000001
 44
0.0000000001
 40
0.0
 40
0.0
 40
0.0
 40
0.0
 40
0.4814105273
 40
1.0
 40
1.0
 40
1.0
 40
1.0
 10
87.519096193
 20
110.6873231242
 30
0.0
 10
88.1212661836
 20
110.3030244758
 30
0.0
 10
89.4378338862
 20
109.6056990232
 30
0.0
 10
90.8326322383
 20
109.0878473218
 30
0.0
 10
91.5678886568
 20
108.8607902199
 30
0.0
  0
SPLINE
  5
3D6
100
AcDbEntity
  8
0
100
AcDbSpline
 62
7
  6
CONTINUOUS
 70
0
 71
3
 72
9
 73
5
 74
0
 42
0.0000001
 43
0.0000001
 44
0.0000000001
 40
0.0
 40
0.0
 40
0.0
 40
0.0
 40
0.2462916882
 40
1.0
 40
1.0
 40
1.0
 40
1.0
 10
67.6557937845
 20
127.5130518633
 30
0.0
 10
68.1588473362
 20
127.1189822264
 30
0.0
 10
70.2160788596
 20
125.5378225559
 30
0.0
 10
72.3305612997
 20
124.0313852101
 30
0.0
 10
73.9511428873
 20
122.9368797454
 30
0.0
  0
SPLINE
  5
3D7
100
AcDbEntity
  8
0
100
AcDbSpline
 62
7
  6
CONTINUOUS
 70
0
 71
3
 72
9
 73
5
 74
0
 42
0.0000001
 43
0.0000001
 44
0.0000000001
 40
0.0
 40
0.0
 40
0.0
 40
0.0
 40
0.2462118284
 40
1.0
 40
1.0
 40
1.0
 40
1.0
 10
73.9511428873
 20
122.9368797454
 30
0.0
 10
74.5475850537
 20
122.5340557127
 30
0.0
 10
76.9851048908
 20
120.9203185147
 30
0.0
 10
79.481009411
 20
119.39506728
 30
0.0
 10
81.3892923046
 20
118.293344562
 30
0.0
  0
SPLINE
  5
3D8
100
AcDbEntity
  8
0
100
AcDbSpline
 62
7
  6
CONTINUOUS
 70
0
 71
3
 72
9
 73
5
 74
0
 42
0.0000001
 43
0.0000001
 44
0.0000000001
 40
0.0
 40
0.0
 40
0.0
 40
0.0
 40
0.2456815942
 40
1.0
 40
1.0
 40
1.0
 40
1.0
 10
83.5412034321
 20
117.077353981
 30
0.0
 10
84.3887956106
 20
116.6085760635
 30
0.0
 10
87.85898989
 20
114.7372337541
 30
0.0
 10
91.4070001081
 20
113.010885328
 30
0.0
 10
94.1169814433
 20
111.7861834689
 30
0.0
  0
LINE
  5
3D9
100
AcDbEntity
  8
0
100
AcDbLine
 62
7
  6
CONTINUOUS
 10
93.0326116758
 20
109.7064434013
 11
94.4001221408
 21
110.0449590292
  0
LINE
  5
3DA
100
AcDbEntity
  8
0
100
AcDbLine
 62
7
  6
CONTINUOUS
 10
84.7624898871
 20
113.5864909242
 11
86.9047590541
 21
114.1113583022
  0
SPLINE
  5
3DB
100
AcDbEntity
  8
0
100
AcDbSpline
 62
7
  6
CONTINUOUS
 70
0
 71
3
 72
9
 73
5
 74
0
 42
0.0000001
 43
0.0000001
 44
0.0000000001
 40
0.0
 40
0.0
 40
0.0
 40
0.0
 40
0.2564670873
 40
1.0
 40
1.0
 40
1.0
 40
1.0
 10
65.5387112225
 20
128.7353242852
 30
0.0
 10
65.6387103995
 20
128.692774392
 30
0.0
 10
66.0262543898
 20
128.52139902
 30
0.0
 10
66.4040717211
 20
128.327723829
 30
0.0
 10
66.6769271758
 20
128.1701942225
 30
0.0
  0
SPLINE
  5
3DC
100
AcDbEntity
  8
0
100
AcDbSpline
 62
7
  6
CONTINUOUS
 70
0
 71
3
 72
9
 73
5
 74
0
 42
0.0000001
 43
0.0000001
 44
0.0000000001
 40
0.0
 40
0.0
 40
0.0
 40
0.0
 40
0.2575719718
 40
1.0
 40
1.0
 40
1.0
 40
1.0
 10
66.6769271758
 20
128.1701942225
 30
0.0
 10
66.7646308695
 20
128.1195596169
 30
0.0
 10
67.1019234407
 20
127.9175136111
 30
0.0
 10
67.426000906
 20
127.6930612435
 30
0.0
 10
67.6557937845
 20
127.5130518633
 30
0.0
  0
SPLINE
  5
3DD
100
AcDbEntity
  8
0
100
AcDbSpline
 62
7
  6
CONTINUOUS
 70
0
 71
3
 72
17
 73
13
 74
0
 42
0.0000001
 43
0.0000001
 44
0.0000000001
 40
0.0
 40
0.0
 40
0.0
 40
0.0
 40
0.1333741572
 40
0.2803401244
 40
0.4323343743
 40
0.5797599989
 40
0.7137464161
 40
0.8278277613
 40
0.8768175168
 40
0.9208991975
 40
0.9613036367
 40
1.0
 40
1.0
 40
1.0
 40
1.0
 10
42.8987329528
 20
142.6516222367
 30
0.0
 10
42.8987329528
 20
142.9271235477
 30
0.0
 10
42.82742154
 20
143.5066882625
 30
0.0
 10
42.5639919184
 20
144.3635585609
 30
0.0
 10
42.160604808
 20
145.1966108935
 30
0.0
 10
41.6522950878
 20
145.938187718
 30
0.0
 10
41.0831895035
 20
146.5294667225
 30
0.0
 10
40.5686870165
 20
146.8784441488
 30
0.0
 10
40.1650910534
 20
147.0269250405
 30
0.0
 10
39.8904184036
 20
147.0697294893
 30
0.0
 10
39.6341287701
 20
147.0465085594
 30
0.0
 10
39.4796316304
 20
146.98541156
 30
0.0
 10
39.4104200192
 20
146.9454250589
 30
0.0
  0
SPLINE
  5
3DE
100
AcDbEntity
  8
0
100
AcDbSpline
 62
7
  6
CONTINUOUS
 70
0
 71
3
 72
17
 73
13
 74
0
 42
0.0000001
 43
0.0000001
 44
0.0000000001
 40
0.0
 40
0.0
 40
0.0
 40
0.0
 40
0.1247694916
 40
0.2616951554
 40
0.4049371376
 40
0.5472021404
 40
0.6813619162
 40
0.8018601431
 40
0.8562976379
 40
0.9069590848
 40
0.9544905464
 40
1.0
 40
1.0
 40
1.0
 40
1.0
 10
63.1518423839
 20
131.4830180029
 30
0.0
 10
63.1518423839
 20
131.7555947711
 30
0.0
 10
63.0657603175
 20
132.3282814051
 30
0.0
 10
62.7420160362
 20
133.1574360673
 30
0.0
 10
62.2469029189
 20
133.9425702671
 30
0.0
 10
61.622579805
 20
134.6211282312
 30
0.0
 10
60.921430895
 20
135.1404377127
 30
0.0
 10
60.2957925736
 20
135.4162837855
 30
0.0
 10
59.8099099537
 20
135.5097716575
 30
0.0
 10
59.4745848779
 20
135.5161654829
 30
0.0
 10
59.1635159787
 20
135.4597105578
 30
0.0
 10
58.9745721592
 20
135.3790931641
 30
0.0
 10
58.8884841223
 20
135.3293582279
 30
0.0
  0
SPLINE
  5
3DF
100
AcDbEntity
  8
0
100
AcDbSpline
 62
7
  6
CONTINUOUS
 70
0
 71
3
 72
17
 73
13
 74
0
 42
0.0000001
 43
0.0000001
 44
0.0000000001
 40
0.0
 40
0.0
 40
0.0
 40
0.0
 40
0.1287897844
 40
0.2704400017
 40
0.4178679473
 40
0.562680378
 40
0.6968329292
 40
0.8142622449
 40
0.8660803448
 40
0.9135911203
 40
0.9577284644
 40
1.0
 40
1.0
 40
1.0
 40
1.0
 10
52.5296681536
 20
136.7811757676
 30
0.0
 10
52.5296681536
 20
137.0543619553
 30
0.0
 10
52.4514536843
 20
137.6287169667
 30
0.0
 10
52.1594386371
 20
138.4702102542
 30
0.0
 10
51.7115962224
 20
139.2792894491
 30
0.0
 10
51.1457725618
 20
139.9907104699
 30
0.0
 10
50.5100376031
 20
140.5480765714
 30
0.0
 10
49.9382971457
 20
140.861526951
 30
0.0
 10
49.4925618855
 20
140.9825140322
 30
0.0
 10
49.1871101972
 20
141.0070588196
 30
0.0
 10
48.9033306462
 20
140.967055447
 30
0.0
 10
48.7316650374
 20
140.8962203242
 30
0.0
 10
48.6540261118
 20
140.8513639079
 30
0.0
  0
SPLINE
  5
3E0
100
AcDbEntity
  8
0
100
AcDbSpline
 62
7
  6
CONTINUOUS
 70
0
 71
3
 72
17
 73
13
 74
0
 42
0.0000001
 43
0.0000001
 44
0.0000000001
 40
0.0
 40
0.0
 40
0.0
 40
0.0
 40
0.1247694916
 40
0.2616951554
 40
0.4049371376
 40
0.5472021404
 40
0.6813619162
 40
0.8018601431
 40
0.8562976379
 40
0.9069590848
 40
0.9544905464
 40
1.0
 40
1.0
 40
1.0
 40
1.0
 10
94.8303580705
 20
113.1938322004
 30
0.0
 10
94.8303580705
 20
113.4664089686
 30
0.0
 10
94.7442760041
 20
114.0390956026
 30
0.0
 10
94.4205317228
 20
114.8682502648
 30
0.0
 10
93.9254186055
 20
115.6533844646
 30
0.0
 10
93.3010954916
 20
116.3319424287
 30
0.0
 10
92.5999465816
 20
116.8512519102
 30
0.0
 10
91.9743082602
 20
117.127097983
 30
0.0
 10
91.4884256403
 20
117.220585855
 30
0.0
 10
91.1531005645
 20
117.2269796804
 30
0.0
 10
90.8420316652
 20
117.1705247553
 30
0.0
 10
90.6530878458
 20
117.0899073616
 30
0.0
 10
90.5669998089
 20
117.0401724254
 30
0.0
  0
SPLINE
  5
3E1
100
AcDbEntity
  8
0
100
AcDbSpline
 62
7
  6
CONTINUOUS
 70
0
 71
3
 72
17
 73
13
 74
0
 42
0.0000001
 43
0.0000001
 44
0.0000000001
 40
0.0
 40
0.0
 40
0.0
 40
0.0
 40
0.1333741572
 40
0.2803401244
 40
0.4323343743
 40
0.5797599989
 40
0.7137464161
 40
0.8278277613
 40
0.8768175168
 40
0.9208991975
 40
0.9613036367
 40
1.0
 40
1.0
 40
1.0
 40
1.0
 10
74.5772486394
 20
124.3624364342
 30
0.0
 10
74.5772486394
 20
124.6379377452
 30
0.0
 10
74.5059372266
 20
125.21750246
 30
0.0
 10
74.242507605
 20
126.0743727584
 30
0.0
 10
73.8391204946
 20
126.907425091
 30
0.0
 10
73.3308107743
 20
127.6490019155
 30
0.0
 10
72.7617051901
 20
128.24028092
 30
0.0
 10
72.2472027031
 20
128.5892583463
 30
0.0
 10
71.84360674
 20
128.737739238
 30
0.0
 10
71.5689340902
 20
128.7805436868
 30
0.0
 10
71.3126444567
 20
128.7573227569
 30
0.0
 10
71.158147317
 20
128.6962257575
 30
0.0
 10
71.0889357057
 20
128.6562392563
 30
0.0
  0
SPLINE
  5
3E2
100
AcDbEntity
  8
0
100
AcDbSpline
 62
7
  6
CONTINUOUS
 70
0
 71
3
 72
17
 73
13
 74
0
 42
0.0000001
 43
0.0000001
 44
0.0000000001
 40
0.0
 40
0.0
 40
0.0
 40
0.0
 40
0.1287897844
 40
0.2704400017
 40
0.4178679473
 40
0.562680378
 40
0.6968329292
 40
0.8142622449
 40
0.8660803448
 40
0.9135911203
 40
0.9577284644
 40
1.0
 40
1.0
 40
1.0
 40
1.0
 10
84.2081838401
 20
118.4919899651
 30
0.0
 10
84.2081838401
 20
118.7651761528
 30
0.0
 10
84.1299693709
 20
119.3395311642
 30
0.0
 10
83.8379543237
 20
120.1810244517
 30
0.0
 10
83.390111909
 20
120.9901036466
 30
0.0
 10
82.8242882483
 20
121.7015246674
 30
0.0
 10
82.1885532897
 20
122.2588907689
 30
0.0
 10
81.6168128322
 20
122.5723411485
 30
0.0
 10
81.1710775721
 20
122.6933282297
 30
0.0
 10
80.8656258838
 20
122.7178730171
 30
0.0
 10
80.5818463328
 20
122.6778696445
 30
0.0
 10
80.4101807239
 20
122.6070345217
 30
0.0
 10
80.3325417984
 20
122.5621781054
 30
0.0
  0
SPLINE
  5
3E3
100
AcDbEntity
  8
0
100
AcDbSpline
 62
7
  6
CONTINUOUS
 70
0
 71
3
 72
11
 73
7
 74
0
 42
0.0000001
 43
0.0000001
 44
0.0000000001
 40
0.0
 40
0.0
 40
0.0
 40
0.0
 40
0.2303654216
 40
0.4679126371
 40
0.7227191149
 40
1.0
 40
1.0
 40
1.0
 40
1.0
 10
53.6159670393
 20
114.2641624206
 30
0.0
 10
53.7355565194
 20
114.3332854188
 30
0.0
 10
53.9589748351
 20
114.5113005953
 30
0.0
 10
54.2042248391
 20
114.8757653293
 30
0.0
 10
54.3511991251
 20
115.3181586603
 30
0.0
 10
54.3811213006
 20
115.6385061917
 30
0.0
 10
54.3811213006
 20
115.8047661416
 30
0.0
  0
SPLINE
  5
3E4
100
AcDbEntity
  8
0
100
AcDbSpline
 62
7
  6
CONTINUOUS
 70
0
 71
3
 72
11
 73
7
 74
0
 42
0.0000001
 43
0.0000001
 44
0.0000000001
 40
0.0
 40
0.0
 40
0.0
 40
0.0
 40
0.223392403
 40
0.4585836851
 40
0.7160088365
 40
1.0
 40
1.0
 40
1.0
 40
1.0
 10
45.4118419216
 20
118.1823786696
 30
0.0
 10
45.5244174611
 20
118.2474185707
 30
0.0
 10
45.735279715
 20
118.4197800378
 30
0.0
 10
45.9625543921
 20
118.7759664935
 30
0.0
 10
46.0980676816
 20
119.2115847198
 30
0.0
 10
46.1253891656
 20
119.5278400838
 30
0.0
 10
46.1253891656
 20
119.6931214851
 30
0.0
  0
SPLINE
  5
3E5
100
AcDbEntity
  8
0
100
AcDbSpline
 62
7
  6
CONTINUOUS
 70
0
 71
3
 72
11
 73
7
 74
0
 42
0.0000001
 43
0.0000001
 44
0.0000000001
 40
0.0
 40
0.0
 40
0.0
 40
0.0
 40
0.2157431457
 40
0.4484276413
 40
0.7087263334
 40
1.0
 40
1.0
 40
1.0
 40
1.0
 10
37.7775703051
 20
122.4295334184
 30
0.0
 10
37.8830663893
 20
122.4904854533
 30
0.0
 10
38.0811839673
 20
122.6573645047
 30
0.0
 10
38.2907433017
 20
123.0049016351
 30
0.0
 10
38.415308713
 20
123.4338612728
 30
0.0
 10
38.440176644
 20
123.7463712614
 30
0.0
 10
38.440176644
 20
123.9108645149
 30
0.0
  0
SPLINE
  5
3E6
100
AcDbEntity
  8
0
100
AcDbSpline
 62
7
  6
CONTINUOUS
 70
0
 71
3
 72
11
 73
7
 74
0
 42
0.0000001
 43
0.0000001
 44
0.0000000001
 40
0.0
 40
0.0
 40
0.0
 40
0.0
 40
0.2232547464
 40
0.45840018
 40
0.7158769245
 40
1.0
 40
1.0
 40
1.0
 40
1.0
 10
77.0824852599
 20
99.8886478843
 30
0.0
 10
77.194928008
 20
99.9536111027
 30
0.0
 10
77.4055513597
 20
100.1258685919
 30
0.0
 10
77.6324911073
 20
100.4818948671
 30
0.0
 10
77.7677939013
 20
100.9173868162
 30
0.0
 10
77.7950677488
 20
101.233568627
 30
0.0
 10
77.7950677488
 20
101.398833609
 30
0.0
  0
SPLINE
  5
3E7
100
AcDbEntity
  8
0
100
AcDbSpline
 62
7
  6
CONTINUOUS
 70
0
 71
3
 72
11
 73
7
 74
0
 42
0.0000001
 43
0.0000001
 44
0.0000000001
 40
0.0
 40
0.0
 40
0.0
 40
0.0
 40
0.2302395907
 40
0.4677430319
 40
0.7225963125
 40
1.0
 40
1.0
 40
1.0
 40
1.0
 10
85.275776163
 20
95.9641767581
 30
0.0
 10
85.3952330025
 20
96.0332231529
 30
0.0
 10
85.6184123128
 20
96.2111319692
 30
0.0
 10
85.8633213747
 20
96.5754403423
 30
0.0
 10
86.0100734267
 20
97.0177042756
 30
0.0
 10
86.0399442141
 20
97.3379708399
 30
0.0
 10
86.0399442141
 20
97.5042107791
 30
0.0
  0
SPLINE
  5
3E8
100
AcDbEntity
  8
0
100
AcDbSpline
 62
7
  6
CONTINUOUS
 70
0
 71
3
 72
11
 73
7
 74
0
 42
0.0000001
 43
0.0000001
 44
0.0000000001
 40
0.0
 40
0.0
 40
0.0
 40
0.0
 40
0.2155914442
 40
0.4482269392
 40
0.7085827214
 40
1.0
 40
1.0
 40
1.0
 40
1.0
 10
69.4589111406
 20
104.1419786548
 30
0.0
 10
69.5642725334
 20
104.2028529209
 30
0.0
 10
69.7621473101
 20
104.3696288692
 30
0.0
 10
69.9713721714
 20
104.7169991376
 30
0.0
 10
70.0957344336
 20
105.1458334495
 30
0.0
 10
70.1205572717
 20
105.4582755027
 30
0.0
 10
70.1205572717
 20
105.6227554302
 30
0.0
  0
SPLINE
  5
3E9
100
AcDbEntity
  8
0
100
AcDbSpline
 62
7
  6
CONTINUOUS
 70
0
 71
3
 72
11
 73
7
 74
0
 42
0.0000001
 43
0.0000001
 44
0.0000000001
 40
0.0
 40
0.0
 40
0.0
 40
0.0
 40
0.2302395907
 40
0.4677430319
 40
0.7225963125
 40
1.0
 40
1.0
 40
1.0
 40
1.0
 10
85.275776163
 20
64.4471834569
 30
0.0
 10
85.3952330025
 20
64.5162298517
 30
0.0
 10
85.6184123128
 20
64.694138668
 30
0.0
 10
85.8633213747
 20
65.0584470411
 30
0.0
 10
86.0100734267
 20
65.5007109744
 30
0.0
 10
86.0399442141
 20
65.8209775387
 30
0.0
 10
86.0399442141
 20
65.9872174779
 30
0.0
  0
SPLINE
  5
3EA
100
AcDbEntity
  8
0
100
AcDbSpline
 62
7
  6
CONTINUOUS
 70
0
 71
3
 72
11
 73
7
 74
0
 42
0.0000001
 43
0.0000001
 44
0.0000000001
 40
0.0
 40
0.0
 40
0.0
 40
0.0
 40
0.2177444746
 40
0.4508841619
 40
0.7104607662
 40
1.0
 40
1.0
 40
1.0
 40
1.0
 10
59.6255840773
 20
150.6467023959
 30
0.0
 10
59.62558407
 20
150.5705395918
 30
0.0
 10
59.6535564319
 20
150.4117464236
 30
0.0
 10
59.7740253052
 20
150.1904697802
 30
0.0
 10
59.9644134605
 20
149.9905967718
 30
0.0
 10
60.1235735544
 20
149.8808508403
 30
0.0
 10
60.2112809653
 20
149.8302140886
 30
0.0
  0
SPLINE
  5
3EB
100
AcDbEntity
  8
0
100
AcDbSpline
 62
7
  6
CONTINUOUS
 70
0
 71
3
 72
11
 73
7
 74
0
 42
0.0000001
 43
0.0000001
 44
0.0000000001
 40
0.0
 40
0.0
 40
0.0
 40
0.0
 40
0.2194422373
 40
0.4545977622
 40
0.7138539132
 40
1.0
 40
1.0
 40
1.0
 40
1.0
 10
51.931254011
 20
135.3581879864
 30
0.0
 10
52.0275189351
 20
135.4249001217
 30
0.0
 10
52.2058282757
 20
135.5960027981
 30
0.0
 10
52.394259411
 20
135.9321615257
 30
0.0
 10
52.5069027771
 20
136.3364888594
 30
0.0
 10
52.5296681536
 20
136.6284528555
 30
0.0
 10
52.5296681536
 20
136.7811757676
 30
0.0
  0
SPLINE
  5
3EC
100
AcDbEntity
  8
0
100
AcDbSpline
 62
7
  6
CONTINUOUS
 70
0
 71
3
 72
11
 73
7
 74
0
 42
0.0000001
 43
0.0000001
 44
0.0000000001
 40
0.0
 40
0.0
 40
0.0
 40
0.0
 40
0.2177444746
 40
0.4508841619
 40
0.7104607662
 40
1.0
 40
1.0
 40
1.0
 40
1.0
 10
69.5251202294
 20
144.9313318326
 30
0.0
 10
69.525120222
 20
144.8551690285
 30
0.0
 10
69.553092584
 20
144.6963758603
 30
0.0
 10
69.6735614573
 20
144.4750992169
 30
0.0
 10
69.8639496126
 20
144.2752262085
 30
0.0
 10
70.0231097064
 20
144.1654802771
 30
0.0
 10
70.1108171173
 20
144.1148435253
 30
0.0
  0
SPLINE
  5
3ED
100
AcDbEntity
  8
0
100
AcDbSpline
 62
7
  6
CONTINUOUS
 70
0
 71
3
 72
11
 73
7
 74
0
 42
0.0000001
 43
0.0000001
 44
0.0000000001
 40
0.0
 40
0.0
 40
0.0
 40
0.0
 40
0.2282029136
 40
0.4667443873
 40
0.7229075732
 40
1.0
 40
1.0
 40
1.0
 40
1.0
 10
62.5469028241
 20
130.0636982178
 30
0.0
 10
62.643732031
 20
130.1369649215
 30
0.0
 10
62.8218407675
 20
130.3152792438
 30
0.0
 10
63.0132293595
 20
130.6534843801
 30
0.0
 10
63.1282198368
 20
131.0509507077
 30
0.0
 10
63.1518423839
 20
131.3355798995
 30
0.0
 10
63.1518423839
 20
131.4830180029
 30
0.0
  0
SPLINE
  5
3EE
100
AcDbEntity
  8
0
100
AcDbSpline
 62
7
  6
CONTINUOUS
 70
0
 71
3
 72
11
 73
7
 74
0
 42
0.0000001
 43
0.0000001
 44
0.0000000001
 40
0.0
 40
0.0
 40
0.0
 40
0.0
 40
0.2177444746
 40
0.4508841619
 40
0.7104607662
 40
1.0
 40
1.0
 40
1.0
 40
1.0
 10
49.7260479253
 20
156.3620729592
 30
0.0
 10
49.7260479179
 20
156.2859101551
 30
0.0
 10
49.7540202799
 20
156.1271169869
 30
0.0
 10
49.8744891532
 20
155.9058403435
 30
0.0
 10
50.0648773085
 20
155.7059673351
 30
0.0
 10
50.2240374023
 20
155.5962214036
 30
0.0
 10
50.3117448132
 20
155.5455846519
 30
0.0
  0
SPLINE
  5
3EF
100
AcDbEntity
  8
0
100
AcDbSpline
 62
7
  6
CONTINUOUS
 70
0
 71
3
 72
18
 73
14
 74
0
 42
0.0000001
 43
0.0000001
 44
0.0000000001
 40
0.0
 40
0.0
 40
0.0
 40
0.0
 40
0.1303680418
 40
0.2738126193
 40
0.4228071311
 40
0.5685169311
 40
0.7025081785
 40
0.7632147802
 40
0.8190510839
 40
0.8698799619
 40
0.9161648427
 40
0.958974648
 40
1.0
 40
1.0
 40
1.0
 40
1.0
 10
38.440176644
 20
123.9108645149
 30
0.0
 10
38.440176644
 20
124.189039697
 30
0.0
 10
38.362907969
 20
124.7738490732
 30
0.0
 10
38.0775647151
 20
125.6339765809
 30
0.0
 10
37.6379179156
 20
126.4638833049
 30
0.0
 10
37.0855156369
 20
127.1977565226
 30
0.0
 10
36.5491064482
 20
127.6955267114
 30
0.0
 10
36.1009377657
 20
127.9889914822
 30
0.0
 10
35.778709246
 20
128.1457323353
 30
0.0
 10
35.4649399903
 20
128.2412232682
 30
0.0
 10
35.1657603343
 20
128.2724269873
 30
0.0
 10
34.8876460945
 20
128.2372374107
 30
0.0
 10
34.7196761552
 20
128.1687303426
 30
0.0
 10
34.6438483311
 20
128.1249908169
 30
0.0
  0
SPLINE
  5
3F0
100
AcDbEntity
  8
0
100
AcDbSpline
 62
7
  6
CONTINUOUS
 70
0
 71
3
 72
18
 73
14
 74
0
 42
0.0000001
 43
0.0000001
 44
0.0000000001
 40
0.0
 40
0.0
 40
0.0
 40
0.0
 40
0.1271291658
 40
0.2667928267
 40
0.4124837358
 40
0.5562320682
 40
0.6902953387
 40
0.751919701
 40
0.8092627144
 40
0.8621496827
 40
0.9109203012
 40
0.9564141214
 40
1.0
 40
1.0
 40
1.0
 40
1.0
 10
46.1253891656
 20
119.6931214851
 30
0.0
 10
46.1253891656
 20
119.9702069669
 30
0.0
 10
46.0424610989
 20
120.5524288273
 30
0.0
 10
45.7341023466
 20
121.4020859394
 30
0.0
 10
45.2593377006
 20
122.2136114163
 30
0.0
 10
44.6625352125
 20
122.9235487876
 30
0.0
 10
44.0849755864
 20
123.3952379023
 30
0.0
 10
43.6037823044
 20
123.6670436898
 30
0.0
 10
43.2558830914
 20
123.8091091651
 30
0.0
 10
42.9172889068
 20
123.8900625735
 30
0.0
 10
42.5949229872
 20
123.9073077297
 30
0.0
 10
42.2958492966
 20
123.8594251905
 30
0.0
 10
42.1146832922
 20
123.7834366369
 30
0.0
 10
42.0323952614
 20
123.7359677364
 30
0.0
  0
SPLINE
  5
3F1
100
AcDbEntity
  8
0
100
AcDbSpline
 62
7
  6
CONTINUOUS
 70
0
 71
3
 72
17
 73
13
 74
0
 42
0.0000001
 43
0.0000001
 44
0.0000000001
 40
0.0
 40
0.0
 40
0.0
 40
0.0
 40
0.1242423882
 40
0.2605003851
 40
0.403159396
 40
0.5450524827
 40
0.6791479117
 40
0.741636249
 40
0.8004116206
 40
0.9059832142
 40
0.9540030217
 40
1.0
 40
1.0
 40
1.0
 40
1.0
 10
54.3811213006
 20
115.8047661416
 30
0.0
 10
54.3811213006
 20
116.0817429034
 30
0.0
 10
54.2918675637
 20
116.6634305889
 30
0.0
 10
53.9581792945
 20
117.5041764156
 30
0.0
 10
53.4462599422
 20
118.2970588527
 30
0.0
 10
52.8039932207
 20
118.9811601441
 30
0.0
 10
52.1861308029
 20
119.4247870691
 30
0.0
 10
51.6726614242
 20
119.6739504011
 30
0.0
 10
51.1934741428
 20
119.8370906511
 30
0.0
 10
50.7119036984
 20
119.8926374787
 30
0.0
 10
50.2718982421
 20
119.8094124534
 30
0.0
 10
50.0773331934
 20
119.7258742294
 30
0.0
 10
49.9885109521
 20
119.6746343759
 30
0.0
  0
SPLINE
  5
3F2
100
AcDbEntity
  8
0
100
AcDbSpline
 62
7
  6
CONTINUOUS
 70
0
 71
3
 72
18
 73
14
 74
0
 42
0.0000001
 43
0.0000001
 44
0.0000000001
 40
0.0
 40
0.0
 40
0.0
 40
0.0
 40
0.1304323385
 40
0.2739516064
 40
0.4230105846
 40
0.5687577767
 40
0.7027467156
 40
0.7634352922
 40
0.8192423103
 40
0.8700311906
 40
0.916267604
 40
0.9590248689
 40
1.0
 40
1.0
 40
1.0
 40
1.0
 10
70.1205572717
 20
105.6227554302
 30
0.0
 10
70.1205572717
 20
105.900960752
 30
0.0
 10
70.0433904826
 20
106.4858388812
 30
0.0
 10
69.7584645406
 20
107.3461814517
 30
0.0
 10
69.3194662067
 20
108.1764363287
 30
0.0
 10
68.7678965626
 20
108.9107466534
 30
0.0
 10
68.23227341
 20
109.4089919453
 30
0.0
 10
67.7847407263
 20
109.7028566875
 30
0.0
 10
67.4630052594
 20
109.8598689242
 30
0.0
 10
67.149712338
 20
109.9556315126
 30
0.0
 10
66.8509757503
 20
109.9870990808
 30
0.0
 10
66.5732585638
 20
109.9521512119
 30
0.0
 10
66.405537166
 20
109.8837854123
 30
0.0
 10
66.3298312692
 20
109.8401162839
 30
0.0
  0
SPLINE
  5
3F3
100
AcDbEntity
  8
0
100
AcDbSpline
 62
7
  6
CONTINUOUS
 70
0
 71
3
 72
17
 73
13
 74
0
 42
0.0000001
 43
0.0000001
 44
0.0000000001
 40
0.0
 40
0.0
 40
0.0
 40
0.0
 40
0.1242952795
 40
0.2606158818
 40
0.4033313125
 40
0.5452599869
 40
0.6793566656
 40
0.7418299417
 40
0.8005797003
 40
0.9060729074
 40
0.9540468762
 40
1.0
 40
1.0
 40
1.0
 40
1.0
 10
86.0399442141
 20
97.5042107791
 30
0.0
 10
86.0399442141
 20
97.7811804942
 30
0.0
 10
85.9508176267
 20
98.3628591022
 30
0.0
 10
85.6176339978
 20
99.2037610497
 30
0.0
 10
85.1064404881
 20
99.9970015177
 30
0.0
 10
84.4650439151
 20
100.6816119914
 30
0.0
 10
83.847942063
 20
101.1257878949
 30
0.0
 10
83.3350677653
 20
101.3753900289
 30
0.0
 10
82.8565284962
 20
101.5388942938
 30
0.0
 10
82.3755415387
 20
101.5948410229
 30
0.0
 10
81.9360537522
 20
101.5119392998
 30
0.0
 10
81.7417440193
 20
101.4285449316
 30
0.0
 10
81.6530464724
 20
101.3773770295
 30
0.0
  0
SPLINE
  5
3F4
100
AcDbEntity
  8
0
100
AcDbSpline
 62
7
  6
CONTINUOUS
 70
0
 71
3
 72
18
 73
14
 74
0
 42
0.0000001
 43
0.0000001
 44
0.0000000001
 40
0.0
 40
0.0
 40
0.0
 40
0.0
 40
0.1271873401
 40
0.2669192348
 40
0.412670443
 40
0.5564553576
 40
0.6905181506
 40
0.7521259018
 40
0.809441353
 40
0.8622906373
 40
0.9110158382
 40
0.9564607459
 40
1.0
 40
1.0
 40
1.0
 40
1.0
 10
77.7950677488
 20
101.398833609
 30
0.0
 10
77.7950677488
 20
101.6759305395
 30
0.0
 10
77.7122518619
 20
102.2581822047
 30
0.0
 10
77.4043460854
 20
103.1080212232
 30
0.0
 10
76.9302602806
 20
103.9198939924
 30
0.0
 10
76.3343026573
 20
104.6302987153
 30
0.0
 10
75.7575116621
 20
105.102497152
 30
0.0
 10
75.2769303862
 20
105.3747204721
 30
0.0
 10
74.9295080366
 20
105.5170684567
 30
0.0
 10
74.5913756309
 20
105.5982990948
 30
0.0
 10
74.2694429388
 20
105.6158077772
 30
0.0
 10
73.9707641916
 20
105.5681633742
 30
0.0
 10
73.7898481763
 20
105.4923162456
 30
0.0
 10
73.7076823552
 20
105.4449178844
 30
0.0
  0
SPLINE
  5
3F5
100
AcDbEntity
  8
0
100
AcDbSpline
 62
7
  6
CONTINUOUS
 70
0
 71
3
 72
11
 73
7
 74
0
 42
0.0000001
 43
0.0000001
 44
0.0000000001
 40
0.0
 40
0.0
 40
0.0
 40
0.0
 40
0.2087384849
 40
0.4395788034
 40
0.7026100473
 40
1.0
 40
1.0
 40
1.0
 40
1.0
 10
42.3076095457
 20
141.2287560206
 30
0.0
 10
42.4028880712
 20
141.2868413795
 30
0.0
 10
42.5814722491
 20
141.4481479702
 30
0.0
 10
42.7666696772
 20
141.7805469381
 30
0.0
 10
42.8768689544
 20
142.1922009794
 30
0.0
 10
42.8987329528
 20
142.4926425313
 30
0.0
 10
42.8987329528
 20
142.6516222367
 30
0.0
  0
SPLINE
  5
3F6
100
AcDbEntity
  8
0
100
AcDbSpline
 62
7
  6
CONTINUOUS
 70
0
 71
3
 72
11
 73
7
 74
0
 42
0.0000001
 43
0.0000001
 44
0.0000000001
 40
0.0
 40
0.0
 40
0.0
 40
0.0
 40
0.2277172855
 40
0.4744022871
 40
0.7342754716
 40
1.0
 40
1.0
 40
1.0
 40
1.0
 10
86.0399442141
 20
65.9872174779
 30
0.0
 10
86.0399442141
 20
66.2014679778
 30
0.0
 10
85.9865397268
 20
66.648440531
 30
0.0
 10
85.7788493169
 20
67.3106311588
 30
0.0
 10
85.4500763322
 20
67.9618272643
 30
0.0
 10
85.1637403404
 20
68.3674728517
 30
0.0
 10
85.0052447775
 20
68.5608227638
 30
0.0
  0
SPLINE
  5
3F7
100
AcDbEntity
  8
0
100
AcDbSpline
 62
7
  6
CONTINUOUS
 70
0
 71
3
 72
11
 73
7
 74
0
 42
0.0000001
 43
0.0000001
 44
0.0000000001
 40
0.0
 40
0.0
 40
0.0
 40
0.0
 40
0.2353987955
 40
0.4807386069
 40
0.7357562239
 40
1.0
 40
1.0
 40
1.0
 40
1.0
 10
25.2812858828
 20
92.2673374312
 30
0.0
 10
27.443195329
 20
90.5454305581
 30
0.0
 10
32.0016025491
 20
87.2058382032
 30
0.0
 10
39.3271565579
 20
82.6150827645
 30
0.0
 10
47.2409907962
 20
78.364013196
 30
0.0
 10
52.7844215683
 20
75.8160472191
 30
0.0
 10
55.6392450781
 20
74.6013180814
 30
0.0
  0
SPLINE
  5
3F8
100
AcDbEntity
  8
0
100
AcDbSpline
 62
7
  6
CONTINUOUS
 70
0
 71
3
 72
9
 73
5
 74
0
 42
0.0000001
 43
0.0000001
 44
0.0000000001
 40
0.0
 40
0.0
 40
0.0
 40
0.0
 40
0.2641137895
 40
1.0
 40
1.0
 40
1.0
 40
1.0
 10
55.6392450781
 20
74.6013180814
 30
0.0
 10
55.8375846063
 20
74.5169244916
 30
0.0
 10
56.5791978432
 20
74.1766351679
 30
0.0
 10
57.2835599946
 20
73.749394963
 30
0.0
 10
57.7563400635
 20
73.3790403733
 30
0.0
  0
SPLINE
  5
3F9
100
AcDbEntity
  8
0
100
AcDbSpline
 62
7
  6
CONTINUOUS
 70
0
 71
3
 72
11
 73
7
 74
0
 42
0.0000001
 43
0.0000001
 44
0.0000000001
 40
0.0
 40
0.0
 40
0.0
 40
0.0
 40
0.2353852636
 40
0.4807390254
 40
0.7357706567
 40
1.0
 40
1.0
 40
1.0
 40
1.0
 10
57.7563400635
 20
73.3790403733
 30
0.0
 10
59.9624600056
 20
71.650865478
 30
0.0
 10
64.6120398151
 20
68.3020030466
 30
0.0
 10
72.0778803085
 20
63.7071316759
 30
0.0
 10
80.137411926
 20
59.4615004775
 30
0.0
 10
85.7792769585
 20
56.9234238253
 30
0.0
 10
88.683852455
 20
55.7152554286
 30
0.0
  0
SPLINE
  5
3FA
100
AcDbEntity
  8
0
100
AcDbSpline
 62
7
  6
CONTINUOUS
 70
0
 71
3
 72
17
 73
13
 74
0
 42
0.0000001
 43
0.0000001
 44
0.0000000001
 40
0.0
 40
0.0
 40
0.0
 40
0.0
 40
0.0428571351
 40
0.0874839364
 40
0.1353160071
 40
0.1872791416
 40
0.3045400115
 40
0.4382081091
 40
0.5825513186
 40
0.7297108723
 40
0.8713103985
 40
1.0
 40
1.0
 40
1.0
 40
1.0
 10
91.7232910993
 20
131.9084520238
 30
0.0
 10
91.7232625107
 20
131.8372879303
 30
0.0
 10
91.7423173028
 20
131.6914010815
 30
0.0
 10
91.8259595943
 20
131.4807517486
 30
0.0
 10
91.9617483249
 20
131.2810585061
 30
0.0
 10
92.2173035688
 20
131.0245333731
 30
0.0
 10
92.6528146464
 20
130.7594333502
 30
0.0
 10
93.2789934307
 20
130.5502625055
 30
0.0
 10
93.9817182172
 20
130.4515076424
 30
0.0
 10
94.7040246984
 20
130.4714893763
 30
0.0
 10
95.3869397013
 20
130.608121838
 30
0.0
 10
95.8059606938
 20
130.7810064149
 30
0.0
 10
95.991020693
 20
130.8878502175
 30
0.0
  0
SPLINE
  5
3FB
100
AcDbEntity
  8
0
100
AcDbSpline
 62
7
  6
CONTINUOUS
 70
0
 71
3
 72
11
 73
7
 74
0
 42
0.0000001
 43
0.0000001
 44
0.0000000001
 40
0.0
 40
0.0
 40
0.0
 40
0.0
 40
0.2194432213
 40
0.454603605
 40
0.7138606317
 40
1.0
 40
1.0
 40
1.0
 40
1.0
 10
83.6100569265
 20
117.0692013014
 30
0.0
 10
83.7062806715
 20
117.1359293196
 30
0.0
 10
83.8845052997
 20
117.3070435585
 30
0.0
 10
84.0728409581
 20
117.6431605545
 30
0.0
 10
84.1854289816
 20
118.0474063958
 30
0.0
 10
84.2081838401
 20
118.339303653
 30
0.0
 10
84.2081838401
 20
118.4919899651
 30
0.0
  0
SPLINE
  5
3FC
100
AcDbEntity
  8
0
100
AcDbSpline
 62
7
  6
CONTINUOUS
 70
0
 71
3
 72
17
 73
13
 74
0
 42
0.0000001
 43
0.0000001
 44
0.0000000001
 40
0.0
 40
0.0
 40
0.0
 40
0.0
 40
0.0428571351
 40
0.0874839364
 40
0.1353160071
 40
0.1872791416
 40
0.3045400115
 40
0.4382081091
 40
0.5825513186
 40
0.7297108723
 40
0.8713103985
 40
1.0
 40
1.0
 40
1.0
 40
1.0
 10
81.8237549473
 20
137.623822587
 30
0.0
 10
81.8237263586
 20
137.5526584935
 30
0.0
 10
81.8427811507
 20
137.4067716447
 30
0.0
 10
81.9264234423
 20
137.1961223119
 30
0.0
 10
82.0622121728
 20
136.9964290694
 30
0.0
 10
82.3177674167
 20
136.7399039364
 30
0.0
 10
82.7532784943
 20
136.4748039134
 30
0.0
 10
83.3794572786
 20
136.2656330688
 30
0.0
 10
84.0821820651
 20
136.1668782057
 30
0.0
 10
84.8044885463
 20
136.1868599396
 30
0.0
 10
85.4874035492
 20
136.3234924013
 30
0.0
 10
85.9064245417
 20
136.4963769782
 30
0.0
 10
86.091484541
 20
136.6032207808
 30
0.0
  0
SPLINE
  5
3FD
100
AcDbEntity
  8
0
100
AcDbSpline
 62
7
  6
CONTINUOUS
 70
0
 71
3
 72
11
 73
7
 74
0
 42
0.0000001
 43
0.0000001
 44
0.0000000001
 40
0.0
 40
0.0
 40
0.0
 40
0.0
 40
0.2088046548
 40
0.4398056868
 40
0.7028454556
 40
1.0
 40
1.0
 40
1.0
 40
1.0
 10
73.992653792
 20
122.9435880694
 30
0.0
 10
74.0870223306
 20
123.0022138252
 30
0.0
 10
74.2636337368
 20
123.1640441619
 30
0.0
 10
74.4466496164
 20
123.4956302507
 30
0.0
 10
74.5556134046
 20
123.9054420891
 30
0.0
 10
74.5772486394
 20
124.2043327411
 30
0.0
 10
74.5772486394
 20
124.3624364342
 30
0.0
  0
SPLINE
  5
3FE
100
AcDbEntity
  8
0
100
AcDbSpline
 62
7
  6
CONTINUOUS
 70
0
 71
3
 72
17
 73
13
 74
0
 42
0.0000001
 43
0.0000001
 44
0.0000000001
 40
0.0
 40
0.0
 40
0.0
 40
0.0
 40
0.0428571351
 40
0.0874839364
 40
0.1353160071
 40
0.1872791416
 40
0.3045400115
 40
0.4382081091
 40
0.5825513186
 40
0.7297108723
 40
0.8713103985
 40
1.0
 40
1.0
 40
1.0
 40
1.0
 10
101.6228272514
 20
126.1930814605
 30
0.0
 10
101.6227986627
 20
126.121917367
 30
0.0
 10
101.6418534549
 20
125.9760305182
 30
0.0
 10
101.7254957464
 20
125.7653811853
 30
0.0
 10
101.861284477
 20
125.5656879428
 30
0.0
 10
102.1168397209
 20
125.3091628099
 30
0.0
 10
102.5523507984
 20
125.0440627869
 30
0.0
 10
103.1785295828
 20
124.8348919422
 30
0.0
 10
103.8812543693
 20
124.7361370792
 30
0.0
 10
104.6035608504
 20
124.756118813
 30
0.0
 10
105.2864758534
 20
124.8927512748
 30
0.0
 10
105.7054968459
 20
125.0656358516
 30
0.0
 10
105.8905568451
 20
125.1724796542
 30
0.0
  0
SPLINE
  5
3FF
100
AcDbEntity
  8
0
100
AcDbSpline
 62
7
  6
CONTINUOUS
 70
0
 71
3
 72
11
 73
7
 74
0
 42
0.0000001
 43
0.0000001
 44
0.0000000001
 40
0.0
 40
0.0
 40
0.0
 40
0.0
 40
0.2282424993
 40
0.466593438
 40
0.7226777928
 40
1.0
 40
1.0
 40
1.0
 40
1.0
 10
94.2086645329
 20
111.7620408538
 30
0.0
 10
94.3079200529
 20
111.8347228947
 30
0.0
 10
94.4908689198
 20
112.0128442439
 30
0.0
 10
94.6878144721
 20
112.353723295
 30
0.0
 10
94.8060955736
 20
112.7559218407
 30
0.0
 10
94.8303580705
 20
113.0443567611
 30
0.0
 10
94.8303580705
 20
113.1938322004
 30
0.0
  0
SPLINE
  5
400
100
AcDbEntity
  8
0
100
AcDbSpline
 62
7
  6
CONTINUOUS
 70
0
 71
3
 72
11
 73
7
 74
0
 42
0.0000001
 43
0.0000001
 44
0.0000000001
 40
0.0
 40
0.0
 40
0.0
 40
0.0
 40
0.2044556729
 40
0.4328214442
 40
0.6981049315
 40
1.0
 40
1.0
 40
1.0
 40
1.0
 10
119.8549251187
 20
66.2226996084
 30
0.0
 10
119.8018320358
 20
66.2534128712
 30
0.0
 10
119.6723676582
 20
66.2912405693
 30
0.0
 10
119.4605432427
 20
66.2642756328
 30
0.0
 10
119.2404804633
 20
66.1657641819
 30
0.0
 10
119.1031131583
 20
66.0632246858
 30
0.0
 10
119.0353496272
 20
66.0031352798
 30
0.0
  0
SPLINE
  5
401
100
AcDbEntity
  8
0
100
AcDbSpline
 62
7
  6
CONTINUOUS
 70
0
 71
3
 72
8
 73
4
 74
0
 42
0.0000001
 43
0.0000001
 44
0.0000000001
 40
0.0
 40
0.0
 40
0.0
 40
0.0
 40
1.0
 40
1.0
 40
1.0
 40
1.0
 10
94.8599707929
 20
59.2810219044
 30
0.0
 10
96.1009930882
 20
60.4059224182
 30
0.0
 10
97.3420958361
 20
61.5307341857
 30
0.0
 10
98.583306176
 20
62.6554272085
 30
0.0
  0
SPLINE
  5
402
100
AcDbEntity
  8
0
100
AcDbSpline
 62
7
  6
CONTINUOUS
 70
0
 71
3
 72
9
 73
5
 74
0
 42
0.0000001
 43
0.0000001
 44
0.0000000001
 40
0.0
 40
0.0
 40
0.0
 40
0.0
 40
0.4862153503
 40
1.0
 40
1.0
 40
1.0
 40
1.0
 10
85.8319068886
 20
66.5785724094
 30
0.0
 10
85.5592217165
 20
66.7966393694
 30
0.0
 10
85.0602514007
 20
67.3240216109
 30
0.0
 10
84.6855321858
 20
67.9432594021
 30
0.0
 10
84.5289860523
 20
68.2773563182
 30
0.0
  0
SPLINE
  5
403
100
AcDbEntity
  8
0
100
AcDbSpline
 62
7
  6
CONTINUOUS
 70
0
 71
3
 72
11
 73
7
 74
0
 42
0.0000001
 43
0.0000001
 44
0.0000000001
 40
0.0
 40
0.0
 40
0.0
 40
0.0
 40
0.2406602985
 40
0.4958372622
 40
0.7531781579
 40
1.0
 40
1.0
 40
1.0
 40
1.0
 10
54.153391202
 20
116.3847515131
 30
0.0
 10
53.9541235147
 20
116.5441063414
 30
0.0
 10
53.5769586729
 20
116.9152547961
 30
0.0
 10
53.1062382569
 20
117.5641625007
 30
0.0
 10
52.7385568829
 20
118.2838364214
 30
0.0
 10
52.5735516591
 20
118.7955805881
 30
0.0
 10
52.5174350487
 20
119.051175422
 30
0.0
  0
SPLINE
  5
404
100
AcDbEntity
  8
0
100
AcDbSpline
 62
7
  6
CONTINUOUS
 70
0
 71
3
 72
11
 73
7
 74
0
 42
0.0000001
 43
0.0000001
 44
0.0000000001
 40
0.0
 40
0.0
 40
0.0
 40
0.0
 40
0.2404636978
 40
0.4954149793
 40
0.7527470596
 40
1.0
 40
1.0
 40
1.0
 40
1.0
 10
85.8319068886
 20
98.0955657106
 30
0.0
 10
85.6345948733
 20
98.2533565835
 30
0.0
 10
85.2608312283
 20
98.6204463238
 30
0.0
 10
84.7931658044
 20
99.2620246929
 30
0.0
 10
84.4261275631
 20
99.9740207563
 30
0.0
 10
84.2597327954
 20
100.4805960027
 30
0.0
 10
84.2022168651
 20
100.7339280735
 30
0.0
  0
SPLINE
  5
405
100
AcDbEntity
  8
0
100
AcDbSpline
 62
7
  6
CONTINUOUS
 70
0
 71
3
 72
9
 73
5
 74
0
 42
0.0000001
 43
0.0000001
 44
0.0000000001
 40
0.0
 40
0.0
 40
0.0
 40
0.0
 40
0.2616226199
 40
1.0
 40
1.0
 40
1.0
 40
1.0
 10
129.6844525914
 20
157.0445555251
 30
0.0
 10
128.6880081868
 20
157.5405487114
 30
0.0
 10
124.8341170211
 20
159.3419985999
 30
0.0
 10
120.7885740738
 20
160.7508677606
 30
0.0
 10
117.7342982364
 20
161.4855693721
 30
0.0
  0
SPLINE
  5
406
100
AcDbEntity
  8
0
100
AcDbSpline
 62
7
  6
CONTINUOUS
 70
0
 71
3
 72
11
 73
7
 74
0
 42
0.0000001
 43
0.0000001
 44
0.0000000001
 40
0.0
 40
0.0
 40
0.0
 40
0.0
 40
0.2291651269
 40
0.4813794656
 40
0.7433578084
 40
1.0
 40
1.0
 40
1.0
 40
1.0
 10
117.7342982364
 20
163.2134505519
 30
0.0
 10
117.7342982364
 20
163.3856675533
 30
0.0
 10
117.6857596908
 20
163.7478259332
 30
0.0
 10
117.5048784377
 20
164.2792224619
 30
0.0
 10
117.2264965206
 20
164.7902253443
 30
0.0
 10
116.9837921019
 20
165.0982792892
 30
0.0
 10
116.85041108
 20
165.2375874927
 30
0.0
  0
SPLINE
  5
407
100
AcDbEntity
  8
0
100
AcDbSpline
 62
7
  6
CONTINUOUS
 70
0
 71
3
 72
11
 73
7
 74
0
 42
0.0000001
 43
0.0000001
 44
0.0000000001
 40
0.0
 40
0.0
 40
0.0
 40
0.0
 40
0.2735770072
 40
0.5329797964
 40
0.7756039859
 40
1.0
 40
1.0
 40
1.0
 40
1.0
 10
116.85041108
 20
165.2375874927
 30
0.0
 10
116.5345277343
 20
165.5675080527
 30
0.0
 10
115.8888198428
 20
166.1822209642
 30
0.0
 10
114.8618804251
 20
166.9752671035
 30
0.0
 10
113.8195770209
 20
167.6010484629
 30
0.0
 10
113.1001279957
 20
167.9103446712
 30
0.0
 10
112.7448549645
 20
168.029266628
 30
0.0
  0
SPLINE
  5
408
100
AcDbEntity
  8
0
100
AcDbSpline
 62
7
  6
CONTINUOUS
 70
0
 71
3
 72
10
 73
6
 74
0
 42
0.0000001
 43
0.0000001
 44
0.0000000001
 40
0.0
 40
0.0
 40
0.0
 40
0.0
 40
0.5308808627
 40
0.7700091798
 40
1.0
 40
1.0
 40
1.0
 40
1.0
 10
112.7448549645
 20
168.029266628
 30
0.0
 10
112.6225112564
 20
168.0702192247
 30
0.0
 10
112.4325633619
 20
168.1050018865
 30
0.0
 10
112.1905363855
 20
168.0678495468
 30
0.0
 10
112.0840334909
 20
168.0232917252
 30
0.0
 10
112.0356492489
 20
167.9953099288
 30
0.0
  0
SPLINE
  5
409
100
AcDbEntity
  8
0
100
AcDbSpline
 62
7
  6
CONTINUOUS
 70
0
 71
3
 72
9
 73
5
 74
0
 42
0.0000001
 43
0.0000001
 44
0.0000000001
 40
0.0
 40
0.0
 40
0.0
 40
0.0
 40
0.2536232172
 40
1.0
 40
1.0
 40
1.0
 40
1.0
 10
110.7499595394
 20
167.3254689277
 30
0.0
 10
110.3403786124
 20
167.6368910251
 30
0.0
 10
108.7153692424
 20
168.8514335609
 30
0.0
 10
107.0496915032
 20
170.0117403857
 30
0.0
 10
105.7841438815
 20
170.8430930279
 30
0.0
  0
SPLINE
  5
40A
100
AcDbEntity
  8
0
100
AcDbSpline
 62
7
  6
CONTINUOUS
 70
0
 71
3
 72
9
 73
5
 74
0
 42
0.0000001
 43
0.0000001
 44
0.0000000001
 40
0.0
 40
0.0
 40
0.0
 40
0.0
 40
0.2616226199
 40
1.0
 40
1.0
 40
1.0
 40
1.0
 10
98.0059369048
 20
175.3337413276
 30
0.0
 10
97.0094925002
 20
175.8297345139
 30
0.0
 10
93.1556013345
 20
177.6311844024
 30
0.0
 10
89.1100583872
 20
179.0400535631
 30
0.0
 10
86.0557825499
 20
179.7747551746
 30
0.0
  0
SPLINE
  5
40B
100
AcDbEntity
  8
0
100
AcDbSpline
 62
7
  6
CONTINUOUS
 70
0
 71
3
 72
11
 73
7
 74
0
 42
0.0000001
 43
0.0000001
 44
0.0000000001
 40
0.0
 40
0.0
 40
0.0
 40
0.0
 40
0.2756766405
 40
0.5368903986
 40
0.7792300618
 40
1.0
 40
1.0
 40
1.0
 40
1.0
 10
149.412813923
 20
145.9400391137
 30
0.0
 10
149.0473545189
 20
146.3946727556
 30
0.0
 10
148.2872026354
 20
147.2427175179
 30
0.0
 10
147.0454208314
 20
148.333984425
 30
0.0
 10
145.764426834
 20
149.1843714975
 30
0.0
 10
144.8663454083
 20
149.5918021207
 30
0.0
 10
144.423370651
 20
149.7400808255
 30
0.0
  0
SPLINE
  5
40C
100
AcDbEntity
  8
0
100
AcDbSpline
 62
7
  6
CONTINUOUS
 70
0
 71
3
 72
10
 73
6
 74
0
 42
0.0000001
 43
0.0000001
 44
0.0000000001
 40
0.0
 40
0.0
 40
0.0
 40
0.0
 40
0.5308808627
 40
0.7700091798
 40
1.0
 40
1.0
 40
1.0
 40
1.0
 10
144.423370651
 20
149.7400808255
 30
0.0
 10
144.301026943
 20
149.7810334222
 30
0.0
 10
144.1110790484
 20
149.815816084
 30
0.0
 10
143.8690520721
 20
149.7786637443
 30
0.0
 10
143.7625491775
 20
149.7341059226
 30
0.0
 10
143.7141649354
 20
149.7061241263
 30
0.0
  0
SPLINE
  5
40D
100
AcDbEntity
  8
0
100
AcDbSpline
 62
7
  6
CONTINUOUS
 70
0
 71
3
 72
9
 73
5
 74
0
 42
0.0000001
 43
0.0000001
 44
0.0000000001
 40
0.0
 40
0.0
 40
0.0
 40
0.0
 40
0.2536232172
 40
1.0
 40
1.0
 40
1.0
 40
1.0
 10
142.428475226
 20
149.0362831252
 30
0.0
 10
142.018894299
 20
149.3477052226
 30
0.0
 10
140.393884929
 20
150.5622477584
 30
0.0
 10
138.7282071898
 20
151.7225545832
 30
0.0
 10
137.462659568
 20
152.5539072253
 30
0.0
  0
SPLINE
  5
40E
100
AcDbEntity
  8
0
100
AcDbSpline
 62
7
  6
CONTINUOUS
 70
0
 71
3
 72
11
 73
7
 74
0
 42
0.0000001
 43
0.0000001
 44
0.0000000001
 40
0.0
 40
0.0
 40
0.0
 40
0.0
 40
0.3006718534
 40
0.5647740478
 40
0.7943912159
 40
1.0
 40
1.0
 40
1.0
 40
1.0
 10
125.3003940809
 20
156.381785295
 30
0.0
 10
125.4094570901
 20
156.4447524769
 30
0.0
 10
125.6064060979
 20
156.5780952271
 30
0.0
 10
125.8436270262
 20
156.8149685436
 30
0.0
 10
125.9955216614
 20
157.0700081564
 30
0.0
 10
126.0325652253
 20
157.2533994405
 30
0.0
 10
126.0325695389
 20
157.3395176688
 30
0.0
  0
SPLINE
  5
40F
100
AcDbEntity
  8
0
100
AcDbSpline
 62
7
  6
CONTINUOUS
 70
0
 71
3
 72
9
 73
5
 74
0
 42
0.0000001
 43
0.0000001
 44
0.0000000001
 40
0.0
 40
0.0
 40
0.0
 40
0.0
 40
0.2458304161
 40
1.0
 40
1.0
 40
1.0
 40
1.0
 10
140.8192258276
 20
148.0219485278
 30
0.0
 10
140.8223656349
 20
148.0302644779
 30
0.0
 10
140.834605297
 20
148.0642917947
 30
0.0
 10
140.8446866234
 20
148.0990904075
 30
0.0
 10
140.8511059732
 20
148.1255939985
 30
0.0
  0
SPLINE
  5
410
100
AcDbEntity
  8
0
100
AcDbSpline
 62
7
  6
CONTINUOUS
 70
0
 71
3
 72
17
 73
13
 74
0
 42
0.0000001
 43
0.0000001
 44
0.0000000001
 40
0.0
 40
0.0
 40
0.0
 40
0.0
 40
0.128688864
 40
0.2702797703
 40
0.4174318348
 40
0.5617733576
 40
0.6954455149
 40
0.8127096012
 40
0.8646749146
 40
0.9125085807
 40
0.9571389861
 40
1.0
 40
1.0
 40
1.0
 40
1.0
 10
142.5892462909
 20
142.4003153925
 30
0.0
 10
142.5892462909
 20
142.5926339409
 30
0.0
 10
142.535442039
 20
142.9970129055
 30
0.0
 10
142.3346363908
 20
143.5907537286
 30
0.0
 10
142.0251951368
 20
144.1627094376
 30
0.0
 10
141.6320069171
 20
144.6659861545
 30
0.0
 10
141.1871937635
 20
145.0599329914
 30
0.0
 10
140.7845760596
 20
145.2800845166
 30
0.0
 10
140.469628649
 20
145.3638581161
 30
0.0
 10
140.2528671752
 20
145.3798192332
 30
0.0
 10
140.0510263912
 20
145.3502378033
 30
0.0
 10
139.9287374422
 20
145.2994250164
 30
0.0
 10
139.873278156
 20
145.2673763928
 30
0.0
  0
SPLINE
  5
411
100
AcDbEntity
  8
0
100
AcDbSpline
 62
7
  6
CONTINUOUS
 70
0
 71
3
 72
17
 73
13
 74
0
 42
0.0000001
 43
0.0000001
 44
0.0000000001
 40
0.0
 40
0.0
 40
0.0
 40
0.0
 40
0.128688864
 40
0.2702797703
 40
0.4174318348
 40
0.5617733576
 40
0.6954455149
 40
0.8127096012
 40
0.8646749146
 40
0.9125085807
 40
0.9571389861
 40
1.0
 40
1.0
 40
1.0
 40
1.0
 10
110.9107306043
 20
160.689501195
 30
0.0
 10
110.9107306043
 20
160.8818197434
 30
0.0
 10
110.8569263525
 20
161.286198708
 30
0.0
 10
110.6561207042
 20
161.8799395311
 30
0.0
 10
110.3466794502
 20
162.4518952401
 30
0.0
 10
109.9534912305
 20
162.955171957
 30
0.0
 10
109.5086780769
 20
163.3491187939
 30
0.0
 10
109.106060373
 20
163.5692703191
 30
0.0
 10
108.7911129624
 20
163.6530439186
 30
0.0
 10
108.5743514886
 20
163.6690050357
 30
0.0
 10
108.3725107046
 20
163.6394236058
 30
0.0
 10
108.2502217556
 20
163.5886108189
 30
0.0
 10
108.1947624694
 20
163.5565621953
 30
0.0
  0
SPLINE
  5
412
100
AcDbEntity
  8
0
100
AcDbSpline
 62
7
  6
CONTINUOUS
 70
0
 71
3
 72
9
 73
5
 74
0
 42
0.0000001
 43
0.0000001
 44
0.0000000001
 40
0.0
 40
0.0
 40
0.0
 40
0.0
 40
0.2458304161
 40
1.0
 40
1.0
 40
1.0
 40
1.0
 10
109.140710141
 20
166.3111343303
 30
0.0
 10
109.1438499484
 20
166.3194502804
 30
0.0
 10
109.1560896104
 20
166.3534775972
 30
0.0
 10
109.1661709369
 20
166.38827621
 30
0.0
 10
109.1725902866
 20
166.414779801
 30
0.0
  0
SPLINE
  5
413
100
AcDbEntity
  8
0
100
AcDbSpline
 62
7
  6
CONTINUOUS
 70
0
 71
3
 72
11
 73
7
 74
0
 42
0.0000001
 43
0.0000001
 44
0.0000000001
 40
0.0
 40
0.0
 40
0.0
 40
0.0
 40
0.3006718534
 40
0.5647740478
 40
0.7943912159
 40
1.0
 40
1.0
 40
1.0
 40
1.0
 10
93.6218783943
 20
174.6709710975
 30
0.0
 10
93.7309414035
 20
174.7339382794
 30
0.0
 10
93.9278904114
 20
174.8672810296
 30
0.0
 10
94.1651113396
 20
175.1041543461
 30
0.0
 10
94.3170059748
 20
175.3591939589
 30
0.0
 10
94.3540495387
 20
175.542585243
 30
0.0
 10
94.3540538523
 20
175.6287034713
 30
0.0
  0
SPLINE
  5
414
100
AcDbEntity
  8
0
100
AcDbSpline
 62
7
  6
CONTINUOUS
 70
0
 71
3
 72
9
 73
5
 74
0
 42
0.0000001
 43
0.0000001
 44
0.0000000001
 40
0.0
 40
0.0
 40
0.0
 40
0.0
 40
0.2564614786
 40
1.0
 40
1.0
 40
1.0
 40
1.0
 10
104.0870946721
 20
169.8633070586
 30
0.0
 10
103.4451628793
 20
170.2849993623
 30
0.0
 10
100.919597952
 20
171.8945166369
 30
0.0
 10
98.3023310808
 20
173.3616929382
 30
0.0
 10
96.3088876955
 20
174.3539553583
 30
0.0
  0
SPLINE
  5
415
100
AcDbEntity
  8
0
100
AcDbSpline
 62
7
  6
CONTINUOUS
 70
0
 71
3
 72
9
 73
5
 74
0
 42
0.0000001
 43
0.0000001
 44
0.0000000001
 40
0.0
 40
0.0
 40
0.0
 40
0.0
 40
0.2564614786
 40
1.0
 40
1.0
 40
1.0
 40
1.0
 10
135.7656103587
 20
151.5741212561
 30
0.0
 10
135.1236785658
 20
151.9958135598
 30
0.0
 10
132.5981136385
 20
153.6053308344
 30
0.0
 10
129.9808467673
 20
155.0725071357
 30
0.0
 10
127.9874033821
 20
156.0647695558
 30
0.0
  0
SPLINE
  5
416
100
AcDbEntity
  8
0
100
AcDbSpline
 62
7
  6
CONTINUOUS
 70
0
 71
3
 72
11
 73
7
 74
0
 42
0.0000001
 43
0.0000001
 44
0.0000000001
 40
0.0
 40
0.0
 40
0.0
 40
0.0
 40
0.2260316018
 40
0.4617142996
 40
0.7179691525
 40
1.0
 40
1.0
 40
1.0
 40
1.0
 10
90.5669998089
 20
117.0401724254
 30
0.0
 10
90.453907316
 20
116.9748364261
 30
0.0
 10
90.2429118385
 20
116.8030533671
 30
0.0
 10
90.0140634876
 20
116.4502070753
 30
0.0
 10
89.8778746338
 20
116.0196369494
 30
0.0
 10
89.8508187025
 20
115.7074034387
 30
0.0
 10
89.8508187025
 20
115.5444361366
 30
0.0
  0
SPLINE
  5
417
100
AcDbEntity
  8
0
100
AcDbSpline
 62
7
  6
CONTINUOUS
 70
0
 71
3
 72
11
 73
7
 74
0
 42
0.0000001
 43
0.0000001
 44
0.0000000001
 40
0.0
 40
0.0
 40
0.0
 40
0.0
 40
0.2120119506
 40
0.4431021032
 40
0.7047012427
 40
1.0
 40
1.0
 40
1.0
 40
1.0
 10
66.3298312692
 20
109.8401162839
 30
0.0
 10
66.227805956
 20
109.7812654322
 30
0.0
 10
66.0361746644
 20
109.6173351892
 30
0.0
 10
65.8362996958
 20
109.2743304724
 30
0.0
 10
65.7181859463
 20
108.8491372479
 30
0.0
 10
65.6948570981
 20
108.5388169227
 30
0.0
 10
65.6948570981
 20
108.3747654964
 30
0.0
  0
SPLINE
  5
418
100
AcDbEntity
  8
0
100
AcDbSpline
 62
7
  6
CONTINUOUS
 70
0
 71
3
 72
9
 73
5
 74
0
 42
0.0000001
 43
0.0000001
 44
0.0000000001
 40
0.0
 40
0.0
 40
0.0
 40
0.0
 40
0.2564663418
 40
1.0
 40
1.0
 40
1.0
 40
1.0
 10
62.4536376012
 20
127.5433432156
 30
0.0
 10
62.5016365359
 20
127.5229166774
 30
0.0
 10
62.6876612825
 20
127.4406596757
 30
0.0
 10
62.8690150949
 20
127.3476933305
 30
0.0
 10
62.9999872223
 20
127.2720782481
 30
0.0
  0
SPLINE
  5
419
100
AcDbEntity
  8
0
100
AcDbSpline
 62
7
  6
CONTINUOUS
 70
0
 71
3
 72
9
 73
5
 74
0
 42
0.0000001
 43
0.0000001
 44
0.0000000001
 40
0.0
 40
0.0
 40
0.0
 40
0.0
 40
0.2575718628
 40
1.0
 40
1.0
 40
1.0
 40
1.0
 10
62.9999872223
 20
127.2720782481
 30
0.0
 10
63.042084977
 20
127.247773648
 30
0.0
 10
63.2039860428
 20
127.15079233
 30
0.0
 10
63.359538251
 20
127.0430488809
 30
0.0
 10
63.4698431943
 20
126.9566499158
 30
0.0
  0
SPLINE
  5
41A
100
AcDbEntity
  8
0
100
AcDbSpline
 62
7
  6
CONTINUOUS
 70
0
 71
3
 72
9
 73
5
 74
0
 42
0.0000001
 43
0.0000001
 44
0.0000000001
 40
0.0
 40
0.0
 40
0.0
 40
0.0
 40
0.2457205067
 40
1.0
 40
1.0
 40
1.0
 40
1.0
 10
63.4698431943
 20
126.9566499158
 30
0.0
 10
64.0768771536
 20
126.4811260554
 30
0.0
 10
66.5680087268
 20
124.5724304595
 30
0.0
 10
69.1393002059
 20
122.768794643
 30
0.0
 10
71.1152721914
 20
121.4655374866
 30
0.0
  0
SPLINE
  5
41B
100
AcDbEntity
  8
0
100
AcDbSpline
 62
7
  6
CONTINUOUS
 70
0
 71
3
 72
17
 73
13
 74
0
 42
0.0000001
 43
0.0000001
 44
0.0000000001
 40
0.0
 40
0.0
 40
0.0
 40
0.0
 40
0.0390648587
 40
0.0795235725
 40
0.1233327806
 40
0.1718033768
 40
0.2845381651
 40
0.4172740235
 40
0.5642214444
 40
0.7168843551
 40
0.8653661777
 40
1.0
 40
1.0
 40
1.0
 40
1.0
 10
126.0325695389
 20
157.3395176688
 30
0.0
 10
126.0325726901
 20
157.4024304982
 30
0.0
 10
126.0136477938
 20
157.5312789314
 30
0.0
 10
125.9289768887
 20
157.7135364933
 30
0.0
 10
125.792367524
 20
157.8804122061
 30
0.0
 10
125.5337051083
 20
158.0885867368
 30
0.0
 10
125.094944604
 20
158.2840956809
 30
0.0
 10
124.4727596038
 20
158.4109905648
 30
0.0
 10
123.7738870435
 20
158.4341214776
 30
0.0
 10
123.0544196688
 20
158.3521995394
 30
0.0
 10
122.3731829621
 20
158.1746187644
 30
0.0
 10
121.9526207338
 20
157.990621603
 30
0.0
 10
121.7648454551
 20
157.8822101424
 30
0.0
  0
SPLINE
  5
41C
100
AcDbEntity
  8
0
100
AcDbSpline
 62
7
  6
CONTINUOUS
 70
0
 71
3
 72
11
 73
7
 74
0
 42
0.0000001
 43
0.0000001
 44
0.0000000001
 40
0.0
 40
0.0
 40
0.0
 40
0.0
 40
0.2642293433
 40
0.5192609746
 40
0.7646147364
 40
1.0
 40
1.0
 40
1.0
 40
1.0
 10
88.683852455
 20
105.3586023901
 30
0.0
 10
85.7792769585
 20
106.5667707868
 30
0.0
 10
80.137411926
 20
109.104847439
 30
0.0
 10
72.0778803085
 20
113.3504786374
 30
0.0
 10
64.6120398151
 20
117.945350008
 30
0.0
 10
59.9624600056
 20
121.2942124395
 30
0.0
 10
57.7563400635
 20
123.0223873348
 30
0.0
  0
SPLINE
  5
41D
100
AcDbEntity
  8
0
100
AcDbSpline
 62
7
  6
CONTINUOUS
 70
0
 71
3
 72
9
 73
5
 74
0
 42
0.0000001
 43
0.0000001
 44
0.0000000001
 40
0.0
 40
0.0
 40
0.0
 40
0.0
 40
0.2360510112
 40
1.0
 40
1.0
 40
1.0
 40
1.0
 10
57.7563400635
 20
123.0223873348
 30
0.0
 10
57.6046677179
 20
123.1412006118
 30
0.0
 10
56.9425184794
 20
123.6194339581
 30
0.0
 10
56.2130108049
 20
124.0005273775
 30
0.0
 10
55.6392450781
 20
124.2446650429
 30
0.0
  0
SPLINE
  5
41E
100
AcDbEntity
  8
0
100
AcDbSpline
 62
7
  6
CONTINUOUS
 70
0
 71
3
 72
11
 73
7
 74
0
 42
0.0000001
 43
0.0000001
 44
0.0000000001
 40
0.0
 40
0.0
 40
0.0
 40
0.0
 40
0.2642437761
 40
0.5192613931
 40
0.7646012045
 40
1.0
 40
1.0
 40
1.0
 40
1.0
 10
55.6392450781
 20
124.2446650429
 30
0.0
 10
52.7844215683
 20
125.4593941806
 30
0.0
 10
47.2409907962
 20
128.0073601575
 30
0.0
 10
39.3271565579
 20
132.258429726
 30
0.0
 10
32.0016025491
 20
136.8491851647
 30
0.0
 10
27.443195329
 20
140.1887775196
 30
0.0
 10
25.2812858828
 20
141.9106843927
 30
0.0
  0
SPLINE
  5
41F
100
AcDbEntity
  8
0
100
AcDbSpline
 62
7
  6
CONTINUOUS
 70
0
 71
3
 72
9
 73
5
 74
0
 42
0.0000001
 43
0.0000001
 44
0.0000000001
 40
0.0
 40
0.0
 40
0.0
 40
0.0
 40
0.2455712466
 40
1.0
 40
1.0
 40
1.0
 40
1.0
 10
31.4590074061
 20
145.4773723268
 30
0.0
 10
32.0852924143
 20
144.984486917
 30
0.0
 10
34.6578874759
 20
143.005796177
 30
0.0
 10
37.3166174433
 20
141.1395965706
 30
0.0
 10
39.361369916
 20
139.7928479128
 30
0.0
  0
SPLINE
  5
420
100
AcDbEntity
  8
0
100
AcDbSpline
 62
7
  6
CONTINUOUS
 70
0
 71
3
 72
11
 73
7
 74
0
 42
0.0000001
 43
0.0000001
 44
0.0000000001
 40
0.0
 40
0.0
 40
0.0
 40
0.0
 40
0.2896428702
 40
0.5491125874
 40
0.7822368
 40
1.0
 40
1.0
 40
1.0
 40
1.0
 10
82.5559359152
 20
138.6444245534
 30
0.0
 10
82.4462630453
 20
138.5811052704
 30
0.0
 10
82.2472640286
 20
138.4439872527
 30
0.0
 10
82.0093716617
 20
138.194059006
 30
0.0
 10
81.8588397651
 20
137.9175058003
 30
0.0
 10
81.8237931964
 20
137.7190341164
 30
0.0
 10
81.8237549473
 20
137.623822587
 30
0.0
  0
SPLINE
  5
421
100
AcDbEntity
  8
0
100
AcDbSpline
 62
7
  6
CONTINUOUS
 70
0
 71
3
 72
11
 73
7
 74
0
 42
0.0000001
 43
0.0000001
 44
0.0000000001
 40
0.0
 40
0.0
 40
0.0
 40
0.0
 40
0.2896428702
 40
0.5491125874
 40
0.7822368
 40
1.0
 40
1.0
 40
1.0
 40
1.0
 10
92.4554720673
 20
132.9290539901
 30
0.0
 10
92.3457991973
 20
132.8657347071
 30
0.0
 10
92.1468001806
 20
132.7286166894
 30
0.0
 10
91.9089078138
 20
132.4786884428
 30
0.0
 10
91.7583759172
 20
132.202135237
 30
0.0
 10
91.7233293485
 20
132.0036635531
 30
0.0
 10
91.7232910993
 20
131.9084520238
 30
0.0
  0
SPLINE
  5
422
100
AcDbEntity
  8
0
100
AcDbSpline
 62
7
  6
CONTINUOUS
 70
0
 71
3
 72
11
 73
7
 74
0
 42
0.0000001
 43
0.0000001
 44
0.0000000001
 40
0.0
 40
0.0
 40
0.0
 40
0.0
 40
0.2372521915
 40
0.5000004287
 40
0.7627484331
 40
1.0
 40
1.0
 40
1.0
 40
1.0
 10
55.9685755109
 20
158.8115378829
 30
0.0
 10
55.7677865201
 20
158.9274608382
 30
0.0
 10
55.300882994
 20
159.0966452186
 30
0.0
 10
54.5543599625
 20
159.1775481672
 30
0.0
 10
53.8078379045
 20
159.0966419144
 30
0.0
 10
53.3409360124
 20
158.9274551823
 30
0.0
 10
53.1401483862
 20
158.8115310842
 30
0.0
  0
SPLINE
  5
423
100
AcDbEntity
  8
0
100
AcDbSpline
 62
7
  6
CONTINUOUS
 70
0
 71
3
 72
11
 73
7
 74
0
 42
0.0000001
 43
0.0000001
 44
0.0000000001
 40
0.0
 40
0.0
 40
0.0
 40
0.0
 40
0.2896428702
 40
0.5491125874
 40
0.7822368
 40
1.0
 40
1.0
 40
1.0
 40
1.0
 10
102.3550082194
 20
127.2136834268
 30
0.0
 10
102.2453353494
 20
127.1503641438
 30
0.0
 10
102.0463363327
 20
127.0132461261
 30
0.0
 10
101.8084439659
 20
126.7633178795
 30
0.0
 10
101.6579120692
 20
126.4867646737
 30
0.0
 10
101.6228655006
 20
126.2882929898
 30
0.0
 10
101.6228272514
 20
126.1930814605
 30
0.0
  0
SPLINE
  5
424
100
AcDbEntity
  8
0
100
AcDbSpline
 62
7
  6
CONTINUOUS
 70
0
 71
3
 72
11
 73
7
 74
0
 42
0.0000001
 43
0.0000001
 44
0.0000000001
 40
0.0
 40
0.0
 40
0.0
 40
0.0
 40
0.2177660095
 40
0.4508968553
 40
0.7103699668
 40
1.0
 40
1.0
 40
1.0
 40
1.0
 10
108.1947624694
 20
163.5565621953
 30
0.0
 10
108.1205658176
 20
163.5136856866
 30
0.0
 10
107.9816286824
 20
163.3970589293
 30
0.0
 10
107.8338132856
 20
163.1552644579
 30
0.0
 10
107.7460616793
 20
162.8573700694
 30
0.0
 10
107.7287368411
 20
162.6405586921
 30
0.0
 10
107.7287368411
 20
162.5265845904
 30
0.0
  0
SPLINE
  5
425
100
AcDbEntity
  8
0
100
AcDbSpline
 62
7
  6
CONTINUOUS
 70
0
 71
3
 72
11
 73
7
 74
0
 42
0.0000001
 43
0.0000001
 44
0.0000000001
 40
0.0
 40
0.0
 40
0.0
 40
0.0
 40
0.2177660095
 40
0.4508968553
 40
0.7103699668
 40
1.0
 40
1.0
 40
1.0
 40
1.0
 10
139.873278156
 20
145.2673763928
 30
0.0
 10
139.7990815042
 20
145.2244998841
 30
0.0
 10
139.660144369
 20
145.1078731268
 30
0.0
 10
139.5123289721
 20
144.8660786554
 30
0.0
 10
139.4245773658
 20
144.5681842668
 30
0.0
 10
139.4072525277
 20
144.3513728896
 30
0.0
 10
139.4072525277
 20
144.2373987879
 30
0.0
  0
SPLINE
  5
426
100
AcDbEntity
  8
0
100
AcDbSpline
 62
7
  6
CONTINUOUS
 70
0
 71
3
 72
17
 73
13
 74
0
 42
0.0000001
 43
0.0000001
 44
0.0000000001
 40
0.0
 40
0.0
 40
0.0
 40
0.0
 40
0.0390648587
 40
0.0795235725
 40
0.1233327806
 40
0.1718033768
 40
0.2845381651
 40
0.4172740235
 40
0.5642214444
 40
0.7168843551
 40
0.8653661777
 40
1.0
 40
1.0
 40
1.0
 40
1.0
 10
94.3540538523
 20
175.6287034713
 30
0.0
 10
94.3540570036
 20
175.6916163007
 30
0.0
 10
94.3351321072
 20
175.8204647339
 30
0.0
 10
94.2504612021
 20
176.0027222959
 30
0.0
 10
94.1138518374
 20
176.1695980086
 30
0.0
 10
93.8551894217
 20
176.3777725393
 30
0.0
 10
93.4164289174
 20
176.5732814834
 30
0.0
 10
92.7942439172
 20
176.7001763673
 30
0.0
 10
92.0953713569
 20
176.7233072801
 30
0.0
 10
91.3759039822
 20
176.6413853419
 30
0.0
 10
90.6946672756
 20
176.4638045669
 30
0.0
 10
90.2741050472
 20
176.2798074055
 30
0.0
 10
90.0863297685
 20
176.1713959449
 30
0.0
  0
SPLINE
  5
427
100
AcDbEntity
  8
0
100
AcDbSpline
 62
7
  6
CONTINUOUS
 70
0
 71
3
 72
16
 73
12
 74
0
 42
0.0000001
 43
0.0000001
 44
0.0000000001
 40
0.0
 40
0.0
 40
0.0
 40
0.0
 40
0.0477760792
 40
0.0973521027
 40
0.2047163495
 40
0.3256898466
 40
0.4587830842
 40
0.5993742667
 40
0.7409773534
 40
0.8765389507
 40
1.0
 40
1.0
 40
1.0
 40
1.0
 10
109.2033026573
 20
166.6733648972
 30
0.0
 10
109.2033026751
 20
166.7560316919
 30
0.0
 10
109.1843863931
 20
166.9250004703
 30
0.0
 10
109.0715119474
 20
167.2630406493
 30
0.0
 10
108.7887755315
 20
167.6648002666
 30
0.0
 10
108.2898731164
 20
168.0528094151
 30
0.0
 10
107.663154497
 20
168.3374113677
 30
0.0
 10
106.9581123739
 20
168.4977390171
 30
0.0
 10
106.2312561471
 20
168.5227665346
 30
0.0
 10
105.5424732819
 20
168.4131481906
 30
0.0
 10
105.1206383025
 20
168.2459306734
 30
0.0
 10
104.9356339966
 20
168.1391190252
 30
0.0
  0
SPLINE
  5
428
100
AcDbEntity
  8
0
100
AcDbSpline
 62
7
  6
CONTINUOUS
 70
0
 71
3
 72
10
 73
6
 74
0
 42
0.0000001
 43
0.0000001
 44
0.0000000001
 40
0.0
 40
0.0
 40
0.0
 40
0.0
 40
0.2713091593
 40
0.5363753468
 40
1.0
 40
1.0
 40
1.0
 40
1.0
 10
49.7987324373
 20
84.7181877268
 30
0.0
 10
49.9559210751
 20
84.436394868
 30
0.0
 10
50.3215577159
 20
83.9064365566
 30
0.0
 10
51.1695404444
 20
83.0734124094
 30
0.0
 10
51.9822259478
 20
82.6454822061
 30
0.0
 10
52.5280993703
 20
82.5676727319
 30
0.0
  0
SPLINE
  5
429
100
AcDbEntity
  8
0
100
AcDbSpline
 62
7
  6
CONTINUOUS
 70
0
 71
3
 72
14
 73
10
 74
0
 42
0.0000001
 43
0.0000001
 44
0.0000000001
 40
0.0
 40
0.0
 40
0.0
 40
0.0
 40
0.2944269221
 40
0.4338959275
 40
0.5654074151
 40
0.6875232559
 40
0.8000774796
 40
0.9036742192
 40
1.0
 40
1.0
 40
1.0
 40
1.0
 10
42.1949723126
 20
88.2099899059
 30
0.0
 10
42.3916476798
 20
87.9180879148
 30
0.0
 10
42.7254301031
 20
87.5142323439
 30
0.0
 10
43.2385848042
 20
87.0725517771
 30
0.0
 10
43.6306148722
 20
86.8107799463
 30
0.0
 10
44.0278035195
 20
86.6225588202
 30
0.0
 10
44.418933654
 20
86.5117403212
 30
0.0
 10
44.7938354722
 20
86.4802190729
 30
0.0
 10
45.0330260793
 20
86.5172494097
 30
0.0
 10
45.1433915523
 20
86.5501118582
 30
0.0
  0
SPLINE
  5
42A
100
AcDbEntity
  8
0
100
AcDbSpline
 62
7
  6
CONTINUOUS
 70
0
 71
3
 72
14
 73
10
 74
0
 42
0.0000001
 43
0.0000001
 44
0.0000000001
 40
0.0
 40
0.0
 40
0.0
 40
0.0
 40
0.3072070213
 40
0.4493983819
 40
0.5808848817
 40
0.7006188345
 40
0.8090441979
 40
0.9076655956
 40
1.0
 40
1.0
 40
1.0
 40
1.0
 10
34.8880604316
 20
92.4429508355
 30
0.0
 10
35.0805199535
 20
92.1467434667
 30
0.0
 10
35.4046401906
 20
91.7377200943
 30
0.0
 10
35.9037052521
 20
91.2919053516
 30
0.0
 10
36.2790197553
 20
91.0363883557
 30
0.0
 10
36.6555354287
 20
90.8605241496
 30
0.0
 10
37.0222132596
 20
90.7669130009
 30
0.0
 10
37.3701401488
 20
90.7607083798
 30
0.0
 10
37.5854506819
 20
90.8202562135
 30
0.0
 10
37.6822937779
 20
90.8637716858
 30
0.0
  0
SPLINE
  5
42B
100
AcDbEntity
  8
0
100
AcDbSpline
 62
7
  6
CONTINUOUS
 70
0
 71
3
 72
11
 73
7
 74
0
 42
0.0000001
 43
0.0000001
 44
0.0000000001
 40
0.0
 40
0.0
 40
0.0
 40
0.0
 40
0.2372514255
 40
0.4999993765
 40
0.7627476671
 40
1.0
 40
1.0
 40
1.0
 40
1.0
 10
53.1401483862
 20
155.6271716574
 30
0.0
 10
53.3409358927
 20
155.7430956864
 30
0.0
 10
53.8078375825
 20
155.912282385
 30
0.0
 10
54.5543594882
 20
155.9931887404
 30
0.0
 10
55.3008826721
 20
155.9122858944
 30
0.0
 10
55.7677864005
 20
155.7431014805
 30
0.0
 10
55.9685755109
 20
155.6271784561
 30
0.0
  0
LINE
  5
42C
100
AcDbEntity
  8
0
100
AcDbLine
 62
7
  6
CONTINUOUS
 10
73.2575413585
 20
121.9904048646
 11
71.1152721914
 21
121.4655374866
  0
SPLINE
  5
42D
100
AcDbEntity
  8
0
100
AcDbSpline
 62
7
  6
CONTINUOUS
 70
0
 71
3
 72
8
 73
4
 74
0
 42
0.0000001
 43
0.0000001
 44
0.0000000001
 40
0.0
 40
0.0
 40
0.0
 40
0.0
 40
1.0
 40
1.0
 40
1.0
 40
1.0
 10
98.583306176
 20
109.8492669186
 30
0.0
 10
97.3422409813
 20
109.5407783274
 30
0.0
 10
96.101125119
 20
109.2324935362
 30
0.0
 10
94.8599715023
 20
108.9243608892
 30
0.0
  0
LINE
  5
42E
100
AcDbEntity
  8
0
100
AcDbLine
 62
7
  6
CONTINUOUS
 10
90.7938625424
 20
111.9785870724
 11
88.9843036399
 21
111.5332559885
  0
LINE
  5
42F
100
AcDbEntity
  8
0
100
AcDbLine
 62
7
  6
CONTINUOUS
 10
83.2984994556
 20
116.1334737827
 11
80.9800191191
 21
115.5667838135
  0
SPLINE
  5
430
100
AcDbEntity
  8
0
100
AcDbSpline
 62
7
  6
CONTINUOUS
 70
0
 71
3
 72
11
 73
7
 74
0
 42
0.0000001
 43
0.0000001
 44
0.0000000001
 40
0.0
 40
0.0
 40
0.0
 40
0.0
 40
0.2372521915
 40
0.5000004287
 40
0.7627484331
 40
1.0
 40
1.0
 40
1.0
 40
1.0
 10
65.868111663
 20
153.0961673196
 30
0.0
 10
65.6673226722
 20
153.2120902749
 30
0.0
 10
65.2004191461
 20
153.3812746553
 30
0.0
 10
64.4538961146
 20
153.4621776039
 30
0.0
 10
63.7073740565
 20
153.3812713512
 30
0.0
 10
63.2404721645
 20
153.212084619
 30
0.0
 10
63.0396845382
 20
153.0961605209
 30
0.0
  0
SPLINE
  5
431
100
AcDbEntity
  8
0
100
AcDbSpline
 62
7
  6
CONTINUOUS
 70
0
 71
3
 72
11
 73
7
 74
0
 42
0.0000001
 43
0.0000001
 44
0.0000000001
 40
0.0
 40
0.0
 40
0.0
 40
0.0
 40
0.2372423294
 40
0.4999983821
 40
0.7627553152
 40
1.0
 40
1.0
 40
1.0
 40
1.0
 10
146.0187155044
 20
98.2071342483
 30
0.0
 10
146.0789494289
 20
98.2419101132
 30
0.0
 10
146.1929286939
 20
98.3378473782
 30
0.0
 10
146.3259609809
 20
98.519642812
 30
0.0
 10
146.4168835049
 20
98.7257509788
 30
0.0
 10
146.4429778067
 20
98.8724294591
 30
0.0
 10
146.4429778067
 20
98.9419821909
 30
0.0
  0
SPLINE
  5
432
100
AcDbEntity
  8
0
100
AcDbSpline
 62
7
  6
CONTINUOUS
 70
0
 71
3
 72
11
 73
7
 74
0
 42
0.0000001
 43
0.0000001
 44
0.0000000001
 40
0.0
 40
0.0
 40
0.0
 40
0.0
 40
0.2372514255
 40
0.4999993765
 40
0.7627476671
 40
1.0
 40
1.0
 40
1.0
 40
1.0
 10
72.9392206903
 20
144.1964305308
 30
0.0
 10
73.1400081968
 20
144.3123545598
 30
0.0
 10
73.6069098866
 20
144.4815412584
 30
0.0
 10
74.3534317923
 20
144.5624476138
 30
0.0
 10
75.0999549762
 20
144.4815447678
 30
0.0
 10
75.5668587046
 20
144.3123603539
 30
0.0
 10
75.767647815
 20
144.1964373295
 30
0.0
  0
SPLINE
  5
433
100
AcDbEntity
  8
0
100
AcDbSpline
 62
7
  6
CONTINUOUS
 70
0
 71
3
 72
11
 73
7
 74
0
 42
0.0000001
 43
0.0000001
 44
0.0000000001
 40
0.0
 40
0.0
 40
0.0
 40
0.0
 40
0.2895387672
 40
0.5491150867
 40
0.7822549883
 40
1.0
 40
1.0
 40
1.0
 40
1.0
 10
60.2112691894
 20
151.4631839054
 30
0.0
 10
60.1235634143
 20
151.4125472548
 30
0.0
 10
59.9644063307
 20
151.3028018078
 30
0.0
 10
59.7740221233
 20
151.102930244
 30
0.0
 10
59.6535557771
 20
150.8816557871
 30
0.0
 10
59.6255840847
 20
150.7228644073
 30
0.0
 10
59.6255840773
 20
150.6467023959
 30
0.0
  0
SPLINE
  5
434
100
AcDbEntity
  8
0
100
AcDbSpline
 62
7
  6
CONTINUOUS
 70
0
 71
3
 72
11
 73
7
 74
0
 42
0.0000001
 43
0.0000001
 44
0.0000000001
 40
0.0
 40
0.0
 40
0.0
 40
0.0
 40
0.2121712298
 40
0.4433127056
 40
0.7048519582
 40
1.0
 40
1.0
 40
1.0
 40
1.0
 10
34.6438483311
 20
128.1249908169
 30
0.0
 10
34.5416868618
 20
128.0660613371
 30
0.0
 10
34.3498095882
 20
127.9020279606
 30
0.0
 10
34.1495977021
 20
127.5588520155
 30
0.0
 10
34.0312827128
 20
127.1335327145
 30
0.0
 10
34.0079097605
 20
126.8231466351
 30
0.0
 10
34.0079097605
 20
126.659083312
 30
0.0
  0
SPLINE
  5
435
100
AcDbEntity
  8
0
100
AcDbSpline
 62
7
  6
CONTINUOUS
 70
0
 71
3
 72
11
 73
7
 74
0
 42
0.0000001
 43
0.0000001
 44
0.0000000001
 40
0.0
 40
0.0
 40
0.0
 40
0.0
 40
0.2372521915
 40
0.5000004287
 40
0.7627484331
 40
1.0
 40
1.0
 40
1.0
 40
1.0
 10
75.767647815
 20
147.3807967563
 30
0.0
 10
75.5668588243
 20
147.4967197117
 30
0.0
 10
75.0999552981
 20
147.665904092
 30
0.0
 10
74.3534322666
 20
147.7468070406
 30
0.0
 10
73.6069102086
 20
147.6659007879
 30
0.0
 10
73.1400083165
 20
147.4967140557
 30
0.0
 10
72.9392206903
 20
147.3807899576
 30
0.0
  0
SPLINE
  5
436
100
AcDbEntity
  8
0
100
AcDbSpline
 62
7
  6
CONTINUOUS
 70
0
 71
3
 72
11
 73
7
 74
0
 42
0.0000001
 43
0.0000001
 44
0.0000000001
 40
0.0
 40
0.0
 40
0.0
 40
0.0
 40
0.2895387672
 40
0.5491150867
 40
0.7822549883
 40
1.0
 40
1.0
 40
1.0
 40
1.0
 10
70.1108053414
 20
145.7478133421
 30
0.0
 10
70.0230995663
 20
145.6971766915
 30
0.0
 10
69.8639424827
 20
145.5874312445
 30
0.0
 10
69.6735582753
 20
145.3875596807
 30
0.0
 10
69.5530919291
 20
145.1662852238
 30
0.0
 10
69.5251202368
 20
145.007493844
 30
0.0
 10
69.5251202294
 20
144.9313318326
 30
0.0
  0
SPLINE
  5
437
100
AcDbEntity
  8
0
100
AcDbSpline
 62
7
  6
CONTINUOUS
 70
0
 71
3
 72
11
 73
7
 74
0
 42
0.0000001
 43
0.0000001
 44
0.0000000001
 40
0.0
 40
0.0
 40
0.0
 40
0.0
 40
0.2177444746
 40
0.4508841619
 40
0.7104607662
 40
1.0
 40
1.0
 40
1.0
 40
1.0
 10
68.7872706439
 20
150.9324845224
 30
0.0
 10
68.7872706512
 20
151.0086473265
 30
0.0
 10
68.7592982893
 20
151.1674404947
 30
0.0
 10
68.638829416
 20
151.3887171381
 30
0.0
 10
68.4484412607
 20
151.5885901465
 30
0.0
 10
68.2892811668
 20
151.698336078
 30
0.0
 10
68.201573756
 20
151.7489728297
 30
0.0
  0
SPLINE
  5
438
100
AcDbEntity
  8
0
100
AcDbSpline
 62
7
  6
CONTINUOUS
 70
0
 71
3
 72
10
 73
6
 74
0
 42
0.0000001
 43
0.0000001
 44
0.0000000001
 40
0.0
 40
0.0
 40
0.0
 40
0.0
 40
0.2299908202
 40
0.4691191373
 40
1.0
 40
1.0
 40
1.0
 40
1.0
 10
107.0859223884
 20
165.1376008517
 30
0.0
 10
107.1343066304
 20
165.1655826481
 30
0.0
 10
107.240809525
 20
165.2101404697
 30
0.0
 10
107.4828365014
 20
165.2472928094
 30
0.0
 10
107.6727843959
 20
165.2125101476
 30
0.0
 10
107.795128104
 20
165.1715575509
 30
0.0
  0
SPLINE
  5
439
100
AcDbEntity
  8
0
100
AcDbSpline
 62
7
  6
CONTINUOUS
 70
0
 71
3
 72
10
 73
6
 74
0
 42
0.0000001
 43
0.0000001
 44
0.0000000001
 40
0.0
 40
0.0
 40
0.0
 40
0.0
 40
0.2280367004
 40
0.4760799428
 40
1.0
 40
1.0
 40
1.0
 40
1.0
 10
38.8272678388
 20
145.5264999584
 30
0.0
 10
38.8272678388
 20
145.3326850248
 30
0.0
 10
38.8611863748
 20
144.9277255001
 30
0.0
 10
39.0391312205
 20
144.0953345094
 30
0.0
 10
39.2862693482
 20
143.4798841139
 30
0.0
 10
39.4941959198
 20
143.0861152743
 30
0.0
  0
SPLINE
  5
43A
100
AcDbEntity
  8
0
100
AcDbSpline
 62
7
  6
CONTINUOUS
 70
0
 71
3
 72
10
 73
6
 74
0
 42
0.0000001
 43
0.0000001
 44
0.0000000001
 40
0.0
 40
0.0
 40
0.0
 40
0.0
 40
0.2299908202
 40
0.4691191373
 40
1.0
 40
1.0
 40
1.0
 40
1.0
 10
138.7644380749
 20
146.8484150492
 30
0.0
 10
138.812822317
 20
146.8763968455
 30
0.0
 10
138.9193252116
 20
146.9209546672
 30
0.0
 10
139.1613521879
 20
146.9581070069
 30
0.0
 10
139.3513000825
 20
146.9233243451
 30
0.0
 10
139.4736437906
 20
146.8823717484
 30
0.0
  0
SPLINE
  5
43B
100
AcDbEntity
  8
0
100
AcDbSpline
 62
7
  6
CONTINUOUS
 70
0
 71
3
 72
10
 73
6
 74
0
 42
0.0000001
 43
0.0000001
 44
0.0000000001
 40
0.0
 40
0.0
 40
0.0
 40
0.0
 40
0.2292043913
 40
0.4753188283
 40
1.0
 40
1.0
 40
1.0
 40
1.0
 10
58.172303016
 20
133.8336219391
 30
0.0
 10
58.172303016
 20
133.6648312078
 30
0.0
 10
58.2041153625
 20
133.3143762638
 30
0.0
 10
58.3765681178
 20
132.5967876067
 30
0.0
 10
58.618813001
 20
132.0748470455
 30
0.0
 10
58.8195732787
 20
131.7447117917
 30
0.0
  0
SPLINE
  5
43C
100
AcDbEntity
  8
0
100
AcDbSpline
 62
7
  6
CONTINUOUS
 70
0
 71
3
 72
10
 73
6
 74
0
 42
0.0000001
 43
0.0000001
 44
0.0000000001
 40
0.0
 40
0.0
 40
0.0
 40
0.0
 40
0.2284296142
 40
0.4752303217
 40
1.0
 40
1.0
 40
1.0
 40
1.0
 10
48.0041659126
 20
139.3939165965
 30
0.0
 10
48.0041659126
 20
139.215179808
 30
0.0
 10
48.036465147
 20
138.842965697
 30
0.0
 10
48.2090969457
 20
138.0783353224
 30
0.0
 10
48.4507065072
 20
137.5170930797
 30
0.0
 10
48.6524253526
 20
137.1594470732
 30
0.0
  0
SPLINE
  5
43D
100
AcDbEntity
  8
0
100
AcDbSpline
 62
7
  6
CONTINUOUS
 70
0
 71
3
 72
16
 73
12
 74
0
 42
0.0000001
 43
0.0000001
 44
0.0000000001
 40
0.0
 40
0.0
 40
0.0
 40
0.0
 40
0.0477760792
 40
0.0973521027
 40
0.2047163495
 40
0.3256898466
 40
0.4587830842
 40
0.5993742667
 40
0.7409773534
 40
0.8765389507
 40
1.0
 40
1.0
 40
1.0
 40
1.0
 10
140.8818183439
 20
148.3841790947
 30
0.0
 10
140.8818183616
 20
148.4668458894
 30
0.0
 10
140.8629020797
 20
148.6358146678
 30
0.0
 10
140.750027634
 20
148.9738548467
 30
0.0
 10
140.4672912181
 20
149.3756144641
 30
0.0
 10
139.9683888029
 20
149.7636236126
 30
0.0
 10
139.3416701836
 20
150.0482255652
 30
0.0
 10
138.6366280605
 20
150.2085532145
 30
0.0
 10
137.9097718337
 20
150.2335807321
 30
0.0
 10
137.2209889685
 20
150.1239623881
 30
0.0
 10
136.7991539891
 20
149.9567448709
 30
0.0
 10
136.6141496832
 20
149.8499332227
 30
0.0
  0
SPLINE
  5
43E
100
AcDbEntity
  8
0
100
AcDbSpline
 62
7
  6
CONTINUOUS
 70
0
 71
3
 72
10
 73
6
 74
0
 42
0.0000001
 43
0.0000001
 44
0.0000000001
 40
0.0
 40
0.0
 40
0.0
 40
0.0
 40
0.2292020745
 40
0.4753175777
 40
1.0
 40
1.0
 40
1.0
 40
1.0
 10
89.8508187025
 20
115.5444361366
 30
0.0
 10
89.8508187025
 20
115.3755939336
 30
0.0
 10
89.8826504692
 20
115.0250293559
 30
0.0
 10
90.0552026026
 20
114.3072247007
 30
0.0
 10
90.2975829034
 20
113.7851410792
 30
0.0
 10
90.4984522871
 20
113.4549286261
 30
0.0
  0
SPLINE
  5
43F
100
AcDbEntity
  8
0
100
AcDbSpline
 62
7
  6
CONTINUOUS
 70
0
 71
3
 72
10
 73
6
 74
0
 42
0.0000001
 43
0.0000001
 44
0.0000000001
 40
0.0
 40
0.0
 40
0.0
 40
0.0
 40
0.2280649572
 40
0.4758500685
 40
1.0
 40
1.0
 40
1.0
 40
1.0
 10
70.5057835254
 20
127.2373141559
 30
0.0
 10
70.5057835254
 20
127.0486122454
 30
0.0
 10
70.5379528617
 20
126.6545838937
 30
0.0
 10
70.7073669203
 20
125.8434825728
 30
0.0
 10
70.9430795756
 20
125.2427691701
 30
0.0
 10
71.141373418
 20
124.8570733677
 30
0.0
  0
SPLINE
  5
440
100
AcDbEntity
  8
0
100
AcDbSpline
 62
7
  6
CONTINUOUS
 70
0
 71
3
 72
10
 73
6
 74
0
 42
0.0000001
 43
0.0000001
 44
0.0000000001
 40
0.0
 40
0.0
 40
0.0
 40
0.0
 40
0.2284400664
 40
0.4752279314
 40
1.0
 40
1.0
 40
1.0
 40
1.0
 10
79.6826815992
 20
121.104730794
 30
0.0
 10
79.6826815992
 20
120.9263707399
 30
0.0
 10
79.7148453361
 20
120.5549608489
 30
0.0
 10
79.8867985501
 20
119.7919118902
 30
0.0
 10
80.1274877617
 20
119.2317427768
 30
0.0
 10
80.3284497012
 20
118.8746830748
 30
0.0
  0
SPLINE
  5
441
100
AcDbEntity
  8
0
100
AcDbSpline
 62
7
  6
CONTINUOUS
 70
0
 71
3
 72
11
 73
7
 74
0
 42
0.0000001
 43
0.0000001
 44
0.0000000001
 40
0.0
 40
0.0
 40
0.0
 40
0.0
 40
0.2161036007
 40
0.448473122
 40
0.7084421024
 40
1.0
 40
1.0
 40
1.0
 40
1.0
 10
48.6540261118
 20
140.8513639079
 30
0.0
 10
48.5501091116
 20
140.7913251556
 30
0.0
 10
48.3556482386
 20
140.6266849203
 30
0.0
 10
48.1498645933
 20
140.2850185711
 30
0.0
 10
48.0280412138
 20
139.8631307253
 30
0.0
 10
48.0041659126
 20
139.5558346364
 30
0.0
 10
48.0041659126
 20
139.3939165965
 30
0.0
  0
SPLINE
  5
442
100
AcDbEntity
  8
0
100
AcDbSpline
 62
7
  6
CONTINUOUS
 70
0
 71
3
 72
11
 73
7
 74
0
 42
0.0000001
 43
0.0000001
 44
0.0000000001
 40
0.0
 40
0.0
 40
0.0
 40
0.0
 40
0.2372514255
 40
0.4999993765
 40
0.7627476671
 40
1.0
 40
1.0
 40
1.0
 40
1.0
 10
63.0396845382
 20
149.9118010941
 30
0.0
 10
63.2404720448
 20
150.0277251231
 30
0.0
 10
63.7073737346
 20
150.1969118217
 30
0.0
 10
64.4538956402
 20
150.2778181771
 30
0.0
 10
65.2004188241
 20
150.1969153311
 30
0.0
 10
65.6673225525
 20
150.0277309172
 30
0.0
 10
65.868111663
 20
149.9118078928
 30
0.0
  0
SPLINE
  5
443
100
AcDbEntity
  8
0
100
AcDbSpline
 62
7
  6
CONTINUOUS
 70
0
 71
3
 72
11
 73
7
 74
0
 42
0.0000001
 43
0.0000001
 44
0.0000000001
 40
0.0
 40
0.0
 40
0.0
 40
0.0
 40
0.2895387672
 40
0.5491150867
 40
0.7822549883
 40
1.0
 40
1.0
 40
1.0
 40
1.0
 10
50.3117330373
 20
157.1785544687
 30
0.0
 10
50.2240272622
 20
157.1279178181
 30
0.0
 10
50.0648701786
 20
157.0181723711
 30
0.0
 10
49.8744859712
 20
156.8183008072
 30
0.0
 10
49.754019625
 20
156.5970263504
 30
0.0
 10
49.7260479327
 20
156.4382349706
 30
0.0
 10
49.7260479253
 20
156.3620729592
 30
0.0
  0
LINE
  5
444
100
AcDbEntity
  8
0
100
AcDbLine
 62
7
  6
CONTINUOUS
 10
41.508314699
 20
140.3188277257
 11
39.361369916
 21
139.7928479128
  0
SPLINE
  5
445
100
AcDbEntity
  8
0
100
AcDbSpline
 62
7
  6
CONTINUOUS
 70
0
 71
3
 72
11
 73
7
 74
0
 42
0.0000001
 43
0.0000001
 44
0.0000000001
 40
0.0
 40
0.0
 40
0.0
 40
0.0
 40
0.2177444746
 40
0.4508841619
 40
0.7104607662
 40
1.0
 40
1.0
 40
1.0
 40
1.0
 10
78.6868067959
 20
145.2171139591
 30
0.0
 10
78.6868068033
 20
145.2932767632
 30
0.0
 10
78.6588344413
 20
145.4520699314
 30
0.0
 10
78.538365568
 20
145.6733465748
 30
0.0
 10
78.3479774127
 20
145.8732195832
 30
0.0
 10
78.1888173189
 20
145.9829655147
 30
0.0
 10
78.101109908
 20
146.0336022664
 30
0.0
  0
SPLINE
  5
446
100
AcDbEntity
  8
0
100
AcDbSpline
 62
7
  6
CONTINUOUS
 70
0
 71
3
 72
11
 73
7
 74
0
 42
0.0000001
 43
0.0000001
 44
0.0000000001
 40
0.0
 40
0.0
 40
0.0
 40
0.0
 40
0.2260316018
 40
0.4617142996
 40
0.7179691525
 40
1.0
 40
1.0
 40
1.0
 40
1.0
 10
58.8884841223
 20
135.3293582279
 30
0.0
 10
58.7753916294
 20
135.2640222286
 30
0.0
 10
58.5643961519
 20
135.0922391696
 30
0.0
 10
58.3355478011
 20
134.7393928778
 30
0.0
 10
58.1993589473
 20
134.3088227519
 30
0.0
 10
58.172303016
 20
133.9965892412
 30
0.0
 10
58.172303016
 20
133.8336219391
 30
0.0
  0
LINE
  5
447
100
AcDbEntity
  8
0
100
AcDbLine
 62
7
  6
CONTINUOUS
 10
58.9739249103
 20
130.3494210261
 11
57.1643660078
 21
129.9040899421
  0
LINE
  5
448
100
AcDbEntity
  8
0
100
AcDbLine
 62
7
  6
CONTINUOUS
 10
51.4078508511
 20
134.5443865763
 11
49.0871825487
 21
133.9771786274
  0
SPLINE
  5
449
100
AcDbEntity
  8
0
100
AcDbSpline
 62
7
  6
CONTINUOUS
 70
0
 71
3
 72
11
 73
7
 74
0
 42
0.0000001
 43
0.0000001
 44
0.0000000001
 40
0.0
 40
0.0
 40
0.0
 40
0.0
 40
0.2177444746
 40
0.4508841619
 40
0.7104607662
 40
1.0
 40
1.0
 40
1.0
 40
1.0
 10
58.8877344918
 20
156.6478550857
 30
0.0
 10
58.8877344992
 20
156.7240178898
 30
0.0
 10
58.8597621372
 20
156.882811058
 30
0.0
 10
58.7392932639
 20
157.1040877014
 30
0.0
 10
58.5489051086
 20
157.3039607098
 30
0.0
 10
58.3897450148
 20
157.4137066412
 30
0.0
 10
58.3020376039
 20
157.464343393
 30
0.0
  0
SPLINE
  5
44A
100
AcDbEntity
  8
0
100
AcDbSpline
 62
7
  6
CONTINUOUS
 70
0
 71
3
 72
18
 73
14
 74
0
 42
0.0000001
 43
0.0000001
 44
0.0000000001
 40
0.0
 40
0.0
 40
0.0
 40
0.0
 40
0.1301278945
 40
0.2733928809
 40
0.4218189111
 40
0.5665103295
 40
0.635031444
 40
0.6998627488
 40
0.8157271019
 40
0.866882128
 40
0.91390292
 40
0.9577409714
 40
1.0
 40
1.0
 40
1.0
 40
1.0
 10
34.0079097605
 20
126.659083312
 30
0.0
 10
34.0079097605
 20
126.3802489745
 30
0.0
 10
34.0815130842
 20
125.7939349406
 30
0.0
 10
34.3539528842
 20
124.928140785
 30
0.0
 10
34.7765237713
 20
124.0895686012
 30
0.0
 10
35.2343155094
 20
123.4591173154
 30
0.0
 10
35.6498708545
 20
123.030717245
 30
0.0
 10
36.0584730516
 20
122.686448907
 30
0.0
 10
36.4936935862
 20
122.431066274
 30
0.0
 10
36.9360184341
 20
122.3021219092
 30
0.0
 10
37.2412534656
 20
122.2731249738
 30
0.0
 10
37.5265590933
 20
122.3124887783
 30
0.0
 10
37.6991645707
 20
122.3842332625
 30
0.0
 10
37.7775703051
 20
122.4295334184
 30
0.0
  0
SPLINE
  5
44B
100
AcDbEntity
  8
0
100
AcDbSpline
 62
7
  6
CONTINUOUS
 70
0
 71
3
 72
11
 73
7
 74
0
 42
0.0000001
 43
0.0000001
 44
0.0000000001
 40
0.0
 40
0.0
 40
0.0
 40
0.0
 40
0.2274629055
 40
0.4636592881
 40
0.7194624174
 40
1.0
 40
1.0
 40
1.0
 40
1.0
 10
49.9885109521
 20
119.6746343759
 30
0.0
 10
49.8721775214
 20
119.607523843
 30
0.0
 10
49.6547824098
 20
119.4325150592
 30
0.0
 10
49.4190241821
 20
119.0720161545
 30
0.0
 10
49.2787518503
 20
118.6333163906
 30
0.0
 10
49.2504812866
 20
118.3154217734
 30
0.0
 10
49.2504812866
 20
118.1497814306
 30
0.0
  0
SPLINE
  5
44C
100
AcDbEntity
  8
0
100
AcDbSpline
 62
7
  6
CONTINUOUS
 70
0
 71
3
 72
18
 73
14
 74
0
 42
0.0000001
 43
0.0000001
 44
0.0000000001
 40
0.0
 40
0.0
 40
0.0
 40
0.0
 40
0.1269256724
 40
0.2664708469
 40
0.4116890258
 40
0.5545119387
 40
0.6228104624
 40
0.687957926
 40
0.8062111585
 40
0.8593824548
 40
0.9088226557
 40
0.9552666087
 40
1.0
 40
1.0
 40
1.0
 40
1.0
 10
41.3455263216
 20
122.2406568588
 30
0.0
 10
41.3455263216
 20
121.9629499301
 30
0.0
 10
41.4247848843
 20
121.379267698
 30
0.0
 10
41.720246115
 20
120.5235329891
 30
0.0
 10
42.1783570173
 20
119.7024859444
 30
0.0
 10
42.6731815484
 20
119.0937869111
 30
0.0
 10
43.1206612943
 20
118.6857761424
 30
0.0
 10
43.5641636142
 20
118.3585757874
 30
0.0
 10
44.0346628766
 20
118.1244219252
 30
0.0
 10
44.5078505136
 20
118.0169904984
 30
0.0
 10
44.8357973205
 20
118.0021926169
 30
0.0
 10
45.141551368
 20
118.0542797765
 30
0.0
 10
45.3270946851
 20
118.1334164182
 30
0.0
 10
45.4118419216
 20
118.1823786696
 30
0.0
  0
SPLINE
  5
44D
100
AcDbEntity
  8
0
100
AcDbSpline
 62
7
  6
CONTINUOUS
 70
0
 71
3
 72
18
 73
14
 74
0
 42
0.0000001
 43
0.0000001
 44
0.0000000001
 40
0.0
 40
0.0
 40
0.0
 40
0.0
 40
0.1240219483
 40
0.2601611399
 40
0.4023738401
 40
0.5433693882
 40
0.6114133988
 40
0.6768237843
 40
0.7973083164
 40
0.8523670074
 40
0.9040731982
 40
0.9529532832
 40
1.0
 40
1.0
 40
1.0
 40
1.0
 10
49.2504812866
 20
118.1497814306
 30
0.0
 10
49.2504812866
 20
117.8722091935
 30
0.0
 10
49.335982618
 20
117.2890914476
 30
0.0
 10
49.6564548133
 20
116.4416825461
 30
0.0
 10
50.1520336431
 20
115.6382603626
 30
0.0
 10
50.6845167367
 20
115.0526794619
 30
0.0
 10
51.1635802973
 20
114.6664171564
 30
0.0
 10
51.6416774561
 20
114.3580874631
 30
0.0
 10
52.1462234569
 20
114.1462976444
 30
0.0
 10
52.6494601542
 20
114.0606783878
 30
0.0
 10
52.9997935656
 20
114.0602112796
 30
0.0
 10
53.3261311104
 20
114.1248166214
 30
0.0
 10
53.5248048447
 20
114.2114704598
 30
0.0
 10
53.6159670393
 20
114.2641624206
 30
0.0
  0
SPLINE
  5
44E
100
AcDbEntity
  8
0
100
AcDbSpline
 62
7
  6
CONTINUOUS
 70
0
 71
3
 72
18
 73
14
 74
0
 42
0.0000001
 43
0.0000001
 44
0.0000000001
 40
0.0
 40
0.0
 40
0.0
 40
0.0
 40
0.1301914393
 40
0.2735298749
 40
0.422018408
 40
0.5667453672
 40
0.6352703543
 40
0.7000951585
 40
0.8159129596
 40
0.8670287891
 40
0.9140023892
 40
0.9577894334
 40
1.0
 40
1.0
 40
1.0
 40
1.0
 10
65.6948570981
 20
108.3747654964
 30
0.0
 10
65.6948570981
 20
108.0959001724
 30
0.0
 10
65.7683577075
 20
107.5095163046
 30
0.0
 10
66.0403774861
 20
106.6435135675
 30
0.0
 10
66.4622900006
 20
105.8046077141
 30
0.0
 10
66.9193855005
 20
105.1737564221
 30
0.0
 10
67.334331866
 20
104.7449825603
 30
0.0
 10
67.7422703717
 20
104.4004075593
 30
0.0
 10
68.176811591
 20
104.1446366153
 30
0.0
 10
68.6185426227
 20
104.0152858317
 30
0.0
 10
68.9233439521
 20
103.9860203038
 30
0.0
 10
69.2082627848
 20
104.0251422417
 30
0.0
 10
69.3806248634
 20
104.0967474791
 30
0.0
 10
69.4589111406
 20
104.1419786548
 30
0.0
  0
SPLINE
  5
44F
100
AcDbEntity
  8
0
100
AcDbSpline
 62
7
  6
CONTINUOUS
 70
0
 71
3
 72
18
 73
14
 74
0
 42
0.0000001
 43
0.0000001
 44
0.0000000001
 40
0.0
 40
0.0
 40
0.0
 40
0.0
 40
0.1240741696
 40
0.2602748684
 40
0.4025424132
 40
0.5435719381
 40
0.6116209536
 40
0.6770269274
 40
0.7974711817
 40
0.852495375
 40
0.9041602361
 40
0.952995823
 40
1.0
 40
1.0
 40
1.0
 40
1.0
 10
80.9159896477
 20
99.85308589
 30
0.0
 10
80.9159896477
 20
99.5755203563
 30
0.0
 10
81.0013666567
 20
98.992411535
 30
0.0
 10
81.321341892
 20
98.1448592285
 30
0.0
 10
81.8161915063
 20
97.3411010497
 30
0.0
 10
82.3479525448
 20
96.7550668338
 30
0.0
 10
82.8264215981
 20
96.3683808153
 30
0.0
 10
83.3038680009
 20
96.059677687
 30
0.0
 10
83.8077793644
 20
95.8474495332
 30
0.0
 10
84.3104555991
 20
95.7614188786
 30
0.0
 10
84.6603671658
 20
95.7606805824
 30
0.0
 10
84.9863140716
 20
95.8250450119
 30
0.0
 10
85.1847369516
 20
95.9115558336
 30
0.0
 10
85.275776163
 20
95.9641767581
 30
0.0
  0
SPLINE
  5
450
100
AcDbEntity
  8
0
100
AcDbSpline
 62
7
  6
CONTINUOUS
 70
0
 71
3
 72
18
 73
14
 74
0
 42
0.0000001
 43
0.0000001
 44
0.0000000001
 40
0.0
 40
0.0
 40
0.0
 40
0.0
 40
0.1269832061
 40
0.2665955338
 40
0.4118723417
 40
0.5547301709
 40
0.6230331901
 40
0.6881752048
 40
0.8063848548
 40
0.8595192466
 40
0.9089152617
 40
0.9553117243
 40
1.0
 40
1.0
 40
1.0
 40
1.0
 10
73.0217737421
 20
103.9501614801
 30
0.0
 10
73.0217737421
 20
103.6724425158
 30
0.0
 10
73.1009210808
 20
103.0887298755
 30
0.0
 10
73.3959317116
 20
102.232822357
 30
0.0
 10
73.853357545
 20
101.4114459115
 30
0.0
 10
74.3474789222
 20
100.8023249596
 30
0.0
 10
74.7943612661
 20
100.3939181782
 30
0.0
 10
75.2372091782
 20
100.0663802067
 30
0.0
 10
75.7070549199
 20
99.8318138079
 30
0.0
 10
76.1796697994
 20
99.7239761751
 30
0.0
 10
76.5071919938
 20
99.7089103814
 30
0.0
 10
76.8125602309
 20
99.7607584397
 30
0.0
 10
76.997858198
 20
99.8397550354
 30
0.0
 10
77.0824852599
 20
99.8886478843
 30
0.0
  0
SPLINE
  5
451
100
AcDbEntity
  8
0
100
AcDbSpline
 62
7
  6
CONTINUOUS
 70
0
 71
3
 72
11
 73
7
 74
0
 42
0.0000001
 43
0.0000001
 44
0.0000000001
 40
0.0
 40
0.0
 40
0.0
 40
0.0
 40
0.2353987955
 40
0.4807386069
 40
0.7357562239
 40
1.0
 40
1.0
 40
1.0
 40
1.0
 10
25.2812858828
 20
129.1732466855
 30
0.0
 10
27.443195329
 20
127.4513398124
 30
0.0
 10
32.0016025491
 20
124.1117474574
 30
0.0
 10
39.3271565579
 20
119.5209920188
 30
0.0
 10
47.2409907962
 20
115.2699224503
 30
0.0
 10
52.7844215683
 20
112.7219564734
 30
0.0
 10
55.6392450781
 20
111.5072273356
 30
0.0
  0
SPLINE
  5
452
100
AcDbEntity
  8
0
100
AcDbSpline
 62
7
  6
CONTINUOUS
 70
0
 71
3
 72
9
 73
5
 74
0
 42
0.0000001
 43
0.0000001
 44
0.0000000001
 40
0.0
 40
0.0
 40
0.0
 40
0.0
 40
0.2641137895
 40
1.0
 40
1.0
 40
1.0
 40
1.0
 10
55.6392450781
 20
111.5072273356
 30
0.0
 10
55.8375846063
 20
111.4228337459
 30
0.0
 10
56.5791978432
 20
111.0825444222
 30
0.0
 10
57.2835599946
 20
110.6553042173
 30
0.0
 10
57.7563400635
 20
110.2849496275
 30
0.0
  0
SPLINE
  5
453
100
AcDbEntity
  8
0
100
AcDbSpline
 62
7
  6
CONTINUOUS
 70
0
 71
3
 72
11
 73
7
 74
0
 42
0.0000001
 43
0.0000001
 44
0.0000000001
 40
0.0
 40
0.0
 40
0.0
 40
0.0
 40
0.2353852636
 40
0.4807390254
 40
0.7357706567
 40
1.0
 40
1.0
 40
1.0
 40
1.0
 10
57.7563400635
 20
110.2849496275
 30
0.0
 10
59.9624600057
 20
108.5567747322
 30
0.0
 10
64.6120398151
 20
105.2079123008
 30
0.0
 10
72.0778803085
 20
100.6130409302
 30
0.0
 10
80.137411926
 20
96.3674097318
 30
0.0
 10
85.7792769585
 20
93.8293330796
 30
0.0
 10
88.683852455
 20
92.6211646829
 30
0.0
  0
SPLINE
  5
454
100
AcDbEntity
  8
0
100
AcDbSpline
 62
7
  6
CONTINUOUS
 70
0
 71
3
 72
14
 73
10
 74
0
 42
0.0000001
 43
0.0000001
 44
0.0000000001
 40
0.0
 40
0.0
 40
0.0
 40
0.0
 40
0.2896798377
 40
0.4304033948
 40
0.5638263241
 40
0.6874027586
 40
0.8004089113
 40
0.9036177366
 40
1.0
 40
1.0
 40
1.0
 40
1.0
 10
81.4257506799
 20
66.4901728213
 30
0.0
 10
81.6438122713
 20
66.0836071342
 30
0.0
 10
82.0523936054
 20
65.5186973045
 30
0.0
 10
82.7229433753
 20
64.9180757846
 30
0.0
 10
83.2550353839
 20
64.5690156285
 30
0.0
 10
83.8005410356
 20
64.3367557454
 30
0.0
 10
84.3358997268
 20
64.2310064818
 30
0.0
 10
84.8391676569
 20
64.2566391956
 30
0.0
 10
85.1428776876
 20
64.3703677582
 30
0.0
 10
85.275776163
 20
64.4471834569
 30
0.0
  0
SPLINE
  5
455
100
AcDbEntity
  8
0
100
AcDbSpline
 62
7
  6
CONTINUOUS
 70
0
 71
3
 72
14
 73
10
 74
0
 42
0.0000001
 43
0.0000001
 44
0.0000000001
 40
0.0
 40
0.0
 40
0.0
 40
0.0
 40
0.2949786823
 40
0.4346551423
 40
0.5662538885
 40
0.6883069038
 40
0.8006598615
 40
0.9039569797
 40
1.0
 40
1.0
 40
1.0
 40
1.0
 10
73.8588119502
 20
69.935563169
 30
0.0
 10
74.0564722901
 20
69.6392477323
 30
0.0
 10
74.3926940341
 20
69.2292336229
 30
0.0
 10
74.9108429412
 20
68.7812887527
 30
0.0
 10
75.3068491054
 20
68.5163468407
 30
0.0
 10
75.7080824626
 20
68.3267005735
 30
0.0
 10
76.1029396831
 20
68.2162756304
 30
0.0
 10
76.4810021553
 20
68.1871330564
 30
0.0
 10
76.7215446587
 20
68.2273628385
 30
0.0
 10
76.8322153963
 20
68.2620304764
 30
0.0
  0
SPLINE
  5
456
100
AcDbEntity
  8
0
100
AcDbSpline
 62
7
  6
CONTINUOUS
 70
0
 71
3
 72
14
 73
10
 74
0
 42
0.0000001
 43
0.0000001
 44
0.0000000001
 40
0.0
 40
0.0
 40
0.0
 40
0.0
 40
0.3074931305
 40
0.449746208
 40
0.5812297407
 40
0.700905175
 40
0.8092304364
 40
0.9077383892
 40
1.0
 40
1.0
 40
1.0
 40
1.0
 10
66.5746408335
 20
74.1563747795
 30
0.0
 10
66.7670929903
 20
73.8597697861
 30
0.0
 10
67.0912008916
 20
73.4502133217
 30
0.0
 10
67.5903536856
 20
73.0038912446
 30
0.0
 10
67.9656324128
 20
72.7483051494
 30
0.0
 10
68.3420336451
 20
72.572610086
 30
0.0
 10
68.7085160044
 20
72.4794039559
 30
0.0
 10
69.0561632306
 20
72.4739536779
 30
0.0
 10
69.2710833941
 20
72.5342011982
 30
0.0
 10
69.367679295
 20
72.5780609642
 30
0.0
  0
SPLINE
  5
457
100
AcDbEntity
  8
0
100
AcDbSpline
 62
7
  6
CONTINUOUS
 70
0
 71
3
 72
11
 73
7
 74
0
 42
0.0000001
 43
0.0000001
 44
0.0000000001
 40
0.0
 40
0.0
 40
0.0
 40
0.0
 40
0.2047526489
 40
0.4334533199
 40
0.697675246
 40
1.0
 40
1.0
 40
1.0
 40
1.0
 10
39.4104200192
 20
146.9454250589
 30
0.0
 10
39.315927752
 20
146.8908328441
 30
0.0
 10
39.1385351364
 20
146.733332134
 30
0.0
 10
38.9560579839
 20
146.403601183
 30
0.0
 10
38.8481383271
 20
145.9904220782
 30
0.0
 10
38.8272678388
 20
145.6876326354
 30
0.0
 10
38.8272678388
 20
145.5264999584
 30
0.0
  0
SPLINE
  5
458
100
AcDbEntity
  8
0
100
AcDbSpline
 62
7
  6
CONTINUOUS
 70
0
 71
3
 72
11
 73
7
 74
0
 42
0.0000001
 43
0.0000001
 44
0.0000000001
 40
0.0
 40
0.0
 40
0.0
 40
0.0
 40
0.2796504337
 40
0.5351829878
 40
0.7716506244
 40
1.0
 40
1.0
 40
1.0
 40
1.0
 10
136.6141496832
 20
149.8499332227
 30
0.0
 10
136.5037670843
 20
149.7862041799
 30
0.0
 10
136.3027890953
 20
149.6445729165
 30
0.0
 10
136.0644615084
 20
149.3813452891
 30
0.0
 10
135.9145800142
 20
149.0840266085
 30
0.0
 10
135.8820826437
 20
148.8705226272
 30
0.0
 10
135.8822033389
 20
148.7664459605
 30
0.0
  0
SPLINE
  5
459
100
AcDbEntity
  8
0
100
AcDbSpline
 62
7
  6
CONTINUOUS
 70
0
 71
3
 72
11
 73
7
 74
0
 42
0.0000001
 43
0.0000001
 44
0.0000000001
 40
0.0
 40
0.0
 40
0.0
 40
0.0
 40
0.3066497273
 40
0.5728851246
 40
0.8001405677
 40
1.0
 40
1.0
 40
1.0
 40
1.0
 10
121.7648454551
 20
157.8822101424
 30
0.0
 10
121.6560841496
 20
157.8194171482
 30
0.0
 10
121.4602395129
 20
157.6881797295
 30
0.0
 10
121.2230222421
 20
157.4589700289
 30
0.0
 10
121.0699186171
 20
157.2151894438
 30
0.0
 10
121.032687344
 20
157.0390963695
 30
0.0
 10
121.0328249001
 20
156.9572452572
 30
0.0
  0
SPLINE
  5
45A
100
AcDbEntity
  8
0
100
AcDbSpline
 62
7
  6
CONTINUOUS
 70
0
 71
3
 72
11
 73
7
 74
0
 42
0.0000001
 43
0.0000001
 44
0.0000000001
 40
0.0
 40
0.0
 40
0.0
 40
0.0
 40
0.2201856055
 40
0.453938789
 40
0.7124668073
 40
1.0
 40
1.0
 40
1.0
 40
1.0
 10
42.0323952614
 20
123.7359677364
 30
0.0
 10
41.9230995554
 20
123.6729191139
 30
0.0
 10
41.7183641333
 20
123.5034199435
 30
0.0
 10
41.5003872328
 20
123.1514073679
 30
0.0
 10
41.3712830365
 20
122.7194211342
 30
0.0
 10
41.3455263216
 20
122.405427515
 30
0.0
 10
41.3455263216
 20
122.2406568588
 30
0.0
  0
SPLINE
  5
45B
100
AcDbEntity
  8
0
100
AcDbSpline
 62
7
  6
CONTINUOUS
 70
0
 71
3
 72
11
 73
7
 74
0
 42
0.0000001
 43
0.0000001
 44
0.0000000001
 40
0.0
 40
0.0
 40
0.0
 40
0.0
 40
0.2282385775
 40
0.471156773
 40
0.7286550681
 40
1.0
 40
1.0
 40
1.0
 40
1.0
 10
112.7845713759
 20
158.627860295
 30
0.0
 10
114.8436398357
 20
158.1325543711
 30
0.0
 10
119.0285816968
 20
156.8234458234
 30
0.0
 10
125.2193028205
 20
154.075325023
 30
0.0
 10
131.4463516584
 20
150.5172255718
 30
0.0
 10
135.4745162514
 20
147.7024784279
 30
0.0
 10
137.4787483655
 20
146.1785740481
 30
0.0
  0
SPLINE
  5
45C
100
AcDbEntity
  8
0
100
AcDbSpline
 62
7
  6
CONTINUOUS
 70
0
 71
3
 72
11
 73
7
 74
0
 42
0.0000001
 43
0.0000001
 44
0.0000000001
 40
0.0
 40
0.0
 40
0.0
 40
0.0
 40
0.2977289052
 40
0.5606042422
 40
0.7905090677
 40
1.0
 40
1.0
 40
1.0
 40
1.0
 10
137.4787483655
 20
146.1785740481
 30
0.0
 10
137.5306534
 20
146.139108405
 30
0.0
 10
137.6348885143
 20
146.0725981002
 30
0.0
 10
137.7990262133
 20
146.0123589109
 30
0.0
 10
137.9551420917
 20
146.0018372008
 30
0.0
 10
138.0497073632
 20
146.0321268902
 30
0.0
 10
138.0894226771
 20
146.0550980418
 30
0.0
  0
SPLINE
  5
45D
100
AcDbEntity
  8
0
100
AcDbSpline
 62
7
  6
CONTINUOUS
 70
0
 71
3
 72
11
 73
7
 74
0
 42
0.0000001
 43
0.0000001
 44
0.0000000001
 40
0.0
 40
0.0
 40
0.0
 40
0.0
 40
0.2207699382
 40
0.4631096014
 40
0.7243233595
 40
1.0
 40
1.0
 40
1.0
 40
1.0
 10
139.4736437906
 20
146.8823717484
 30
0.0
 10
139.9166185478
 20
146.7340930436
 30
0.0
 10
140.8146999735
 20
146.3266624204
 30
0.0
 10
142.0956939709
 20
145.4762753479
 30
0.0
 10
143.3374757749
 20
144.3850084408
 30
0.0
 10
144.0976276584
 20
143.5369636785
 30
0.0
 10
144.4630870625
 20
143.0823300366
 30
0.0
  0
SPLINE
  5
45E
100
AcDbEntity
  8
0
100
AcDbSpline
 62
7
  6
CONTINUOUS
 70
0
 71
3
 72
11
 73
7
 74
0
 42
0.0000001
 43
0.0000001
 44
0.0000000001
 40
0.0
 40
0.0
 40
0.0
 40
0.0
 40
0.2282385775
 40
0.471156773
 40
0.7286550681
 40
1.0
 40
1.0
 40
1.0
 40
1.0
 10
81.1060556894
 20
176.9170460975
 30
0.0
 10
83.1651241491
 20
176.4217401736
 30
0.0
 10
87.3500660102
 20
175.1126316259
 30
0.0
 10
93.5407871339
 20
172.3645108255
 30
0.0
 10
99.7678359718
 20
168.8064113743
 30
0.0
 10
103.7960005648
 20
165.9916642304
 30
0.0
 10
105.8002326789
 20
164.4677598506
 30
0.0
  0
SPLINE
  5
45F
100
AcDbEntity
  8
0
100
AcDbSpline
 62
7
  6
CONTINUOUS
 70
0
 71
3
 72
11
 73
7
 74
0
 42
0.0000001
 43
0.0000001
 44
0.0000000001
 40
0.0
 40
0.0
 40
0.0
 40
0.0
 40
0.2977289052
 40
0.5606042422
 40
0.7905090677
 40
1.0
 40
1.0
 40
1.0
 40
1.0
 10
105.8002326789
 20
164.4677598506
 30
0.0
 10
105.8521377134
 20
164.4282942075
 30
0.0
 10
105.9563728278
 20
164.3617839027
 30
0.0
 10
106.1205105267
 20
164.3015447134
 30
0.0
 10
106.2766264051
 20
164.2910230033
 30
0.0
 10
106.3711916766
 20
164.3213126927
 30
0.0
 10
106.4109069905
 20
164.3442838443
 30
0.0
  0
SPLINE
  5
460
100
AcDbEntity
  8
0
100
AcDbSpline
 62
7
  6
CONTINUOUS
 70
0
 71
3
 72
17
 73
13
 74
0
 42
0.0000001
 43
0.0000001
 44
0.0000000001
 40
0.0
 40
0.0
 40
0.0
 40
0.0
 40
0.0428571351
 40
0.0874839364
 40
0.1353160071
 40
0.1872791416
 40
0.3045400115
 40
0.4382081091
 40
0.5825513186
 40
0.7297108723
 40
0.8713103985
 40
1.0
 40
1.0
 40
1.0
 40
1.0
 10
96.723201661
 20
131.9084521839
 30
0.0
 10
96.7232302497
 20
131.9796162774
 30
0.0
 10
96.7041754575
 20
132.1255031262
 30
0.0
 10
96.620533166
 20
132.3361524591
 30
0.0
 10
96.4847444354
 20
132.5358457015
 30
0.0
 10
96.2291891915
 20
132.7923708345
 30
0.0
 10
95.793678114
 20
133.0574708575
 30
0.0
 10
95.1674993296
 20
133.2666417022
 30
0.0
 10
94.4647745431
 20
133.3653965652
 30
0.0
 10
93.7424680619
 20
133.3454148313
 30
0.0
 10
93.059553059
 20
133.2087823696
 30
0.0
 10
92.6405320665
 20
133.0358977927
 30
0.0
 10
92.4554720673
 20
132.9290539901
 30
0.0
  0
SPLINE
  5
461
100
AcDbEntity
  8
0
100
AcDbSpline
 62
7
  6
CONTINUOUS
 70
0
 71
3
 72
11
 73
7
 74
0
 42
0.0000001
 43
0.0000001
 44
0.0000000001
 40
0.0
 40
0.0
 40
0.0
 40
0.0
 40
0.2243960141
 40
0.4670202036
 40
0.7264229928
 40
1.0
 40
1.0
 40
1.0
 40
1.0
 10
107.795128104
 20
165.1715575509
 30
0.0
 10
108.1504011352
 20
165.0526355941
 30
0.0
 10
108.8698501604
 20
164.7433393858
 30
0.0
 10
109.9121535646
 20
164.1175580264
 30
0.0
 10
110.9390929823
 20
163.3245118871
 30
0.0
 10
111.5848008738
 20
162.7097989756
 30
0.0
 10
111.9006842195
 20
162.3798784156
 30
0.0
  0
SPLINE
  5
462
100
AcDbEntity
  8
0
100
AcDbSpline
 62
7
  6
CONTINUOUS
 70
0
 71
3
 72
11
 73
7
 74
0
 42
0.0000001
 43
0.0000001
 44
0.0000000001
 40
0.0
 40
0.0
 40
0.0
 40
0.0
 40
0.2566421916
 40
0.5186205344
 40
0.7708348731
 40
1.0
 40
1.0
 40
1.0
 40
1.0
 10
111.9006842195
 20
162.3798784156
 30
0.0
 10
112.0340652414
 20
162.2405702121
 30
0.0
 10
112.2767696601
 20
161.9325162672
 30
0.0
 10
112.5551515772
 20
161.4215133848
 30
0.0
 10
112.7360328303
 20
160.8901168561
 30
0.0
 10
112.7845713759
 20
160.5279584762
 30
0.0
 10
112.7845713759
 20
160.3557414748
 30
0.0
  0
SPLINE
  5
463
100
AcDbEntity
  8
0
100
AcDbSpline
 62
7
  6
CONTINUOUS
 70
0
 71
3
 72
17
 73
13
 74
0
 42
0.0000001
 43
0.0000001
 44
0.0000000001
 40
0.0
 40
0.0
 40
0.0
 40
0.0
 40
0.128688864
 40
0.2702797703
 40
0.4174318348
 40
0.5617733576
 40
0.6954455149
 40
0.8127096012
 40
0.8646749146
 40
0.9125085807
 40
0.9571389861
 40
1.0
 40
1.0
 40
1.0
 40
1.0
 10
139.4072525277
 20
144.2373987879
 30
0.0
 10
139.4072525277
 20
144.0450802395
 30
0.0
 10
139.4610567796
 20
143.6407012749
 30
0.0
 10
139.6618624278
 20
143.0469604518
 30
0.0
 10
139.9713036818
 20
142.4750047428
 30
0.0
 10
140.3644919016
 20
141.9717280259
 30
0.0
 10
140.8093050551
 20
141.577781189
 30
0.0
 10
141.211922759
 20
141.3576296638
 30
0.0
 10
141.5268701696
 20
141.2738560643
 30
0.0
 10
141.7436316434
 20
141.2578949472
 30
0.0
 10
141.9454724275
 20
141.2874763771
 30
0.0
 10
142.0677613764
 20
141.338289164
 30
0.0
 10
142.1232206627
 20
141.3703377876
 30
0.0
  0
SPLINE
  5
464
100
AcDbEntity
  8
0
100
AcDbSpline
 62
7
  6
CONTINUOUS
 70
0
 71
3
 72
17
 73
13
 74
0
 42
0.0000001
 43
0.0000001
 44
0.0000000001
 40
0.0
 40
0.0
 40
0.0
 40
0.0
 40
0.128688864
 40
0.2702797703
 40
0.4174318348
 40
0.5617733576
 40
0.6954455149
 40
0.8127096012
 40
0.8646749146
 40
0.9125085807
 40
0.9571389861
 40
1.0
 40
1.0
 40
1.0
 40
1.0
 10
107.7287368411
 20
162.5265845904
 30
0.0
 10
107.7287368411
 20
162.334266042
 30
0.0
 10
107.782541093
 20
161.9298870774
 30
0.0
 10
107.9833467412
 20
161.3361462543
 30
0.0
 10
108.2927879953
 20
160.7641905453
 30
0.0
 10
108.685976215
 20
160.2609138284
 30
0.0
 10
109.1307893685
 20
159.8669669915
 30
0.0
 10
109.5334070724
 20
159.6468154663
 30
0.0
 10
109.848354483
 20
159.5630418668
 30
0.0
 10
110.0651159569
 20
159.5470807497
 30
0.0
 10
110.2669567409
 20
159.5766621796
 30
0.0
 10
110.3892456898
 20
159.6274749665
 30
0.0
 10
110.4447049761
 20
159.6595235901
 30
0.0
  0
SPLINE
  5
465
100
AcDbEntity
  8
0
100
AcDbSpline
 62
7
  6
CONTINUOUS
 70
0
 71
3
 72
11
 73
7
 74
0
 42
0.0000001
 43
0.0000001
 44
0.0000000001
 40
0.0
 40
0.0
 40
0.0
 40
0.0
 40
0.2161036007
 40
0.448473122
 40
0.7084421024
 40
1.0
 40
1.0
 40
1.0
 40
1.0
 10
80.3325417984
 20
122.5621781054
 30
0.0
 10
80.2286247982
 20
122.5021393531
 30
0.0
 10
80.0341639252
 20
122.3374991178
 30
0.0
 10
79.8283802799
 20
121.9958327686
 30
0.0
 10
79.7065569003
 20
121.5739449228
 30
0.0
 10
79.6826815992
 20
121.2666488339
 30
0.0
 10
79.6826815992
 20
121.104730794
 30
0.0
  0
SPLINE
  5
466
100
AcDbEntity
  8
0
100
AcDbSpline
 62
7
  6
CONTINUOUS
 70
0
 71
3
 72
11
 73
7
 74
0
 42
0.0000001
 43
0.0000001
 44
0.0000000001
 40
0.0
 40
0.0
 40
0.0
 40
0.0
 40
0.2796504337
 40
0.5351829878
 40
0.7716506244
 40
1.0
 40
1.0
 40
1.0
 40
1.0
 10
104.9356339966
 20
168.1391190252
 30
0.0
 10
104.8252513977
 20
168.0753899824
 30
0.0
 10
104.6242734087
 20
167.933758719
 30
0.0
 10
104.3859458218
 20
167.6705310916
 30
0.0
 10
104.2360643276
 20
167.373212411
 30
0.0
 10
104.2035669571
 20
167.1597084297
 30
0.0
 10
104.2036876523
 20
167.055631763
 30
0.0
  0
SPLINE
  5
467
100
AcDbEntity
  8
0
100
AcDbSpline
 62
7
  6
CONTINUOUS
 70
0
 71
3
 72
11
 73
7
 74
0
 42
0.0000001
 43
0.0000001
 44
0.0000000001
 40
0.0
 40
0.0
 40
0.0
 40
0.0
 40
0.3066497273
 40
0.5728851246
 40
0.8001405677
 40
1.0
 40
1.0
 40
1.0
 40
1.0
 10
90.0863297685
 20
176.1713959449
 30
0.0
 10
89.977568463
 20
176.1086029507
 30
0.0
 10
89.7817238263
 20
175.977365532
 30
0.0
 10
89.5445065555
 20
175.7481558314
 30
0.0
 10
89.3914029305
 20
175.5043752463
 30
0.0
 10
89.3541716574
 20
175.328282172
 30
0.0
 10
89.3543092135
 20
175.2464310597
 30
0.0
  0
SPLINE
  5
468
100
AcDbEntity
  8
0
100
AcDbSpline
 62
7
  6
CONTINUOUS
 70
0
 71
3
 72
17
 73
13
 74
0
 42
0.0000001
 43
0.0000001
 44
0.0000000001
 40
0.0
 40
0.0
 40
0.0
 40
0.0
 40
0.0428571351
 40
0.0874839364
 40
0.1353160071
 40
0.1872791416
 40
0.3045400115
 40
0.4382081091
 40
0.5825513186
 40
0.7297108723
 40
0.8713103985
 40
1.0
 40
1.0
 40
1.0
 40
1.0
 10
86.823665509
 20
137.6238227472
 30
0.0
 10
86.8236940976
 20
137.6949868407
 30
0.0
 10
86.8046393055
 20
137.8408736895
 30
0.0
 10
86.7209970139
 20
138.0515230224
 30
0.0
 10
86.5852082834
 20
138.2512162648
 30
0.0
 10
86.3296530395
 20
138.5077413978
 30
0.0
 10
85.8941419619
 20
138.7728414208
 30
0.0
 10
85.2679631776
 20
138.9820122655
 30
0.0
 10
84.5652383911
 20
139.0807671285
 30
0.0
 10
83.8429319099
 20
139.0607853946
 30
0.0
 10
83.160016907
 20
138.9241529329
 30
0.0
 10
82.7409959145
 20
138.751268356
 30
0.0
 10
82.5559359152
 20
138.6444245534
 30
0.0
  0
SPLINE
  5
469
100
AcDbEntity
  8
0
100
AcDbSpline
 62
7
  6
CONTINUOUS
 70
0
 71
3
 72
11
 73
7
 74
0
 42
0.0000001
 43
0.0000001
 44
0.0000000001
 40
0.0
 40
0.0
 40
0.0
 40
0.0
 40
0.2047526489
 40
0.4334533199
 40
0.697675246
 40
1.0
 40
1.0
 40
1.0
 40
1.0
 10
71.0889357057
 20
128.6562392563
 30
0.0
 10
70.9944434386
 20
128.6016470416
 30
0.0
 10
70.817050823
 20
128.4441463315
 30
0.0
 10
70.6345736705
 20
128.1144153805
 30
0.0
 10
70.5266540137
 20
127.7012362757
 30
0.0
 10
70.5057835254
 20
127.3984468329
 30
0.0
 10
70.5057835254
 20
127.2373141559
 30
0.0
  0
SPLINE
  5
46A
100
AcDbEntity
  8
0
100
AcDbSpline
 62
7
  6
CONTINUOUS
 70
0
 71
3
 72
11
 73
7
 74
0
 42
0.0000001
 43
0.0000001
 44
0.0000000001
 40
0.0
 40
0.0
 40
0.0
 40
0.0
 40
0.2200416524
 40
0.4537473138
 40
0.7123293555
 40
1.0
 40
1.0
 40
1.0
 40
1.0
 10
73.7076823552
 20
105.4449178844
 30
0.0
 10
73.5985200665
 20
105.38194628
 30
0.0
 10
73.3940247173
 20
105.2125504301
 30
0.0
 10
73.1763822413
 20
104.8607008147
 30
0.0
 10
73.0474844657
 20
104.4288404457
 30
0.0
 10
73.0217737421
 20
104.1149173497
 30
0.0
 10
73.0217737421
 20
103.9501614801
 30
0.0
  0
SPLINE
  5
46B
100
AcDbEntity
  8
0
100
AcDbSpline
 62
7
  6
CONTINUOUS
 70
0
 71
3
 72
17
 73
13
 74
0
 42
0.0000001
 43
0.0000001
 44
0.0000000001
 40
0.0
 40
0.0
 40
0.0
 40
0.0
 40
0.0428571351
 40
0.0874839364
 40
0.1353160071
 40
0.1872791416
 40
0.3045400115
 40
0.4382081091
 40
0.5825513186
 40
0.7297108723
 40
0.8713103985
 40
1.0
 40
1.0
 40
1.0
 40
1.0
 10
106.6227378131
 20
126.1930816206
 30
0.0
 10
106.6227664017
 20
126.2642457141
 30
0.0
 10
106.6037116096
 20
126.4101325629
 30
0.0
 10
106.5200693181
 20
126.6207818958
 30
0.0
 10
106.3842805875
 20
126.8204751382
 30
0.0
 10
106.1287253436
 20
127.0770002712
 30
0.0
 10
105.693214266
 20
127.3421002942
 30
0.0
 10
105.0670354817
 20
127.5512711389
 30
0.0
 10
104.3643106952
 20
127.6500260019
 30
0.0
 10
103.642004214
 20
127.630044268
 30
0.0
 10
102.9590892111
 20
127.4934118063
 30
0.0
 10
102.5400682186
 20
127.3205272294
 30
0.0
 10
102.3550082194
 20
127.2136834268
 30
0.0
  0
SPLINE
  5
46C
100
AcDbEntity
  8
0
100
AcDbSpline
 62
7
  6
CONTINUOUS
 70
0
 71
3
 72
11
 73
7
 74
0
 42
0.0000001
 43
0.0000001
 44
0.0000000001
 40
0.0
 40
0.0
 40
0.0
 40
0.0
 40
0.2273316305
 40
0.4634831125
 40
0.7193352569
 40
1.0
 40
1.0
 40
1.0
 40
1.0
 10
81.6530464724
 20
101.3773770295
 30
0.0
 10
81.5368455108
 20
101.3103429386
 30
0.0
 10
81.3196887604
 20
101.1354389435
 30
0.0
 10
81.0842679722
 20
100.7750979041
 30
0.0
 10
80.9442111926
 20
100.3365259453
 30
0.0
 10
80.9159896477
 20
100.0187081837
 30
0.0
 10
80.9159896477
 20
99.85308589
 30
0.0
  0
ENDSEC
  0
SECTION
  2
OBJECTS
  0
DICTIONARY
  5
C
100
AcDbDictionary
280
0
281
1
  3
ACAD_GROUP
350
D
  3
ACAD_MLINESTYLE
350
17
  3
ACAD_LAYOUT
350
1A
  3
ACAD_PLOTSETTINGS
350
19
  3
ACAD_PLOTSTYLENAME
350
E
  0
DICTIONARY
  5
D
102
{ACAD_REACTORS
330
C
102
}
100
AcDbDictionary
280
0
281
1
  0
ACDBDICTIONARYWDFLT
  5
E
102
{ACAD_REACTORS
330
C
102
}
100
AcDbDictionary
281
1
  3
Normal
350
F
100
AcDbDictionaryWithDefault
340
F
  0
DICTIONARY
  5
17
102
{ACAD_REACTORS
330
C
102
}
100
AcDbDictionary
280
0
281
1
  3
Standard
350
18
  0
DICTIONARY
  5
19
102
{ACAD_REACTORS
330
C
102
}
100
AcDbDictionary
281
1
  0
DICTIONARY
  5
1A
102
{ACAD_REACTORS
330
C
102
}
100
AcDbDictionary
281
1
  3
Model
350
46D
  3
Layout1
350
46E
  0
ACDBPLACEHOLDER
  5
F
102
{ACAD_REACTORS
330
E
102
}
  0
MLINESTYLE
  5
18
102
{ACAD_REACTORS
330
17
102
}
100
AcDbMlineStyle
  2
STANDARD
 70
0
  3

 62
256
 51
90.0
 52
90.0
 71
2
 49
0.5
 62
256
  6
BYLAYER
 49
-0.5
 62
256
  6
BYLAYER
  0
LAYOUT
  5
46D
102
{ACAD_REACTORS
330
1A
102
}
100
AcDbPlotSettings
  1

  2
none_device
  4

  6

 40
0.0
 41
0.0
 42
0.0
 43
0.0
 44
210.0
 45
297.0
 46
0.0
 47
0.0
 48
0.0
 49
0.0
140
0.0
141
0.0
142
1.0
143
1.0
 70
1024
 72
1
 73
0
 74
0
  7

 75
0
147
1.0
148
0.0
149
0.0
100
AcDbLayout
  1
Model
 70
0
 71
0
 10
0.0
 20
0.0
 11
210.0
 21
297.0
 12
0.0
 22
0.0
 32
0.0
 14
0.0
 24
0.0
 34
0.0
 15
0.0
 25
0.0
 35
0.0
146
0.0
 13
0.0
 23
0.0
 33
0.0
 16
1.0
 26
0.0
 36
0.0
 17
0.0
 27
1.0
 37
0.0
 76
0
330
212
345
0
346
0
  0
LAYOUT
  5
46E
102
{ACAD_REACTORS
330
1A
102
}
100
AcDbPlotSettings
  1

  2
none_device
  4

  6

 40
0.0
 41
0.0
 42
0.0
 43
0.0
 44
210.0
 45
297.0
 46
0.0
 47
0.0
 48
0.0
 49
0.0
140
0.0
141
0.0
142
1.0
143
1.0
 70
0
 72
1
 73
0
 74
0
  7

 75
0
147
1.0
148
0.0
149
0.0
100
AcDbLayout
  1
Layout1
 70
0
 71
1
 10
0.0
 20
0.0
 11
210.0
 21
297.0
 12
0.0
 22
0.0
 32
0.0
 14
0.0
 24
0.0
 34
0.0
 15
0.0
 25
0.0
 35
0.0
146
0.0
 13
0.0
 23
0.0
 33
0.0
 16
1.0
 26
0.0
 36
0.0
 17
0.0
 27
1.0
 37
0.0
 76
0
330
213
345
0
346
0
  0
ENDSEC
  0
EOF
